  0
SECTION
  2
HEADER
  9
$ACADVER
  1
AC1009
  9
$INSBASE
 10
6806.1154787111672704
 20
159.6558436468677087
 30
0.0
  9
$EXTMIN
 10
6782.5813492638772004
 20
135.1891569633785082
 30
-0.0000000349181948
  9
$EXTMAX
 10
6806.4680582308656085
 20
191.2249789610299047
 30
0.0000000814935746
  9
$LIMMIN
 10
0.0
 20
0.0
  9
$LIMMAX
 10
11.6929133858000007
 20
8.2677165353999982
  9
$ORTHOMODE
 70
     0
  9
$REGENMODE
 70
     1
  9
$FILLMODE
 70
     1
  9
$QTEXTMODE
 70
     0
  9
$MIRRTEXT
 70
     0
  9
$DRAGMODE
 70
     2
  9
$LTSCALE
 40
0.6431102362
  9
$OSMODE
 70
  4095
  9
$ATTMODE
 70
     1
  9
$TEXTSIZE
 40
0.2
  9
$TRACEWID
 40
0.05
  9
$TEXTSTYLE
  7
STANDARD
  9
$CLAYER
  8
0
  9
$CELTYPE
  6
BYLAYER
  9
$CECOLOR
 62
   256
  9
$DIMSCALE
 40
1.0
  9
$DIMASZ
 40
0.1875
  9
$DIMEXO
 40
0.0625
  9
$DIMDLI
 40
0.4443307087
  9
$DIMRND
 40
0.0
  9
$DIMDLE
 40
0.0
  9
$DIMEXE
 40
0.125
  9
$DIMTP
 40
0.01
  9
$DIMTM
 40
0.01
  9
$DIMTXT
 40
2.0
  9
$DIMCEN
 40
0.1052362205
  9
$DIMTSZ
 40
0.0
  9
$DIMTOL
 70
     1
  9
$DIMLIM
 70
     0
  9
$DIMTIH
 70
     1
  9
$DIMTOH
 70
     1
  9
$DIMSE1
 70
     0
  9
$DIMSE2
 70
     0
  9
$DIMTAD
 70
     0
  9
$DIMZIN
 70
     0
  9
$DIMBLK
  1

  9
$DIMASO
 70
     1
  9
$DIMSHO
 70
     1
  9
$DIMPOST
  1
\X
  9
$DIMAPOST
  1

  9
$DIMALT
 70
     1
  9
$DIMALTD
 70
     2
  9
$DIMALTF
 40
25.3999999999999986
  9
$DIMLFAC
 40
1.0
  9
$DIMTOFL
 70
     0
  9
$DIMTVP
 40
0.0
  9
$DIMTIX
 70
     0
  9
$DIMSOXD
 70
     0
  9
$DIMSAH
 70
     0
  9
$DIMBLK1
  1

  9
$DIMBLK2
  1

  9
$DIMSTYLE
  2
STANDARD
  9
$DIMCLRD
 70
     0
  9
$DIMCLRE
 70
     0
  9
$DIMCLRT
 70
     0
  9
$DIMTFAC
 40
1.0
  9
$DIMGAP
 40
0.09
  9
$LUNITS
 70
     2
  9
$LUPREC
 70
     4
  9
$SKETCHINC
 40
0.1
  9
$FILLETRAD
 40
0.0
  9
$AUNITS
 70
     0
  9
$AUPREC
 70
     0
  9
$MENU
  1
.
  9
$ELEVATION
 40
0.0
  9
$PELEVATION
 40
0.0
  9
$THICKNESS
 40
0.0
  9
$LIMCHECK
 70
     0
  9
$BLIPMODE
 70
     0
  9
$CHAMFERA
 40
0.0
  9
$CHAMFERB
 40
0.0
  9
$SKPOLY
 70
     0
  9
$TDCREATE
 40
2458060.468368056230247
  9
$TDUPDATE
 40
2460530.8566435188986361
  9
$TDINDWG
 40
0.9842547454
  9
$TDUSRTIMER
 40
0.9842547454
  9
$USRTIMER
 70
     1
  9
$ANGBASE
 50
0.0
  9
$ANGDIR
 70
     0
  9
$PDMODE
 70
     0
  9
$PDSIZE
 40
0.3125
  9
$PLINEWID
 40
0.0
  9
$COORDS
 70
     1
  9
$SPLFRAME
 70
     0
  9
$SPLINETYPE
 70
     6
  9
$SPLINESEGS
 70
     8
  9
$ATTDIA
 70
     1
  9
$ATTREQ
 70
     1
  9
$HANDLING
 70
     1
  9
$HANDSEED
  5
30EBE
  9
$SURFTAB1
 70
     6
  9
$SURFTAB2
 70
     6
  9
$SURFTYPE
 70
     6
  9
$SURFU
 70
     6
  9
$SURFV
 70
     6
  9
$UCSNAME
  2

  9
$UCSORG
 10
0.0
 20
0.0
 30
0.0
  9
$UCSXDIR
 10
1.0
 20
0.0
 30
0.0
  9
$UCSYDIR
 10
0.0
 20
1.0
 30
0.0
  9
$PUCSNAME
  2

  9
$PUCSORG
 10
0.0
 20
0.0
 30
0.0
  9
$PUCSXDIR
 10
1.0
 20
0.0
 30
0.0
  9
$PUCSYDIR
 10
0.0
 20
1.0
 30
0.0
  9
$USERI1
 70
     0
  9
$USERI2
 70
     0
  9
$USERI3
 70
     0
  9
$USERI4
 70
     0
  9
$USERI5
 70
     0
  9
$USERR1
 40
0.0
  9
$USERR2
 40
0.0
  9
$USERR3
 40
0.0
  9
$USERR4
 40
0.0
  9
$USERR5
 40
0.0
  9
$WORLDVIEW
 70
     1
  9
$SHADEDGE
 70
     3
  9
$SHADEDIF
 70
    70
  9
$TILEMODE
 70
     1
  9
$MAXACTVP
 70
    64
  9
$PLIMCHECK
 70
     0
  9
$PEXTMIN
 10
1.0000000000000000E+20
 20
1.0000000000000000E+20
 30
1.0000000000000000E+20
  9
$PEXTMAX
 10
-1.0000000000000000E+20
 20
-1.0000000000000000E+20
 30
-1.0000000000000000E+20
  9
$PLIMMIN
 10
0.0
 20
0.0
  9
$PLIMMAX
 10
12.0
 20
9.0
  9
$UNITMODE
 70
     0
  9
$VISRETAIN
 70
     1
  9
$PLINEGEN
 70
     0
  9
$PSLTSCALE
 70
     1
  0
ENDSEC
  0
SECTION
  2
TABLES
  0
TABLE
  2
VPORT
 70
     1
  0
VPORT
  2
*ACTIVE
 70
     0
 10
0.0
 20
0.0
 11
1.0
 21
1.0
 12
2883.1593473020589045
 22
30.6274628596651688
 13
0.0
 23
0.0
 14
1.0
 24
1.0
 15
0.0
 25
0.0
 16
0.0
 26
0.0
 36
60.4960186965801583
 17
3911.3653564453120453
 27
132.5796051025390057
 37
0.0
 40
56.4174507513244023
 41
2.1568181818181809
 42
50.0
 43
0.0
 44
0.0
 50
0.0
 51
0.0
 71
     0
 72
   100
 73
     1
 74
     1
 75
     0
 76
     0
 77
     0
 78
     0
  0
ENDTAB
  0
TABLE
  2
LTYPE
 70
     2
  0
LTYPE
  2
CONTINUOUS
 70
     0
  3
Solid line
 72
    65
 73
     0
 40
0.0
  0
LTYPE
  2
PHANTOM2
 70
     0
  3
___ _ _ ___ _ _ ___ _ _ ___ _ _
 72
    65
 73
     6
 40
1.25
 49
0.625
 49
-0.125
 49
0.125
 49
-0.125
 49
0.125
 49
-0.125
  0
ENDTAB
  0
TABLE
  2
LAYER
 70
     2
  0
LAYER
  2
0
 70
     0
 62
   255
  6
CONTINUOUS
  0
LAYER
  2
DEFPOINTS
 70
     0
 62
     7
  6
CONTINUOUS
  0
ENDTAB
  0
TABLE
  2
STYLE
 70
     1
  0
STYLE
  2
STANDARD
 70
     0
 40
0.0
 41
0.8
 50
0.0
 71
     0
 42
0.2
  3
txt
  4

  0
ENDTAB
  0
TABLE
  2
VIEW
 70
     0
  0
ENDTAB
  0
TABLE
  2
UCS
 70
     0
  0
ENDTAB
  0
TABLE
  2
APPID
 70
    11
  0
APPID
  2
ACAD
 70
     0
  0
APPID
  2
ACAD_MLEADERVER
 70
     0
  0
APPID
  2
ACAD_EXEMPT_FROM_CAD_STANDARDS
 70
     0
  0
APPID
  2
ACAD_NAV_VCDISPLAY
 70
     0
  0
APPID
  2
ACAECLAYERSTANDARD
 70
     0
  0
APPID
  2
ACCMTRANSPARENCY
 70
     0
  0
APPID
  2
ACAD_DSTYLE_DIMJAG
 70
     0
  0
APPID
  2
ACAD_DSTYLE_DIMTALN
 70
     0
  0
APPID
  2
ACDBATTR
 70
     0
  0
APPID
  2
ACADANNOTATIVE
 70
     0
  0
APPID
  2
DCO15
 70
     0
  0
ENDTAB
  0
TABLE
  2
DIMSTYLE
 70
     1
  0
DIMSTYLE
  2
STANDARD
 70
     0
  3

  4

  5

  6

  7

 40
1.0
 41
0.1875
 42
0.0625
 43
0.38
 44
0.125
 45
0.0
 46
0.0
 47
0.01
 48
0.01
140
0.15625
141
0.09
142
0.0
143
25.3999999999999986
144
1.0
145
0.0
146
1.0
147
0.09
 71
     1
 72
     0
 73
     1
 74
     1
 75
     0
 76
     0
 77
     0
 78
     4
170
     0
171
     2
172
     0
173
     0
174
     0
175
     0
176
     0
177
     0
178
     0
  0
ENDTAB
  0
ENDSEC
  0
SECTION
  2
BLOCKS
  0
BLOCK
  8
0
  2
$MODEL_SPACE
 70
     0
 10
0.0
 20
0.0
 30
0.0
  3
$MODEL_SPACE
  1

  0
ENDBLK
  5
21
  8
0
  0
BLOCK
 67
     1
  8
0
  2
$PAPER_SPACE
 70
     0
 10
0.0
 20
0.0
 30
0.0
  3
$PAPER_SPACE
  1

  0
ENDBLK
  5
1D
 67
     1
  8
0
  0
BLOCK
  8
0
  2
_FILLED
 70
     0
 10
0.0
 20
0.0
 30
0.0
  3
_FILLED
  1

  0
SOLID
  5
2FD5F
  8
0
  6
BYBLOCK
 62
     0
 10
0.0
 20
0.0
 30
0.0
 11
-1.0
 21
0.1666666667
 31
0.0
 12
-1.0
 22
-0.1666666667
 32
0.0
 13
-1.0
 23
-0.1666666667
 33
0.0
  0
ENDBLK
  5
2FD60
  8
0
  6
BYBLOCK
 62
     0
  0
ENDSEC
  0
SECTION
  2
ENTITIES
  0
ATTDEF
  5
26A5B
  8
DEFPOINTS
 10
6806.1125303755870846
 20
159.6595160527631947
 30
0.0
 40
0.001
  1
K-36410T-4
  3

  2
MODELNUMBER
 70
     0
1001
ACDBATTR
1070
     0
1070
     1
  0
ATTDEF
  5
26A5C
  8
DEFPOINTS
 10
6806.112404565928955
 20
159.6578492123840931
 30
0.0
 40
0.001
  1
FLUENCE
  3

  2
TRADENAME
 70
     0
1001
ACDBATTR
1070
     0
1070
     1
  0
ATTDEF
  5
26A5D
  8
DEFPOINTS
 10
6806.1125303755870846
 20
159.6561827194298928
 30
0.0
 40
0.001
  1
SHOWER COLUMN
  3

  2
PRODUCT
 70
     0
1001
ACDBATTR
1070
     0
1070
     1
  0
LINE
  5
30A24
  8
0
 10
6788.517053544565897
 20
188.706155510349106
 30
0.0
 11
6789.461935373767119
 21
188.706155510349106
 31
0.0
  0
LINE
  5
30A25
  8
0
 10
6788.517053544565897
 20
187.918764411000609
 30
0.0
 11
6788.517053544565897
 21
188.706155510349106
 31
0.0
  0
LINE
  5
30A26
  8
0
 10
6788.6351637807665611
 20
187.8481876237611914
 30
0.0
 11
6788.6351637807665611
 21
187.7206575227081942
 31
0.0
  0
LINE
  5
30A27
  8
0
 10
6788.5300157477631728
 20
187.900252466364293
 30
0.0
 11
6788.6222015775711043
 21
187.8666995683975074
 31
0.0
  0
ARC
  5
30A28
  8
0
 10
6788.5367535445657268
 20
187.918764411000609
 30
0.0
 40
0.0197
 50
180.0000000000098055
 51
250.0000000576291939
  0
ARC
  5
30A29
  8
0
 10
6788.6154637807658219
 20
187.8481876237611914
 30
0.0
 40
0.0197
 50
0.0000000000097707
 51
70.0000000576804524
  0
LINE
  5
30A2A
  8
0
 10
6788.3353911639060243
 20
187.580171258349111
 30
0.0
 11
6789.6435977544279012
 21
187.580171258349111
 31
0.0
  0
LINE
  5
30A2B
  8
0
 10
6788.8006821944672993
 20
188.3911948804490919
 30
0.0
 11
6789.1783067238657168
 21
188.3911948804490919
 31
0.0
  0
LINE
  5
30A2C
  8
0
 10
6788.8006821944672993
 20
188.3911948804490919
 30
0.0
 11
6788.8006821944672993
 21
187.9163902325186086
 31
0.0
  0
ARC
  5
30A2D
  8
0
 10
6788.824376116392159
 20
187.9312048892479083
 30
0.0
 40
0.0279441584265589
 50
212.0157381281144922
 51
256.913305802898094
  0
ARC
  5
30A2E
  8
0
 10
6788.8857860465423073
 20
188.1997840236103912
 30
0.0
 40
0.3034543019976049
 50
257.1017469208533726
 51
265.9656589291130899
  0
ARC
  5
30A2F
  8
0
 10
6789.0077917329272168
 20
189.4620788005512964
 30
0.0
 40
1.571549141329754
 50
264.7662652449055827
 51
269.3329001162027225
  0
LINE
  5
30A30
  8
0
 10
6788.5300157477631728
 20
187.900252466364293
 30
0.0
 11
6788.8371510836586822
 21
187.900252466364293
 31
0.0
  0
LINE
  5
30A31
  8
0
 10
6788.6222015775711043
 20
187.8666995683975074
 30
0.0
 11
6789.3567873407619118
 21
187.8666995683975074
 31
0.0
  0
ARC
  5
30A32
  8
0
 10
6788.9894944893667343
 20
187.3655343144490928
 30
0.0
 40
0.4960629921000018
 50
136.4853890711833913
 51
154.362187370716299
  0
ARC
  5
30A33
  8
0
 10
6788.6154637807658219
 20
187.7206575227083079
 30
0.0
 40
0.0197
 50
316.4853890721277025
 51
359.9999999996596785
  0
LINE
  5
30A34
  8
0
 10
6788.6297501973413091
 20
187.7070932939637942
 30
0.0
 11
6789.3492387209907974
 21
187.7070932939637942
 31
0.0
  0
LINE
  5
30A35
  8
0
 10
6788.2020929145683112
 20
186.780958659949107
 30
0.0
 11
6789.7768960037683428
 21
186.780958659949107
 31
0.0
  0
LINE
  5
30A36
  8
0
 10
6783.0075325473553676
 20
186.7691476363490892
 30
0.0
 11
6794.971456370978558
 21
186.7691476363490892
 31
0.0
  0
LINE
  5
30A37
  8
0
 10
6788.1902818909657071
 20
186.7691476363490892
 30
0.0
 11
6788.2020929145683112
 21
186.780958659949107
 31
0.0
  0
ARC
  5
30A38
  8
0
 10
6800.4012613997692824
 20
186.5825298178490073
 30
0.0
 40
12.1614173229018494
 50
175.5522145773003047
 51
179.0651057032486904
  0
ARC
  5
30A39
  8
0
 10
6788.3353911639060243
 20
187.5210712583491102
 30
0.0
 40
0.0591
 50
90.0
 51
175.5522145773034879
  0
LINE
  5
30A3A
  8
0
 10
6783.0558183850071146
 20
186.4148169276490989
 30
0.0
 11
6794.923170533326811
 21
186.4148169276490989
 31
0.0
  0
LINE
  5
30A3B
  8
0
 10
6782.9918323127540134
 20
186.7531736335710946
 30
0.0
 11
6782.9967273862230286
 21
186.4728854904402056
 31
0.0
  0
ARC
  5
30A3C
  8
0
 10
6783.0558183850071146
 20
186.4739169276490998
 30
0.0
 40
0.0591
 50
180.9999999887916999
 51
270.0
  0
ARC
  5
30A3D
  8
0
 10
6783.00799158931477
 20
186.75299388104591
 30
0.0
 40
0.0161602762946023
 50
91.6277385799520658
 51
179.3626796194961059
  0
LINE
  5
30A3E
  8
0
 10
6788.7098312995876768
 20
187.3439507859490902
 30
0.0
 11
6789.2691576187471583
 21
187.3439507859490902
 31
0.0
  0
LINE
  5
30A3F
  8
0
 10
6788.7116017015268881
 20
187.3328685010490915
 30
0.0
 11
6789.2673872168070375
 21
187.3328685010490915
 31
0.0
  0
ARC
  5
30A40
  8
0
 10
6794.5543192351788093
 20
187.5242403536495033
 30
0.0
 40
5.8771156489748826
 50
179.4547234818051891
 51
181.6527557595813107
  0
ARC
  5
30A41
  8
0
 10
6788.6898778464883435
 20
187.3621915959080866
 30
0.0
 40
0.0126600754871034
 50
216.0995219216437988
 51
255.1221400385757931
  0
ARC
  5
30A42
  8
0
 10
6788.7264947582925743
 20
187.4561717138651886
 30
0.0
 40
0.1134513442776152
 50
249.4266519261254018
 51
261.5539792513592943
  0
ARC
  5
30A43
  8
0
 10
6788.6918622631637845
 20
187.5465421846024014
 30
0.0
 40
0.0384379243848986
 50
118.9676767380202023
 51
164.4768649259941924
  0
ARC
  5
30A44
  8
0
 10
6788.7538446962280432
 20
187.5227681655377978
 30
0.0
 40
0.104712784456595
 50
161.0174093422544104
 51
178.3977155596188879
  0
ARC
  5
30A45
  8
0
 10
6793.7612878074478431
 20
187.5304977014162091
 30
0.0
 40
5.112117208062398
 50
180.0538156726923091
 51
181.9860739464330095
  0
ARC
  5
30A46
  8
0
 10
6788.6769695037910424
 20
187.3540229057427098
 30
0.0
 40
0.0247376830638986
 50
181.6070179562443059
 51
231.8120712930779064
  0
ARC
  5
30A47
  8
0
 10
6788.6833173781305959
 20
187.363094863012094
 30
0.0
 40
0.0357980104540209
 50
232.80336824040279
 51
278.0302457851419717
  0
ARC
  5
30A48
  8
0
 10
6788.678290328570256
 20
187.4060358202530949
 30
0.0
 40
0.0790267611046788
 50
277.290043195704925
 51
289.1775112910469261
  0
ARC
  5
30A49
  8
0
 10
6788.7149415905587375
 20
187.2971393207708957
 30
0.0
 40
0.0358849436686134
 50
95.3403707632095063
 51
107.333466356024104
  0
LINE
  5
30A4A
  8
0
 10
6789.461935373767119
 20
187.918764411000609
 30
0.0
 11
6789.461935373767119
 21
188.706155510349106
 31
0.0
  0
LINE
  5
30A4B
  8
0
 10
6789.3438251375673644
 20
187.8481876237611914
 30
0.0
 11
6789.3438251375673644
 21
187.7206575227081942
 31
0.0
  0
LINE
  5
30A4C
  8
0
 10
6789.4489731705707527
 20
187.900252466364293
 30
0.0
 11
6789.3567873407619118
 21
187.8666995683975074
 31
0.0
  0
ARC
  5
30A4D
  8
0
 10
6789.4422353737663798
 20
187.918764411000609
 30
0.0
 40
0.0197
 50
289.9999999423707777
 51
359.9999999999902229
  0
ARC
  5
30A4E
  8
0
 10
6789.3635251375671942
 20
187.8481876237611914
 30
0.0
 40
0.0197
 50
109.999999942319505
 51
179.9999999999901945
  0
LINE
  5
30A4F
  8
0
 10
6789.1783067238657168
 20
188.3911948804490919
 30
0.0
 11
6789.1783067238657168
 21
187.9163902325186086
 31
0.0
  0
ARC
  5
30A50
  8
0
 10
6789.154612801942676
 20
187.9312048892479083
 30
0.0
 40
0.0279441584265589
 50
283.086694197101906
 51
327.9842618718856215
  0
ARC
  5
30A51
  8
0
 10
6789.0932028717907087
 20
188.1997840236103912
 30
0.0
 40
0.3034543019976049
 50
274.0343410708867964
 51
282.8982530791466274
  0
ARC
  5
30A52
  8
0
 10
6788.9711971854067087
 20
189.4620788005512964
 30
0.0
 40
1.571549141329754
 50
270.6670998837972775
 51
275.2337347550943036
  0
LINE
  5
30A53
  8
0
 10
6789.4489731705707527
 20
187.900252466364293
 30
0.0
 11
6789.1418378346743339
 21
187.900252466364293
 31
0.0
  0
ARC
  5
30A54
  8
0
 10
6788.9894944289671912
 20
187.3655343144490928
 30
0.0
 40
0.4960629921000018
 50
25.637812629283701
 51
43.5146109288165732
  0
ARC
  5
30A55
  8
0
 10
6789.3635251375671942
 20
187.7206575227083079
 30
0.0
 40
0.0197
 50
180.0000000003402931
 51
223.5146109278722975
  0
LINE
  5
30A56
  8
0
 10
6789.7887070273673089
 20
186.7691476363490892
 30
0.0
 11
6789.7768960037683428
 21
186.780958659949107
 31
0.0
  0
ARC
  5
30A57
  8
0
 10
6777.5777275185655526
 20
186.5825298178490073
 30
0.0
 40
12.1614173229018494
 50
0.9348942967512659
 51
4.447785422699682
  0
ARC
  5
30A58
  8
0
 10
6789.6435977544279012
 20
187.5210712583491102
 30
0.0
 40
0.0591
 50
4.447785422696434
 51
90.0
  0
LINE
  5
30A59
  8
0
 10
6794.9871539797941296
 20
186.7531736335710946
 30
0.0
 11
6794.982261532110897
 21
186.4728854904402056
 31
0.0
  0
ARC
  5
30A5A
  8
0
 10
6794.923170533326811
 20
186.4739169276490998
 30
0.0
 40
0.0591
 50
270.0
 51
359.0000000112082716
  0
ARC
  5
30A5B
  8
0
 10
6794.971456370978558
 20
186.7534476363491081
 30
0.0
 40
0.0157
 50
359.0000000111774057
 51
90.0
  0
ARC
  5
30A5C
  8
0
 10
6783.4246696831542067
 20
187.5242403536495033
 30
0.0
 40
5.8771156489748826
 50
358.347244240418604
 51
0.545276518194827
  0
ARC
  5
30A5D
  8
0
 10
6789.289111071845582
 20
187.3621915959080866
 30
0.0
 40
0.0126600754871034
 50
284.8778599614241784
 51
323.9004780783574802
  0
ARC
  5
30A5E
  8
0
 10
6789.2524941600422608
 20
187.4561717138651886
 30
0.0
 40
0.1134513442776152
 50
278.446020748640592
 51
290.5733480738743992
  0
ARC
  5
30A5F
  8
0
 10
6789.2871266551710505
 20
187.5465421846024014
 30
0.0
 40
0.0384379243848986
 50
15.5231350740057099
 51
61.0323232619797906
  0
ARC
  5
30A60
  8
0
 10
6789.2251442221067919
 20
187.5227681655377978
 30
0.0
 40
0.104712784456595
 50
1.602284440381095
 51
18.9825906577456109
  0
ARC
  5
30A61
  8
0
 10
6784.2177011108860825
 20
187.5304977014162091
 30
0.0
 40
5.112117208062398
 50
358.0139260535669905
 51
359.9461843273076056
  0
ARC
  5
30A62
  8
0
 10
6789.3020194145428832
 20
187.3540229057427098
 30
0.0
 40
0.0247376830638986
 50
308.1879287069219799
 51
358.3929820437555804
  0
ARC
  5
30A63
  8
0
 10
6789.2956715402024201
 20
187.363094863012094
 30
0.0
 40
0.0357980104540209
 50
261.9697542148580283
 51
307.1966317595970963
  0
ARC
  5
30A64
  8
0
 10
6789.3006985897618506
 20
187.4060358202530949
 30
0.0
 40
0.0790267611046788
 50
250.8224887089531876
 51
262.709956804295075
  0
ARC
  5
30A65
  8
0
 10
6789.264047327775188
 20
187.2971393207708957
 30
0.0
 40
0.0358849436686134
 50
72.6665336439759102
 51
84.6596292367904937
  0
LINE
  5
30A66
  8
0
 10
6783.681492461050766
 20
186.3943443843600107
 30
0.0
 11
6783.8342969721379632
 21
186.3943443843600107
 31
0.0
  0
LINE
  5
30A67
  8
0
 10
6783.877818262607434
 20
186.3943443843600107
 30
0.0
 11
6783.9791815026082986
 21
186.3943443843600107
 31
0.0
  0
LINE
  5
30A68
  8
0
 10
6784.1197756038091029
 20
186.3943443843600107
 30
0.0
 11
6784.2176836355238265
 21
186.3943443843600107
 31
0.0
  0
LINE
  5
30A69
  8
0
 10
6784.2646617523505483
 20
186.3943443843600107
 30
0.0
 11
6784.412034587638118
 21
186.3943443843600107
 31
0.0
  0
LINE
  5
30A6A
  8
0
 10
6784.4393620656055646
 20
186.3943443843600107
 30
0.0
 11
6784.5452918554010466
 21
186.3943443843600107
 31
0.0
  0
LINE
  5
30A6B
  8
0
 10
6784.6546650848076752
 20
186.3943443843600107
 30
0.0
 11
6784.7525673717773316
 21
186.3943443843600107
 31
0.0
  0
LINE
  5
30A6C
  8
0
 10
6784.8478310437503751
 20
186.3943443843600107
 30
0.0
 11
6785.0435630353958913
 21
186.3943443843600107
 31
0.0
  0
LINE
  5
30A6D
  8
0
 10
6785.0498550391557728
 20
186.3943443843600107
 30
0.0
 11
6785.1503218520629162
 21
186.3943443843600107
 31
0.0
  0
LINE
  5
30A6E
  8
0
 10
6785.2977063029757119
 20
186.3943443843600107
 30
0.0
 11
6785.5942575606286482
 21
186.3943443843600107
 31
0.0
  0
LINE
  5
30A6F
  8
0
 10
6785.6360743896193526
 20
186.3943443843600107
 30
0.0
 11
6785.840209079640772
 21
186.3943443843600107
 31
0.0
  0
LINE
  5
30A70
  8
0
 10
6785.9223941799382374
 20
186.3943443843600107
 30
0.0
 11
6786.1906914004830469
 21
186.3943443843600107
 31
0.0
  0
LINE
  5
30A71
  8
0
 10
6786.2586955427241264
 20
186.3943443843600107
 30
0.0
 11
6786.4404809790139552
 21
186.3943443843600107
 31
0.0
  0
LINE
  5
30A72
  8
0
 10
6786.5397624310908213
 20
186.3943443843600107
 30
0.0
 11
6786.7947826998761229
 21
186.3943443843600107
 31
0.0
  0
LINE
  5
30A73
  8
0
 10
6786.8080578169237924
 20
186.3943443843600107
 30
0.0
 11
6786.9135163067567191
 21
186.3943443843600107
 31
0.0
  0
LINE
  5
30A74
  8
0
 10
6786.9748165970349874
 20
186.3943443843600107
 30
0.0
 11
6787.0669612571791731
 21
186.394344384359897
 31
0.0
  0
LINE
  5
30A75
  8
0
 10
6787.1014372523859493
 20
186.394344384359897
 30
0.0
 11
6787.2847155523986657
 21
186.394344384359897
 31
0.0
  0
LINE
  5
30A76
  8
0
 10
6787.3171396361067309
 20
186.394344384359897
 30
0.0
 11
6787.4961360791812695
 21
186.394344384359897
 31
0.0
  0
LINE
  5
30A77
  8
0
 10
6787.6904732831617366
 20
186.394344384359897
 30
0.0
 11
6787.867884843797583
 21
186.3943443843598118
 31
0.0
  0
LINE
  5
30A78
  8
0
 10
6787.8983603588540063
 20
186.3943443843598118
 30
0.0
 11
6787.9419492911538327
 21
186.3943443843598118
 31
0.0
  0
LINE
  5
30A79
  8
0
 10
6787.9874358486222263
 20
186.3943443843598118
 30
0.0
 11
6788.0848089181627074
 21
186.3943443843598118
 31
0.0
  0
LINE
  5
30A7A
  8
0
 10
6788.2884525463077807
 20
186.3943443843598118
 30
0.0
 11
6788.4510541350982749
 21
186.3943443843598118
 31
0.0
  0
LINE
  5
30A7B
  8
0
 10
6788.6009762984513145
 20
186.3943443843598118
 30
0.0
 11
6788.7274360869596421
 21
186.3943443843598118
 31
0.0
  0
LINE
  5
30A7C
  8
0
 10
6788.9751704218715531
 20
186.3943443843598118
 30
0.0
 11
6789.0038184964596439
 21
186.3943443843596981
 31
0.0
  0
LINE
  5
30A7D
  8
0
 10
6783.6775944765659005
 20
186.4148169276490989
 30
0.0
 11
6783.681492461050766
 21
186.3943443843600107
 31
0.0
  0
LINE
  5
30A7E
  8
0
 10
6783.7269102882673906
 20
186.4148169276490989
 30
0.0
 11
6783.7308058534226802
 21
186.3943443843600107
 31
0.0
  0
LINE
  5
30A7F
  8
0
 10
6783.8381951199680771
 20
186.4148169276490989
 30
0.0
 11
6783.8342969721379632
 21
186.3943443843600107
 31
0.0
  0
LINE
  5
30A80
  8
0
 10
6783.8739246886671026
 20
186.4148169276490989
 30
0.0
 11
6783.877818262607434
 21
186.3943443843600107
 31
0.0
  0
LINE
  5
30A81
  8
0
 10
6783.9830796943670066
 20
186.4148169276490989
 30
0.0
 11
6783.9791815026082986
 21
186.3943443843600107
 31
0.0
  0
LINE
  5
30A82
  8
0
 10
6784.1158815595681517
 20
186.4148169276490989
 30
0.0
 11
6784.1197756038091029
 21
186.3943443843600107
 31
0.0
  0
LINE
  5
30A83
  8
0
 10
6784.2215359687579621
 20
186.4148169276490989
 30
0.0
 11
6784.2176836355238265
 21
186.3943443843600107
 31
0.0
  0
LINE
  5
30A84
  8
0
 10
6784.260763767766548
 20
186.4148169276490989
 30
0.0
 11
6784.2646617523505483
 21
186.3943443843600107
 31
0.0
  0
LINE
  5
30A85
  8
0
 10
6784.3046479149679726
 20
186.4148169276490989
 30
0.0
 11
6784.3085434801241718
 21
186.3943443843600107
 31
0.0
  0
LINE
  5
30A86
  8
0
 10
6784.4159327354673223
 20
186.4148169276490989
 30
0.0
 11
6784.412034587638118
 21
186.3943443843600107
 31
0.0
  0
LINE
  5
30A87
  8
0
 10
6784.4354684917680061
 20
186.4148169276490989
 30
0.0
 11
6784.4393620656055646
 21
186.3943443843600107
 31
0.0
  0
LINE
  5
30A88
  8
0
 10
6784.549230061165872
 20
186.4148169276490989
 30
0.0
 11
6784.5452918554010466
 21
186.3943443843600107
 31
0.0
  0
LINE
  5
30A89
  8
0
 10
6784.4509026456680658
 20
186.4148169276490989
 30
0.0
 11
6784.4542316870001741
 21
186.3943443843600107
 31
0.0
  0
LINE
  5
30A8A
  8
0
 10
6784.6507710404666796
 20
186.4148169276490989
 30
0.0
 11
6784.6546650848076752
 21
186.3943443843600107
 31
0.0
  0
LINE
  5
30A8B
  8
0
 10
6784.7415887864672186
 20
186.4148169276490989
 30
0.0
 11
6784.7368933999478031
 21
186.3943443843600107
 31
0.0
  0
LINE
  5
30A8C
  8
0
 10
6784.7564269442373188
 20
186.4148169276490989
 30
0.0
 11
6784.7525673717773316
 21
186.3943443843600107
 31
0.0
  0
LINE
  5
30A8D
  8
0
 10
6784.8439330591681937
 20
186.4148169276490989
 30
0.0
 11
6784.8478310437503751
 21
186.3943443843600107
 31
0.0
  0
LINE
  5
30A8E
  8
0
 10
6784.8689919765656668
 20
186.4148169276490989
 30
0.0
 11
6784.8720138990156556
 21
186.3943443843600107
 31
0.0
  0
LINE
  5
30A8F
  8
0
 10
6784.9599289403349758
 20
186.4148169276490989
 30
0.0
 11
6784.9560145935602122
 21
186.3943443843600107
 31
0.0
  0
LINE
  5
30A90
  8
0
 10
6785.0474819843366276
 20
186.4148169276490989
 30
0.0
 11
6785.0435630353958913
 21
186.3943443843600107
 31
0.0
  0
LINE
  5
30A91
  8
0
 10
6785.0467240409898295
 20
186.4108574404966987
 30
0.0
 11
6785.0498550391557728
 21
186.3943443843600107
 31
0.0
  0
LINE
  5
30A92
  8
0
 10
6785.1542205984669636
 20
186.4148169276490989
 30
0.0
 11
6785.1503218520629162
 21
186.3943443843600107
 31
0.0
  0
LINE
  5
30A93
  8
0
 10
6785.293811665166686
 20
186.4148169276490989
 30
0.0
 11
6785.2977063029757119
 21
186.3943443843600107
 31
0.0
  0
LINE
  5
30A94
  8
0
 10
6785.3580585749077727
 20
186.4148169276490989
 30
0.0
 11
6785.3619141205963388
 21
186.3943443843600107
 31
0.0
  0
LINE
  5
30A95
  8
0
 10
6785.4460500194763881
 20
186.4148169276490989
 30
0.0
 11
6785.4421398536433117
 21
186.3943443843600107
 31
0.0
  0
LINE
  5
30A96
  8
0
 10
6785.4497786066667686
 20
186.4148169276490989
 30
0.0
 11
6785.4530088961328147
 21
186.3943443843600107
 31
0.0
  0
LINE
  5
30A97
  8
0
 10
6785.4874648305658411
 20
186.4148169276490989
 30
0.0
 11
6785.4913594890404056
 21
186.3943443843600107
 31
0.0
  0
LINE
  5
30A98
  8
0
 10
6785.5981450712679361
 20
186.4148169276490989
 30
0.0
 11
6785.5942575606286482
 21
186.3943443843600107
 31
0.0
  0
LINE
  5
30A99
  8
0
 10
6785.6321846759674372
 20
186.4148169276490989
 30
0.0
 11
6785.6360743896193526
 21
186.3943443843600107
 31
0.0
  0
LINE
  5
30A9A
  8
0
 10
6785.7568183578987373
 20
186.4109921434477997
 30
0.0
 11
6785.7530929781150917
 21
186.3943443843600107
 31
0.0
  0
LINE
  5
30A9B
  8
0
 10
6785.7560946314979446
 20
186.4148169276490989
 30
0.0
 11
6785.7599684500737567
 21
186.3943443843600107
 31
0.0
  0
LINE
  5
30A9C
  8
0
 10
6785.8440785910042905
 20
186.4148169276490989
 30
0.0
 11
6785.840209079640772
 21
186.3943443843600107
 31
0.0
  0
LINE
  5
30A9D
  8
0
 10
6785.9185551543459951
 20
186.4148169276490989
 30
0.0
 11
6785.9223941799382374
 21
186.3943443843600107
 31
0.0
  0
LINE
  5
30A9E
  8
0
 10
6786.0464247762656669
 20
186.4148169276490989
 30
0.0
 11
6786.0413825943651318
 21
186.3943443843600107
 31
0.0
  0
LINE
  5
30A9F
  8
0
 10
6786.0556752076627163
 20
186.3995736170770954
 30
0.0
 11
6786.0546820340259728
 21
186.3943443843600107
 31
0.0
  0
LINE
  5
30AA0
  8
0
 10
6786.0528087473630876
 20
186.4148169276490989
 30
0.0
 11
6786.0566585496935659
 21
186.3943443843600107
 31
0.0
  0
LINE
  5
30AA1
  8
0
 10
6786.1945865067018531
 20
186.4148169276490989
 30
0.0
 11
6786.1906914004830469
 21
186.3943443843600107
 31
0.0
  0
LINE
  5
30AA2
  8
0
 10
6786.1761902522930541
 20
186.4148169276490989
 30
0.0
 11
6786.1720815377202598
 21
186.3943443843600107
 31
0.0
  0
LINE
  5
30AA3
  8
0
 10
6786.2548689568166083
 20
186.4148169276490989
 30
0.0
 11
6786.2586955427241264
 21
186.3943443843600107
 31
0.0
  0
LINE
  5
30AA4
  8
0
 10
6786.3347881734307521
 20
186.4148169276490989
 30
0.0
 11
6786.3309136646839761
 21
186.3943443843600107
 31
0.0
  0
LINE
  5
30AA5
  8
0
 10
6786.3340223889372282
 20
186.4107705937148864
 30
0.0
 11
6786.3348174847851624
 21
186.3943443843600107
 31
0.0
  0
LINE
  5
30AA6
  8
0
 10
6786.3520867206789262
 20
186.4148169276490989
 30
0.0
 11
6786.3559943459067654
 21
186.3943443843600107
 31
0.0
  0
LINE
  5
30AA7
  8
0
 10
6786.4443516863639161
 20
186.4148169276490989
 30
0.0
 11
6786.4404809790139552
 21
186.3943443843600107
 31
0.0
  0
LINE
  5
30AA8
  8
0
 10
6786.4353980065670839
 20
186.4148169276490989
 30
0.0
 11
6786.4300666253539021
 21
186.3943443843600107
 31
0.0
  0
LINE
  5
30AA9
  8
0
 10
6786.5359513967259772
 20
186.4148169276490989
 30
0.0
 11
6786.5397624310908213
 21
186.3943443843600107
 31
0.0
  0
LINE
  5
30AAA
  8
0
 10
6786.6260935182690446
 20
186.4148169276490989
 30
0.0
 11
6786.6222163758284296
 21
186.3943443843600107
 31
0.0
  0
LINE
  5
30AAB
  8
0
 10
6786.6032861877665709
 20
186.4148169276490989
 30
0.0
 11
6786.5979106601325839
 21
186.3943443843600107
 31
0.0
  0
LINE
  5
30AAC
  8
0
 10
6786.6562621845678223
 20
186.4148169276490989
 30
0.0
 11
6786.6601539295534167
 21
186.3943443843600107
 31
0.0
  0
LINE
  5
30AAD
  8
0
 10
6786.798681036067137
 20
186.4148169276490989
 30
0.0
 11
6786.7947826998761229
 21
186.3943443843600107
 31
0.0
  0
LINE
  5
30AAE
  8
0
 10
6786.8042662160323744
 20
186.4148169276490989
 30
0.0
 11
6786.8080578169237924
 21
186.3943443843600107
 31
0.0
  0
LINE
  5
30AAF
  8
0
 10
6786.9173883346302318
 20
186.4148169276490989
 30
0.0
 11
6786.9135163067567191
 21
186.3943443843600107
 31
0.0
  0
LINE
  5
30AB0
  8
0
 10
6786.8752096714733852
 20
186.4148169276490989
 30
0.0
 11
6786.8713720615796774
 21
186.3943443843600107
 31
0.0
  0
LINE
  5
30AB1
  8
0
 10
6786.9709229818308813
 20
186.4148169276490989
 30
0.0
 11
6786.9748165970349874
 21
186.394344384359897
 31
0.0
  0
LINE
  5
30AB2
  8
0
 10
6787.07089864541922
 20
186.4148169276490989
 30
0.0
 11
6787.0669612571791731
 21
186.394344384359897
 31
0.0
  0
LINE
  5
30AB3
  8
0
 10
6787.0976281526500316
 20
186.4148169276490989
 30
0.0
 11
6787.1014372523859493
 21
186.394344384359897
 31
0.0
  0
LINE
  5
30AB4
  8
0
 10
6787.1681303364002815
 20
186.4148169276490989
 30
0.0
 11
6787.1642467488054535
 21
186.394344384359897
 31
0.0
  0
LINE
  5
30AB5
  8
0
 10
6787.1967805796475659
 20
186.394344384359897
 30
0.0
 11
6787.2001810290666981
 21
186.4071532555491046
 31
0.0
  0
LINE
  5
30AB6
  8
0
 10
6787.1987627561647969
 20
186.4148169276490989
 30
0.0
 11
6787.2025514951637888
 21
186.394344384359897
 31
0.0
  0
LINE
  5
30AB7
  8
0
 10
6787.2886158480660015
 20
186.4148169276490989
 30
0.0
 11
6787.2847155523986657
 21
186.394344384359897
 31
0.0
  0
LINE
  5
30AB8
  8
0
 10
6787.2659336087681368
 20
186.4148169276490989
 30
0.0
 11
6787.2627211625940618
 21
186.394344384359897
 31
0.0
  0
LINE
  5
30AB9
  8
0
 10
6787.3132516920659327
 20
186.4148169276490989
 30
0.0
 11
6787.3171396361067309
 21
186.394344384359897
 31
0.0
  0
LINE
  5
30ABA
  8
0
 10
6787.3426919608509706
 20
186.4148169276490989
 30
0.0
 11
6787.3439833493530386
 21
186.394344384359897
 31
0.0
  0
LINE
  5
30ABB
  8
0
 10
6787.3916331371156048
 20
186.4148169276490989
 30
0.0
 11
6787.3954482276285489
 21
186.394344384359897
 31
0.0
  0
LINE
  5
30ABC
  8
0
 10
6787.5000349216215909
 20
186.4148169276490989
 30
0.0
 11
6787.4961360791812695
 21
186.394344384359897
 31
0.0
  0
LINE
  5
30ABD
  8
0
 10
6787.4614900047099582
 20
186.4148169276490989
 30
0.0
 11
6787.457642289409705
 21
186.394344384359897
 31
0.0
  0
LINE
  5
30ABE
  8
0
 10
6787.4533797109670559
 20
186.4148169276490989
 30
0.0
 11
6787.4481676341692946
 21
186.394344384359897
 31
0.0
  0
LINE
  5
30ABF
  8
0
 10
6787.6867373189388672
 20
186.4148169276490989
 30
0.0
 11
6787.6904732831617366
 21
186.394344384359897
 31
0.0
  0
LINE
  5
30AC0
  8
0
 10
6787.7537398021668196
 20
186.4148169276490989
 30
0.0
 11
6787.7485722034871287
 21
186.394344384359897
 31
0.0
  0
LINE
  5
30AC1
  8
0
 10
6787.8717851393666933
 20
186.4148169276490989
 30
0.0
 11
6787.867884843797583
 21
186.3943443843598118
 31
0.0
  0
LINE
  5
30AC2
  8
0
 10
6787.8491029001243078
 20
186.4148169276490989
 30
0.0
 11
6787.8458904538929346
 21
186.3943443843598118
 31
0.0
  0
LINE
  5
30AC3
  8
0
 10
6787.8944270857809897
 20
186.4148169276490989
 30
0.0
 11
6787.8983603588540063
 21
186.3943443843598118
 31
0.0
  0
LINE
  5
30AC4
  8
0
 10
6787.9458990490120414
 20
186.4148169276490989
 30
0.0
 11
6787.9419492911538327
 21
186.3943443843598118
 31
0.0
  0
LINE
  5
30AC5
  8
0
 10
6787.8961029950360171
 20
186.4148169276490989
 30
0.0
 11
6787.8988277168127752
 21
186.3943443843598118
 31
0.0
  0
LINE
  5
30AC6
  8
0
 10
6787.94514298006834
 20
186.4148169276490989
 30
0.0
 11
6787.9401914552627204
 21
186.3943443843598118
 31
0.0
  0
LINE
  5
30AC7
  8
0
 10
6787.9836375836775915
 20
186.4148169276490989
 30
0.0
 11
6787.9874358486222263
 21
186.3943443843598118
 31
0.0
  0
LINE
  5
30AC8
  8
0
 10
6788.0130624975518003
 20
186.4148169276490989
 30
0.0
 11
6788.0169582530907064
 21
186.3943443843598118
 31
0.0
  0
LINE
  5
30AC9
  8
0
 10
6788.0151731858695712
 20
186.4037250720278109
 30
0.0
 11
6788.0156606116297553
 21
186.3943443843598118
 31
0.0
  0
LINE
  5
30ACA
  8
0
 10
6788.063792315468163
 20
186.4148169276490989
 30
0.0
 11
6788.0588407874638506
 21
186.3943443843598118
 31
0.0
  0
LINE
  5
30ACB
  8
0
 10
6788.0778325742658126
 20
186.4148169276490989
 30
0.0
 11
6788.0726534208970406
 21
186.3943443843598118
 31
0.0
  0
LINE
  5
30ACC
  8
0
 10
6788.0886891402133188
 20
186.4148169276490989
 30
0.0
 11
6788.0848089181627074
 21
186.3943443843598118
 31
0.0
  0
LINE
  5
30ACD
  8
0
 10
6788.2846464883714361
 20
186.4148169276490989
 30
0.0
 11
6788.2884525463077807
 21
186.3943443843598118
 31
0.0
  0
LINE
  5
30ACE
  8
0
 10
6788.3274166564751795
 20
186.3943443843598118
 30
0.0
 11
6788.3267717253665978
 21
186.4096196347491059
 31
0.0
  0
LINE
  5
30ACF
  8
0
 10
6788.3257724726563538
 20
186.4148169276490989
 30
0.0
 11
6788.3297086072498132
 21
186.3943443843598118
 31
0.0
  0
LINE
  5
30AD0
  8
0
 10
6788.3737095442002101
 20
186.4148169276490989
 30
0.0
 11
6788.3697577881193865
 21
186.3943443843598118
 31
0.0
  0
LINE
  5
30AD1
  8
0
 10
6788.4549544306682947
 20
186.4148169276490989
 30
0.0
 11
6788.4510541350982749
 21
186.3943443843598118
 31
0.0
  0
LINE
  5
30AD2
  8
0
 10
6788.5970887264365956
 20
186.4148169276490989
 30
0.0
 11
6788.6009762984513145
 21
186.3943443843598118
 31
0.0
  0
LINE
  5
30AD3
  8
0
 10
6788.6106906996710677
 20
186.3943443843598118
 30
0.0
 11
6788.6094891016664405
 21
186.4148169276490989
 31
0.0
  0
LINE
  5
30AD4
  8
0
 10
6788.6475663704750332
 20
186.3943443843598118
 30
0.0
 11
6788.6516736517824029
 21
186.4148169276490989
 31
0.0
  0
LINE
  5
30AD5
  8
0
 10
6788.6507283880491741
 20
186.4101053066904115
 30
0.0
 11
6788.6538428459898569
 21
186.3943443843598118
 31
0.0
  0
LINE
  5
30AD6
  8
0
 10
6788.6868502583038207
 20
186.3943443843598118
 30
0.0
 11
6788.6914489999671787
 21
186.4148169276490989
 31
0.0
  0
LINE
  5
30AD7
  8
0
 10
6788.7274360869596421
 20
186.3943443843598118
 30
0.0
 11
6788.7312317943124071
 21
186.4148169276490989
 31
0.0
  0
LINE
  5
30AD8
  8
0
 10
6788.7215857348801364
 20
186.3943443843598118
 30
0.0
 11
6788.7269935921667638
 21
186.4148169276490989
 31
0.0
  0
LINE
  5
30AD9
  8
0
 10
6788.9706721299671699
 20
186.4148169276490989
 30
0.0
 11
6788.9751704218715531
 21
186.3943443843598118
 31
0.0
  0
LINE
  5
30ADA
  8
0
 10
6794.29749645728225
 20
186.3943443843600107
 30
0.0
 11
6794.1446919461968719
 21
186.3943443843600107
 31
0.0
  0
LINE
  5
30ADB
  8
0
 10
6794.1011706557283105
 20
186.3943443843600107
 30
0.0
 11
6793.9998074157238079
 21
186.3943443843600107
 31
0.0
  0
LINE
  5
30ADC
  8
0
 10
6793.8592133145257321
 20
186.3943443843600107
 30
0.0
 11
6793.761305282810099
 21
186.3943443843600107
 31
0.0
  0
LINE
  5
30ADD
  8
0
 10
6793.7143271659833772
 20
186.3943443843600107
 30
0.0
 11
6793.5669543306958076
 21
186.3943443843600107
 31
0.0
  0
LINE
  5
30ADE
  8
0
 10
6793.5396268527274515
 20
186.3943443843600107
 30
0.0
 11
6793.4336970629319694
 21
186.3943443843600107
 31
0.0
  0
LINE
  5
30ADF
  8
0
 10
6793.3243238335271599
 20
186.3943443843600107
 30
0.0
 11
6793.2264215465556845
 21
186.3943443843600107
 31
0.0
  0
LINE
  5
30AE0
  8
0
 10
6793.1311578745826409
 20
186.3943443843600107
 30
0.0
 11
6792.9354258829389437
 21
186.3943443843600107
 31
0.0
  0
LINE
  5
30AE1
  8
0
 10
6792.9291338791781527
 20
186.3943443843600107
 30
0.0
 11
6792.8286670662710094
 21
186.3943443843600107
 31
0.0
  0
LINE
  5
30AE2
  8
0
 10
6792.6812826153582137
 20
186.3943443843600107
 30
0.0
 11
6792.3847313577043678
 21
186.3943443843600107
 31
0.0
  0
LINE
  5
30AE3
  8
0
 10
6792.3429145287163919
 20
186.3943443843600107
 30
0.0
 11
6792.1387798386940631
 21
186.3943443843600107
 31
0.0
  0
LINE
  5
30AE4
  8
0
 10
6792.0565947383956882
 20
186.3943443843600107
 30
0.0
 11
6791.7882975178499692
 21
186.3943443843600107
 31
0.0
  0
LINE
  5
30AE5
  8
0
 10
6791.7202933756079801
 20
186.3943443843600107
 30
0.0
 11
6791.5385079393199703
 21
186.3943443843600107
 31
0.0
  0
LINE
  5
30AE6
  8
0
 10
6791.4392264872431042
 20
186.3943443843600107
 30
0.0
 11
6791.1842062184587121
 21
186.3943443843600107
 31
0.0
  0
LINE
  5
30AE7
  8
0
 10
6791.1709311014110426
 20
186.3943443843600107
 30
0.0
 11
6791.0654726115781159
 21
186.3943443843600107
 31
0.0
  0
LINE
  5
30AE8
  8
0
 10
6791.0041723212980287
 20
186.3943443843600107
 30
0.0
 11
6790.9120276611556619
 21
186.394344384359897
 31
0.0
  0
LINE
  5
30AE9
  8
0
 10
6790.8775516659470668
 20
186.394344384359897
 30
0.0
 11
6790.6942733659361693
 21
186.394344384359897
 31
0.0
  0
LINE
  5
30AEA
  8
0
 10
6790.6618492822271946
 20
186.394344384359897
 30
0.0
 11
6790.4828528391526561
 21
186.394344384359897
 31
0.0
  0
LINE
  5
30AEB
  8
0
 10
6790.2885156351730984
 20
186.394344384359897
 30
0.0
 11
6790.111104074535433
 21
186.3943443843598118
 31
0.0
  0
LINE
  5
30AEC
  8
0
 10
6790.0806285594808287
 20
186.3943443843598118
 30
0.0
 11
6790.0370396271791833
 21
186.3943443843598118
 31
0.0
  0
LINE
  5
30AED
  8
0
 10
6789.9915530697126087
 20
186.3943443843598118
 30
0.0
 11
6789.8941800001721276
 21
186.3943443843598118
 31
0.0
  0
LINE
  5
30AEE
  8
0
 10
6789.6905363720252353
 20
186.3943443843598118
 30
0.0
 11
6789.5279347832356507
 21
186.3943443843598118
 31
0.0
  0
LINE
  5
30AEF
  8
0
 10
6789.378012619882611
 20
186.3943443843598118
 30
0.0
 11
6789.2515528313733739
 21
186.3943443843598118
 31
0.0
  0
LINE
  5
30AF0
  8
0
 10
6794.3013944417671155
 20
186.4148169276490989
 30
0.0
 11
6794.29749645728225
 21
186.3943443843600107
 31
0.0
  0
LINE
  5
30AF1
  8
0
 10
6794.2520786300674445
 20
186.4148169276490989
 30
0.0
 11
6794.2481830649121548
 21
186.3943443843600107
 31
0.0
  0
LINE
  5
30AF2
  8
0
 10
6794.140793798366758
 20
186.4148169276490989
 30
0.0
 11
6794.1446919461968719
 21
186.3943443843600107
 31
0.0
  0
LINE
  5
30AF3
  8
0
 10
6794.1050642296668229
 20
186.4148169276490989
 30
0.0
 11
6794.1011706557283105
 21
186.3943443843600107
 31
0.0
  0
LINE
  5
30AF4
  8
0
 10
6793.9959092239669189
 20
186.4148169276490989
 30
0.0
 11
6793.9998074157238079
 21
186.3943443843600107
 31
0.0
  0
LINE
  5
30AF5
  8
0
 10
6793.8631073587666833
 20
186.4148169276490989
 30
0.0
 11
6793.8592133145257321
 21
186.3943443843600107
 31
0.0
  0
LINE
  5
30AF6
  8
0
 10
6793.7574529495750539
 20
186.4148169276490989
 30
0.0
 11
6793.761305282810099
 21
186.3943443843600107
 31
0.0
  0
LINE
  5
30AF7
  8
0
 10
6793.7182251505673776
 20
186.4148169276490989
 30
0.0
 11
6793.7143271659833772
 21
186.3943443843600107
 31
0.0
  0
LINE
  5
30AF8
  8
0
 10
6793.6743410033668624
 20
186.4148169276490989
 30
0.0
 11
6793.6704454382106633
 21
186.3943443843600107
 31
0.0
  0
LINE
  5
30AF9
  8
0
 10
6793.5630561828666032
 20
186.4148169276490989
 30
0.0
 11
6793.5669543306958076
 21
186.3943443843600107
 31
0.0
  0
LINE
  5
30AFA
  8
0
 10
6793.543520426566829
 20
186.4148169276490989
 30
0.0
 11
6793.5396268527274515
 21
186.3943443843600107
 31
0.0
  0
LINE
  5
30AFB
  8
0
 10
6793.429758857167144
 20
186.4148169276490989
 30
0.0
 11
6793.4336970629319694
 21
186.3943443843600107
 31
0.0
  0
LINE
  5
30AFC
  8
0
 10
6793.5280862726667692
 20
186.4148169276490989
 30
0.0
 11
6793.5247572313346609
 21
186.3943443843600107
 31
0.0
  0
LINE
  5
30AFD
  8
0
 10
6793.328217877867246
 20
186.4148169276490989
 30
0.0
 11
6793.3243238335271599
 21
186.3943443843600107
 31
0.0
  0
LINE
  5
30AFE
  8
0
 10
6793.2374001318657974
 20
186.4148169276490989
 30
0.0
 11
6793.2420955183870319
 21
186.3943443843600107
 31
0.0
  0
LINE
  5
30AFF
  8
0
 10
6793.2225619740956972
 20
186.4148169276490989
 30
0.0
 11
6793.2264215465556845
 21
186.3943443843600107
 31
0.0
  0
LINE
  5
30B00
  8
0
 10
6793.1350558591666413
 20
186.4148169276490989
 30
0.0
 11
6793.1311578745826409
 21
186.3943443843600107
 31
0.0
  0
LINE
  5
30B01
  8
0
 10
6793.1099969417673492
 20
186.4148169276490989
 30
0.0
 11
6793.1069750193191794
 21
186.3943443843600107
 31
0.0
  0
LINE
  5
30B02
  8
0
 10
6793.0190599779971308
 20
186.4148169276490989
 30
0.0
 11
6793.0229743247746228
 21
186.3943443843600107
 31
0.0
  0
LINE
  5
30B03
  8
0
 10
6792.9315069339982074
 20
186.4148169276490989
 30
0.0
 11
6792.9354258829389437
 21
186.3943443843600107
 31
0.0
  0
LINE
  5
30B04
  8
0
 10
6792.9322648773431865
 20
186.4108574404966987
 30
0.0
 11
6792.9291338791781527
 21
186.3943443843600107
 31
0.0
  0
LINE
  5
30B05
  8
0
 10
6792.824768319866962
 20
186.4148169276490989
 30
0.0
 11
6792.8286670662700999
 21
186.3943443843600107
 31
0.0
  0
LINE
  5
30B06
  8
0
 10
6792.685177253168149
 20
186.4148169276490989
 30
0.0
 11
6792.6812826153582137
 21
186.3943443843600107
 31
0.0
  0
LINE
  5
30B07
  8
0
 10
6792.6209303434261528
 20
186.4148169276490989
 30
0.0
 11
6792.6170747977357678
 21
186.3943443843600107
 31
0.0
  0
LINE
  5
30B08
  8
0
 10
6792.5329388988584469
 20
186.4148169276490989
 30
0.0
 11
6792.5368490646897044
 21
186.3943443843600107
 31
0.0
  0
LINE
  5
30B09
  8
0
 10
6792.5292103116671569
 20
186.4148169276490989
 30
0.0
 11
6792.5259800222011108
 21
186.3943443843600107
 31
0.0
  0
LINE
  5
30B0A
  8
0
 10
6792.4915240877671749
 20
186.4148169276490989
 30
0.0
 11
6792.4876294292944294
 21
186.3943443843600107
 31
0.0
  0
LINE
  5
30B0B
  8
0
 10
6792.3808438470668989
 20
186.4148169276490989
 30
0.0
 11
6792.3847313577043678
 21
186.3943443843600107
 31
0.0
  0
LINE
  5
30B0C
  8
0
 10
6792.3468042423683073
 20
186.4148169276490989
 30
0.0
 11
6792.3429145287163919
 21
186.3943443843600107
 31
0.0
  0
LINE
  5
30B0D
  8
0
 10
6792.2221705604342787
 20
186.4109921434477997
 30
0.0
 11
6792.2258959402188339
 21
186.3943443843600107
 31
0.0
  0
LINE
  5
30B0E
  8
0
 10
6792.2228942868368904
 20
186.4148169276490989
 30
0.0
 11
6792.2190204682592594
 21
186.3943443843600107
 31
0.0
  0
LINE
  5
30B0F
  8
0
 10
6792.134910327329635
 20
186.4148169276490989
 30
0.0
 11
6792.1387798386940631
 21
186.3943443843600107
 31
0.0
  0
LINE
  5
30B10
  8
0
 10
6792.0604337639888399
 20
186.4148169276490989
 30
0.0
 11
6792.0565947383956882
 21
186.3943443843600107
 31
0.0
  0
LINE
  5
30B11
  8
0
 10
6791.9325641420673492
 20
186.4148169276490989
 30
0.0
 11
6791.9376063239687937
 21
186.3943443843600107
 31
0.0
  0
LINE
  5
30B12
  8
0
 10
6791.9233137106702998
 20
186.3995736170770954
 30
0.0
 11
6791.9243068843079527
 21
186.3943443843600107
 31
0.0
  0
LINE
  5
30B13
  8
0
 10
6791.9261801709690189
 20
186.4148169276490989
 30
0.0
 11
6791.9223303686394502
 21
186.3943443843600107
 31
0.0
  0
LINE
  5
30B14
  8
0
 10
6791.7844024116302535
 20
186.4148169276490989
 30
0.0
 11
6791.7882975178499692
 21
186.3943443843600107
 31
0.0
  0
LINE
  5
30B15
  8
0
 10
6791.802798666041781
 20
186.4148169276490989
 30
0.0
 11
6791.8069073806145752
 21
186.3943443843600107
 31
0.0
  0
LINE
  5
30B16
  8
0
 10
6791.7241199615182268
 20
186.4148169276490989
 30
0.0
 11
6791.7202933756079801
 21
186.3943443843600107
 31
0.0
  0
LINE
  5
30B17
  8
0
 10
6791.644200744902264
 20
186.4148169276490989
 30
0.0
 11
6791.6480752536499494
 21
186.3943443843600107
 31
0.0
  0
LINE
  5
30B18
  8
0
 10
6791.6449665293976068
 20
186.4107705937148864
 30
0.0
 11
6791.6441714335478537
 21
186.3943443843600107
 31
0.0
  0
LINE
  5
30B19
  8
0
 10
6791.6269021976549993
 20
186.4148169276490989
 30
0.0
 11
6791.6229945724280697
 21
186.3943443843600107
 31
0.0
  0
LINE
  5
30B1A
  8
0
 10
6791.5346372319700095
 20
186.4148169276490989
 30
0.0
 11
6791.5385079393199703
 21
186.3943443843600107
 31
0.0
  0
LINE
  5
30B1B
  8
0
 10
6791.5435909117677511
 20
186.4148169276490989
 30
0.0
 11
6791.548922292980933
 21
186.3943443843600107
 31
0.0
  0
LINE
  5
30B1C
  8
0
 10
6791.4430375216070388
 20
186.4148169276490989
 30
0.0
 11
6791.4392264872431042
 21
186.3943443843600107
 31
0.0
  0
LINE
  5
30B1D
  8
0
 10
6791.352895400064881
 20
186.4148169276490989
 30
0.0
 11
6791.3567725425064054
 21
186.3943443843600107
 31
0.0
  0
LINE
  5
30B1E
  8
0
 10
6791.3757027305682641
 20
186.4148169276490989
 30
0.0
 11
6791.3810782582013417
 21
186.3943443843600107
 31
0.0
  0
LINE
  5
30B1F
  8
0
 10
6791.3227267337670128
 20
186.4148169276490989
 30
0.0
 11
6791.3188349887795994
 21
186.3943443843600107
 31
0.0
  0
LINE
  5
30B20
  8
0
 10
6791.1803078822667885
 20
186.4148169276490989
 30
0.0
 11
6791.1842062184587121
 21
186.3943443843600107
 31
0.0
  0
LINE
  5
30B21
  8
0
 10
6791.1747227023006417
 20
186.4148169276490989
 30
0.0
 11
6791.1709311014110426
 21
186.3943443843600107
 31
0.0
  0
LINE
  5
30B22
  8
0
 10
6791.0616005837018747
 20
186.4148169276490989
 30
0.0
 11
6791.0654726115781159
 21
186.3943443843600107
 31
0.0
  0
LINE
  5
30B23
  8
0
 10
6791.1037792468623593
 20
186.4148169276490989
 30
0.0
 11
6791.1076168567551576
 21
186.3943443843600107
 31
0.0
  0
LINE
  5
30B24
  8
0
 10
6791.0080659365021347
 20
186.4148169276490989
 30
0.0
 11
6791.0041723212980287
 21
186.394344384359897
 31
0.0
  0
LINE
  5
30B25
  8
0
 10
6790.9080902729137961
 20
186.4148169276490989
 30
0.0
 11
6790.9120276611556619
 21
186.394344384359897
 31
0.0
  0
LINE
  5
30B26
  8
0
 10
6790.881360765683894
 20
186.4148169276490989
 30
0.0
 11
6790.8775516659470668
 21
186.394344384359897
 31
0.0
  0
LINE
  5
30B27
  8
0
 10
6790.810858581933644
 20
186.4148169276490989
 30
0.0
 11
6790.8147421695293815
 21
186.394344384359897
 31
0.0
  0
LINE
  5
30B28
  8
0
 10
6790.7822083386863596
 20
186.394344384359897
 30
0.0
 11
6790.7788078892672274
 21
186.4071532555491046
 31
0.0
  0
LINE
  5
30B29
  8
0
 10
6790.7802261621682192
 20
186.4148169276490989
 30
0.0
 11
6790.7764374231683178
 21
186.394344384359897
 31
0.0
  0
LINE
  5
30B2A
  8
0
 10
6790.6903730702661051
 20
186.4148169276490989
 30
0.0
 11
6790.6942733659361693
 21
186.394344384359897
 31
0.0
  0
LINE
  5
30B2B
  8
0
 10
6790.7130553095657888
 20
186.4148169276490989
 30
0.0
 11
6790.7162677557398638
 21
186.394344384359897
 31
0.0
  0
LINE
  5
30B2C
  8
0
 10
6790.6657372262670833
 20
186.4148169276490989
 30
0.0
 11
6790.6618492822271946
 21
186.394344384359897
 31
0.0
  0
LINE
  5
30B2D
  8
0
 10
6790.6362969574811359
 20
186.4148169276490989
 30
0.0
 11
6790.6350055689808869
 21
186.394344384359897
 31
0.0
  0
LINE
  5
30B2E
  8
0
 10
6790.5873557812192303
 20
186.4148169276490989
 30
0.0
 11
6790.5835406907062861
 21
186.394344384359897
 31
0.0
  0
LINE
  5
30B2F
  8
0
 10
6790.4789539967114251
 20
186.4148169276490989
 30
0.0
 11
6790.4828528391526561
 21
186.394344384359897
 31
0.0
  0
LINE
  5
30B30
  8
0
 10
6790.5174989136239674
 20
186.4148169276490989
 30
0.0
 11
6790.5213466289242206
 21
186.394344384359897
 31
0.0
  0
LINE
  5
30B31
  8
0
 10
6790.5256092073668697
 20
186.4148169276490989
 30
0.0
 11
6790.5308212841637214
 21
186.394344384359897
 31
0.0
  0
LINE
  5
30B32
  8
0
 10
6790.2922515993959678
 20
186.4148169276490989
 30
0.0
 11
6790.2885156351730984
 21
186.394344384359897
 31
0.0
  0
LINE
  5
30B33
  8
0
 10
6790.2252491161680155
 20
186.4148169276490989
 30
0.0
 11
6790.2304167148449778
 21
186.394344384359897
 31
0.0
  0
LINE
  5
30B34
  8
0
 10
6790.1072037789672322
 20
186.4148169276490989
 30
0.0
 11
6790.111104074535433
 21
186.3943443843598118
 31
0.0
  0
LINE
  5
30B35
  8
0
 10
6790.1298860182114367
 20
186.4148169276490989
 30
0.0
 11
6790.1330984644409909
 21
186.3943443843598118
 31
0.0
  0
LINE
  5
30B36
  8
0
 10
6790.0845618325538453
 20
186.4148169276490989
 30
0.0
 11
6790.0806285594808287
 21
186.3943443843598118
 31
0.0
  0
LINE
  5
30B37
  8
0
 10
6790.0330898693218842
 20
186.4148169276490989
 30
0.0
 11
6790.0370396271791833
 21
186.3943443843598118
 31
0.0
  0
LINE
  5
30B38
  8
0
 10
6790.082885923296999
 20
186.4148169276490989
 30
0.0
 11
6790.0801612015220599
 21
186.3943443843598118
 31
0.0
  0
LINE
  5
30B39
  8
0
 10
6790.0338459382683141
 20
186.4148169276490989
 30
0.0
 11
6790.0387974630702956
 21
186.3943443843598118
 31
0.0
  0
LINE
  5
30B3A
  8
0
 10
6789.9953513346563341
 20
186.4148169276490989
 30
0.0
 11
6789.9915530697126087
 21
186.3943443843598118
 31
0.0
  0
LINE
  5
30B3B
  8
0
 10
6789.9659264207830347
 20
186.4148169276490989
 30
0.0
 11
6789.9620306652432191
 21
186.3943443843598118
 31
0.0
  0
LINE
  5
30B3C
  8
0
 10
6789.9638157324634449
 20
186.4037250720278109
 30
0.0
 11
6789.9633283067032608
 21
186.3943443843598118
 31
0.0
  0
LINE
  5
30B3D
  8
0
 10
6789.915196602866672
 20
186.4148169276490989
 30
0.0
 11
6789.9201481308709845
 21
186.3943443843598118
 31
0.0
  0
LINE
  5
30B3E
  8
0
 10
6789.901156344066294
 20
186.4148169276490989
 30
0.0
 11
6789.9063354974377944
 21
186.3943443843598118
 31
0.0
  0
LINE
  5
30B3F
  8
0
 10
6789.8902997781224258
 20
186.4148169276490989
 30
0.0
 11
6789.8941800001721276
 21
186.3943443843598118
 31
0.0
  0
LINE
  5
30B40
  8
0
 10
6789.6943424299652179
 20
186.4148169276490989
 30
0.0
 11
6789.6905363720252353
 21
186.3943443843598118
 31
0.0
  0
LINE
  5
30B41
  8
0
 10
6789.6515722618587461
 20
186.3943443843598118
 30
0.0
 11
6789.6522171929673277
 21
186.4096196347491059
 31
0.0
  0
LINE
  5
30B42
  8
0
 10
6789.6532164456775718
 20
186.4148169276490989
 30
0.0
 11
6789.6492803110832028
 21
186.3943443843598118
 31
0.0
  0
LINE
  5
30B43
  8
0
 10
6789.605279374134625
 20
186.4148169276490989
 30
0.0
 11
6789.6092311302136295
 21
186.3943443843598118
 31
0.0
  0
LINE
  5
30B44
  8
0
 10
6789.5240344876674499
 20
186.4148169276490989
 30
0.0
 11
6789.5279347832356507
 21
186.3943443843598118
 31
0.0
  0
LINE
  5
30B45
  8
0
 10
6789.3819001918982394
 20
186.4148169276490989
 30
0.0
 11
6789.378012619882611
 21
186.3943443843598118
 31
0.0
  0
LINE
  5
30B46
  8
0
 10
6789.3682982186628578
 20
186.3943443843598118
 30
0.0
 11
6789.369499816665666
 21
186.4148169276490989
 31
0.0
  0
LINE
  5
30B47
  8
0
 10
6789.3314225478588924
 20
186.3943443843598118
 30
0.0
 11
6789.3273152665533416
 21
186.4148169276490989
 31
0.0
  0
LINE
  5
30B48
  8
0
 10
6789.3282605302838419
 20
186.4101053066904115
 30
0.0
 11
6789.3251460723449782
 21
186.3943443843598118
 31
0.0
  0
LINE
  5
30B49
  8
0
 10
6789.2921386600291953
 20
186.3943443843598118
 30
0.0
 11
6789.2875399183658374
 21
186.4148169276490989
 31
0.0
  0
LINE
  5
30B4A
  8
0
 10
6789.2515528313733739
 20
186.3943443843598118
 30
0.0
 11
6789.2477571240233374
 21
186.4148169276490989
 31
0.0
  0
LINE
  5
30B4B
  8
0
 10
6789.2574031834519701
 20
186.3943443843598118
 30
0.0
 11
6789.2519953261671617
 21
186.4148169276490989
 31
0.0
  0
LINE
  5
30B4C
  8
0
 10
6789.0083167883667556
 20
186.4148169276490989
 30
0.0
 11
6789.0038184964596439
 21
186.3943443843598118
 31
0.0
  0
LINE
  5
30B4D
  8
0
 10
6804.1183751056232722
 20
163.9721538808022103
 30
0.0
 11
6803.2157034421670687
 21
163.6421833104490986
 31
0.0
  0
LINE
  5
30B4E
  8
0
 10
6803.2423282116778864
 20
163.6519159637900032
 30
0.0
 11
6803.3121931933674205
 21
163.4777197419491017
 31
0.0
  0
LINE
  5
30B4F
  8
0
 10
6804.0945942255284535
 20
163.9547413557262132
 30
0.0
 11
6804.152367265133762
 21
163.7784697583344098
 31
0.0
  0
ARC
  5
30B50
  8
0
 10
6804.087064605487285
 20
163.9523507863285943
 30
0.0
 40
0.0079
 50
17.6140559704734905
 51
110.0000000023707969
  0
ARC
  5
30B51
  8
0
 10
6787.1772826188598629
 20
158.5440977394030142
 30
0.0
 40
16.8169077409099614
 50
17.6724341444426614
 51
28.689051741305871
  0
ARC
  5
30B52
  8
0
 10
6803.2116931204500361
 20
163.6533268519227136
 30
0.0
 40
0.0118431920045323
 50
199.9537434457255927
 51
289.7927166842068232
  0
ARC
  5
30B53
  8
0
 10
6785.9393063669158437
 20
158.5615239611423135
 30
0.0
 40
18.9782767800247214
 50
16.6100720136752997
 51
27.24301627604763
  0
ARC
  5
30B54
  8
0
 10
6804.1142580470750545
 20
163.9832917063307036
 30
0.0
 40
0.0118743980838618
 50
290.2866515415266804
 51
16.146609144821241
  0
LINE
  5
30B55
  8
0
 10
6798.7548761487933007
 20
171.6143493059907996
 30
0.0
 11
6799.1936421726932167
 21
171.9074899170907997
 31
0.0
  0
ARC
  5
30B56
  8
0
 10
6799.2167011852707219
 20
171.8555481336618129
 30
0.0
 40
0.0568301586035224
 50
60.6546283372187816
 51
113.9383283783596994
  0
ARC
  5
30B57
  8
0
 10
6789.4895721128341393
 20
160.7349407740186962
 30
0.0
 40
14.8300970136680998
 50
26.0563148846104689
 51
48.8690191513482333
  0
ARC
  5
30B58
  8
0
 10
7047.4966933929181323
 20
343.7377933952570856
 30
0.0
 40
302.5379454179411027
 50
214.7422042993790114
 51
214.9367372931658053
  0
ARC
  5
30B59
  8
0
 10
6709.1990649922227021
 20
106.5657217944838067
 30
0.0
 40
110.6172362968347045
 50
33.4763426323066113
 51
35.2975636034809099
  0
ARC
  5
30B5A
  8
0
 10
6792.2180572535417014
 20
161.3814484005019949
 30
0.0
 40
11.1342321553867993
 50
30.6654061727008305
 51
33.83716894264019
  0
ARC
  5
30B5B
  8
0
 10
6800.8242778703315707
 20
166.5265203568222887
 30
0.0
 40
1.1079856666221479
 50
4.9119944982859396
 51
28.7925522703076986
  0
ARC
  5
30B5C
  8
0
 10
6798.7773931749670737
 20
171.5821240006343089
 30
0.0
 40
0.0393126795453947
 50
124.9434400634887936
 51
202.2297986630321134
  0
ARC
  5
30B5D
  8
0
 10
6756.088868715182798
 20
141.842400847807113
 30
0.0
 40
51.9764143409557633
 50
34.5586087467234009
 51
34.8137916910332805
  0
ARC
  5
30B5E
  8
0
 10
6941.4734830948700619
 20
230.7129570782749113
 30
0.0
 40
154.5017008375220939
 50
202.5082147341016992
 51
202.5286616775499056
  0
ARC
  5
30B5F
  8
0
 10
6818.2118916278368488
 20
179.682799592479796
 30
0.0
 40
21.0946695273117584
 50
202.7763367014287894
 51
203.7853589885988868
  0
ARC
  5
30B60
  8
0
 10
6741.0777673171687638
 20
118.6769560290117056
 30
0.0
 40
77.5299979448264764
 50
38.9263947648880091
 51
39.5629677853152515
  0
ARC
  5
30B61
  8
0
 10
6800.4824277705392888
 20
166.3702261869194956
 30
0.0
 40
1.3673631974450109
 50
24.7269953847928186
 51
48.2728928219923077
  0
ARC
  5
30B62
  8
0
 10
6792.0567388939589364
 20
160.5948834833816079
 30
0.0
 40
11.5651332920293708
 50
31.5813495084929095
 51
33.2868535504309122
  0
ARC
  5
30B63
  8
0
 10
6801.919179690202327
 20
166.657752821837903
 30
0.0
 40
0.0118323435254232
 50
211.0854174344216005
 51
305.1155654164609814
  0
ARC
  5
30B64
  8
0
 10
6800.6579365744937604
 20
167.1686474314658142
 30
0.0
 40
0.7902264244969289
 50
19.4162178075534513
 51
61.7188584929402282
  0
ARC
  5
30B65
  8
0
 10
6802.6803892768048172
 20
168.9001123838478122
 30
0.0
 40
1.946393239914457
 50
212.1436071424849956
 51
228.9914691580038095
  0
ARC
  5
30B66
  8
0
 10
7164.2803894008930001
 20
425.2391581459057193
 30
0.0
 40
444.3301865238792061
 50
214.7605633735333015
 51
215.3081924361551955
  0
ARC
  5
30B67
  8
0
 10
6784.9484786017619626
 20
156.5757561736890864
 30
0.0
 40
20.5060449704011312
 50
30.8404345809008795
 51
35.3081924361552097
  0
LINE
  5
30B68
  8
0
 10
6801.9202155923248938
 20
166.6914144357326109
 30
0.0
 11
6802.8123969690641388
 21
167.2490899649723133
 31
0.0
  0
LINE
  5
30B6A
  8
0
 10
6790.5642637504670347
 20
191.2188406120241098
 30
0.0
 11
6802.3753550891669875
 21
191.2188406120241098
 31
0.0
  0
LINE
  5
30B6B
  8
0
 10
6790.5643251678666275
 20
190.5101791947490995
 30
0.0
 11
6802.3752936717673947
 21
190.5101791947490995
 31
0.0
  0
LINE
  5
30B6C
  8
0
 10
6788.6351637504667451
 20
188.7384980300491009
 30
0.0
 11
6788.6351637504667451
 21
188.8148759828490881
 31
0.0
  0
LINE
  5
30B6D
  8
0
 10
6788.6351637504667451
 20
188.8148759828490881
 30
0.0
 11
6789.3438251678671804
 21
188.8148759828490881
 31
0.0
  0
LINE
  5
30B6E
  8
0
 10
6788.6351637504667451
 20
188.8172658088491005
 30
0.0
 11
6789.3438251678671804
 21
188.8172658088492142
 31
0.0
  0
LINE
  5
30B6F
  8
0
 10
6788.6777002907683709
 20
188.8172658088491005
 30
0.0
 11
6788.6777002907683709
 21
188.8148759828490881
 31
0.0
  0
LINE
  5
30B70
  8
0
 10
6788.6351637504667451
 20
188.8172658088491005
 30
0.0
 11
6788.6351637504667451
 21
189.2897406120490871
 31
0.0
  0
LINE
  5
30B71
  8
0
 10
6788.6351637504667451
 20
188.7384980300491009
 30
0.0
 11
6788.6028212308674483
 21
188.706155510349106
 31
0.0
  0
LINE
  5
30B72
  8
0
 10
6788.6351637504667451
 20
188.7384980300491009
 30
0.0
 11
6789.3438251678671804
 21
188.7384980300491009
 31
0.0
  0
LINE
  5
30B73
  8
0
 10
6789.3438251678671804
 20
188.7384980300491009
 30
0.0
 11
6789.3438251678671804
 21
188.8148759828490881
 31
0.0
  0
LINE
  5
30B74
  8
0
 10
6789.3012886275673736
 20
188.8172658088491005
 30
0.0
 11
6789.3012886275673736
 21
188.8148759828490881
 31
0.0
  0
LINE
  5
30B75
  8
0
 10
6789.3438251678671804
 20
188.8172658088491005
 30
0.0
 11
6789.3438251678671804
 21
189.2896791947491124
 31
0.0
  0
LINE
  5
30B76
  8
0
 10
6789.3438251678671804
 20
188.7384980300491009
 30
0.0
 11
6789.3761676874682962
 21
188.706155510349106
 31
0.0
  0
ARC
  5
30B77
  8
0
 10
6790.5643251678666275
 20
189.2896791947491124
 30
0.0
 40
1.220499999999999
 50
90.0
 51
180.0
  0
ARC
  5
30B78
  8
0
 10
6790.5511436322713053
 20
189.3028607302198907
 30
0.0
 40
1.91602480280916
 50
89.6076599462713119
 51
180.3923400529965022
  0
LINE
  5
30B79
  8
0
 10
6804.3044550890672326
 20
189.2897406120490871
 30
0.0
 11
6804.3044550890672326
 21
176.9865571474491048
 31
0.0
  0
LINE
  5
30B7A
  8
0
 10
6804.3556361914661466
 20
175.2345875448490915
 30
0.0
 11
6804.3556361914661466
 21
163.7728632054993909
 31
0.0
  0
ARC
  5
30B7B
  8
0
 10
6802.3854636756614127
 20
189.2998491985185012
 30
0.0
 40
1.919018037598647
 50
359.6981883397219235
 51
90.3018116609962931
  0
ARC
  5
30B7C
  8
0
 10
6802.3752936717673947
 20
189.2896791947491124
 30
0.0
 40
1.220499999999999
 50
0.0
 51
90.0
  0
ARC
  5
30B7D
  8
0
 10
6785.5775423483946724
 20
155.75075359477799
 30
0.0
 40
20.0494235717609612
 50
12.1508853538353705
 51
19.9016628538317804
  0
ARC
  5
30B7E
  8
0
 10
6785.4842892599181141
 20
155.7306752223445869
 30
0.0
 40
20.1448137156438811
 50
5.7748345797605287
 51
12.1508853538353705
  0
ARC
  5
30B7F
  8
0
 10
6793.262466113346818
 20
156.5173021938190061
 30
0.0
 40
12.3269612512218103
 50
358.7615315814716155
 51
5.7748345797605287
  0
ARC
  5
30B80
  8
0
 10
6796.4746756959466438
 20
156.4478583387233073
 30
0.0
 40
9.1140011127264309
 50
346.4739946774654982
 51
358.7615315814716155
  0
ARC
  5
30B81
  8
0
 10
6796.6028214484767886
 20
156.4170317437996118
 30
0.0
 40
8.9821996982962222
 50
329.6699669031905842
 51
346.4739946774654982
  0
ARC
  5
30B82
  8
0
 10
6785.4048657795010513
 20
155.6968346340408971
 30
0.0
 40
19.6390700739415394
 50
6.8410062002967509
 51
15.5128646125977401
  0
ARC
  5
30B83
  8
0
 10
6793.5752117226884366
 20
156.6754680025856032
 30
0.0
 40
11.4103233885865496
 50
349.3780450212851747
 51
6.8487464858459228
  0
ARC
  5
30B84
  8
0
 10
6796.8408303783799056
 20
156.4195503313395079
 30
0.0
 40
8.1610153707273057
 50
337.0458897155928071
 51
346.9171590785888952
  0
ARC
  5
30B85
  8
0
 10
6815.0160237529707956
 20
143.5653364956775988
 30
0.0
 40
13.9870095818240596
 50
145.0995635309388945
 51
164.1938350409855047
  0
ARC
  5
30B86
  8
0
 10
6810.5235451934531739
 20
144.837101897465601
 30
0.0
 40
9.3179892515066012
 50
164.1938350409855047
 51
181.0419556745715965
  0
ARC
  5
30B87
  8
0
 10
6812.4076244376819886
 20
144.5623397973554916
 30
0.0
 40
10.6140943251627604
 50
146.6182232053652967
 51
179.4314718799481909
  0
ARC
  5
30B88
  8
0
 10
6804.1202925103507368
 20
162.8886803412740107
 30
0.0
 40
0.9958968417300502
 50
140.821727672815399
 51
148.1740241436941119
  0
ARC
  5
30B89
  8
0
 10
6803.7633452464497168
 20
163.1652229356031967
 30
0.0
 40
0.5488100117320777
 50
145.2910465071138901
 51
153.056421604362896
  0
ARC
  5
30B8A
  8
0
 10
6785.8974279672920602
 20
155.8627074713955949
 30
0.0
 40
19.1201088784469313
 50
15.4286832015159803
 51
19.9094843680189015
  0
LINE
  5
30B8B
  8
0
 10
6800.6043825953229316
 20
144.6676584110491035
 30
0.0
 11
6803.5439122233246962
 21
144.6676584110491035
 31
0.0
  0
LINE
  5
30B8C
  8
0
 10
6804.3563365368090672
 20
144.6676584110491035
 30
0.0
 11
6806.0956061728657005
 21
144.6676584110491035
 31
0.0
  0
LINE
  5
30B8D
  8
0
 10
6800.5846945960302037
 20
144.6472708909631137
 30
0.0
 11
6800.6795570589638373
 21
141.9307653790631036
 31
0.0
  0
LINE
  5
30B8E
  8
0
 10
6800.4894944591669628
 20
144.3117090961490874
 30
0.0
 11
6799.3989432780681454
 21
144.3117090961490874
 31
0.0
  0
LINE
  5
30B8F
  8
0
 10
6800.4894944591669628
 20
144.3117090961490874
 30
0.0
 11
6800.4894944591669628
 21
144.0966754989713081
 31
0.0
  0
LINE
  5
30B90
  8
0
 10
6799.3202031205673848
 20
139.8538097650443888
 30
0.0
 11
6799.3202031205673848
 21
144.2148478375731884
 31
0.0
  0
LINE
  5
30B91
  8
0
 10
6799.3989432780681454
 20
144.3117090961490874
 30
0.0
 11
6799.3989432780681454
 21
144.2739576236490961
 31
0.0
  0
LINE
  5
30B92
  8
0
 10
6799.4579984053671069
 20
139.931572828157897
 30
0.0
 11
6799.4579984053671069
 21
142.2667501303332926
 31
0.0
  0
LINE
  5
30B93
  8
0
 10
6799.3792527468667686
 20
139.7660835120491072
 30
0.0
 11
6799.4186672389068917
 21
139.7667714944936108
 31
0.0
  0
ARC
  5
30B94
  8
0
 10
6799.4425238107642144
 20
139.8590957107419115
 30
0.0
 40
0.1224348499087147
 50
182.4744306492470969
 51
214.2188531475285913
  0
ARC
  5
30B95
  8
0
 10
6799.4140133951614189
 20
139.8397063350805922
 30
0.0
 40
0.0879559913666725
 50
214.2188531475217985
 51
225.8677884056293976
  0
ARC
  5
30B96
  8
0
 10
6799.3765728990883872
 20
139.801114178259013
 30
0.0
 40
0.0341866198396182
 50
225.8677884056272092
 51
250.6426963856978887
  0
ARC
  5
30B97
  8
0
 10
6799.3819433781191037
 20
139.8164008300186936
 30
0.0
 40
0.0503892050362726
 50
250.6426963856978887
 51
266.9391228202807724
  0
ARC
  5
30B98
  8
0
 10
6798.8297870810238237
 20
139.9397253712035933
 30
0.0
 40
0.6282642214795439
 50
350.0686418685560852
 51
359.2564920892659757
  0
ARC
  5
30B99
  8
0
 10
6799.2164066120576535
 20
139.872031397302294
 30
0.0
 40
0.2357630929721913
 50
337.7734758125441772
 51
350.068641868552902
  0
ARC
  5
30B9A
  8
0
 10
6799.4002973757897053
 20
139.7968876411615042
 30
0.0
 40
0.0371116467823471
 50
314.8513890342230752
 51
337.7734758125502026
  0
ARC
  5
30B9B
  8
0
 10
6799.4169950207124202
 20
139.7801031517379045
 30
0.0
 40
0.0134361228997246
 50
277.1493934994687152
 51
314.8513890342139234
  0
LINE
  5
30B9C
  8
0
 10
6800.5091495772667258
 20
142.3054536866490878
 30
0.0
 11
6800.4882472047056581
 21
142.3054981917275086
 31
0.0
  0
ARC
  5
30B9D
  8
0
 10
6800.5091495772667258
 20
142.3448536866490883
 30
0.0
 40
0.0394
 50
270.0
 51
0.0
  0
LINE
  5
30B9E
  8
0
 10
6799.8581946121666988
 20
142.3444203510491093
 30
0.0
 11
6799.6601785616658162
 21
142.3360796836491033
 31
0.0
  0
ARC
  5
30B9F
  8
0
 10
6799.6931046689860523
 20
141.7873927774859908
 30
0.0
 40
0.5496739483893706
 50
93.4341394679965873
 51
106.4397705948666015
  0
ARC
  5
30BA0
  8
0
 10
6799.5896992521802531
 20
142.137835966207092
 30
0.0
 40
0.1842931761177648
 50
106.4397705948666015
 51
135.6126242366740939
  0
ARC
  5
30BA1
  8
0
 10
6800.0398372064619252
 20
141.3865131930307939
 30
0.0
 40
0.9749770025211422
 50
82.8482414797287703
 51
100.7371965754308007
  0
ARC
  5
30BA2
  8
0
 10
6741.3924893228877409
 20
2033.3336495886389912
 30
0.0
 40
1891.8927451232239036
 50
271.780091386462118
 51
271.793031749991826
  0
ARC
  5
30BA3
  8
0
 10
6800.5879305006674258
 20
142.3790202376032994
 30
0.0
 40
0.0118
 50
271.7930317449345807
 51
0.0
  0
LINE
  5
30BA4
  8
0
 10
6800.599730500667647
 20
142.3790202376032994
 30
0.0
 11
6800.599730500667647
 21
143.0841831404140976
 31
0.0
  0
LINE
  5
30BA5
  8
0
 10
6800.5903421238581359
 20
143.1303284866918091
 30
0.0
 11
6800.1133139164658132
 21
144.2541365175491137
 31
0.0
  0
ARC
  5
30BA6
  8
0
 10
6800.4816305006670518
 20
143.0841831404140976
 30
0.0
 40
0.1181
 50
0.0
 51
23.0000000016449917
  0
LINE
  5
30BA7
  8
0
 10
6800.1026479420670512
 20
144.26133080934909
 30
0.0
 11
6799.3803345577862274
 21
144.2739388363569901
 31
0.0
  0
ARC
  5
30BA8
  8
0
 10
6800.1024395359381742
 20
144.2495182113900967
 30
0.0
 40
0.0118144362393584
 50
23.0107383600727111
 51
88.9892525811719253
  0
ARC
  5
30BA9
  8
0
 10
6799.3793031205659645
 20
144.2148478375731884
 30
0.0
 40
0.0591
 50
89.0000000010666525
 51
180.0000000000048885
  0
LINE
  5
30BAA
  8
0
 10
6800.1150728515431183
 20
144.2499927261490882
 30
0.0
 11
6800.4894944591669628
 21
144.249992725849097
 31
0.0
  0
LINE
  5
30BAB
  8
0
 10
6800.5898881599678134
 20
144.1027638001723119
 30
0.0
 11
6800.5898881599678134
 21
143.1313979585987113
 31
0.0
  0
LINE
  5
30BAC
  8
0
 10
6800.5898881599678134
 20
143.9755940710491018
 30
0.0
 11
6800.6081278248830131
 21
143.9762310141825026
 31
0.0
  0
ARC
  5
30BAD
  8
0
 10
6800.7299045468644181
 20
143.1422084477131023
 30
0.0
 40
0.9842786889535406
 50
98.9813416426883492
 51
120.7722577690795021
  0
ARC
  5
30BAE
  8
0
 10
6800.5780881599657732
 20
144.1027638001723119
 30
0.0
 40
0.0118
 50
359.9999999999910187
 51
98.9813416426880792
  0
LINE
  5
30BAF
  8
0
 10
6800.5485495772682043
 20
144.2349576236491089
 30
0.0
 11
6800.5485495772682043
 21
144.1096352131258982
 31
0.0
  0
LINE
  5
30BB0
  8
0
 10
6800.5095495772666254
 20
144.2739576236490961
 30
0.0
 11
6800.4894944591669628
 21
144.2739576236490961
 31
0.0
  0
ARC
  5
30BB1
  8
0
 10
6800.5095495772666254
 20
144.2349576236491089
 30
0.0
 40
0.039
 50
0.0
 51
90.0
  0
ARC
  5
30BB2
  8
0
 10
6800.6043825953229316
 20
144.6479584110491032
 30
0.0
 40
0.0197
 50
90.0
 51
182.0000000027391991
  0
LINE
  5
30BB3
  8
0
 10
6800.5485495772682043
 20
142.3448536866490883
 30
0.0
 11
6800.5485495772682043
 21
142.3659839013473913
 31
0.0
  0
LINE
  5
30BB4
  8
0
 10
6800.4882472047056581
 20
142.3054981917275086
 30
0.0
 11
6800.4373710661657242
 21
142.3074525081491117
 31
0.0
  0
LINE
  5
30BB5
  8
0
 10
6800.4373710661684527
 20
142.3074525081491117
 30
0.0
 11
6799.5183024406087497
 21
142.3074525081491117
 31
0.0
  0
LINE
  5
30BB6
  8
0
 10
6799.9426557031911216
 20
142.3566347889490942
 30
0.0
 11
6800.1370187097327289
 21
142.3566347889490942
 31
0.0
  0
LINE
  5
30BB7
  8
0
 10
6800.5997306796671182
 20
142.426798267849108
 30
0.0
 11
6800.6621971326321727
 21
142.4278886238502935
 31
0.0
  0
LINE
  5
30BB8
  8
0
 10
6800.5485495772682043
 20
144.1535064118490936
 30
0.0
 11
6800.6019697936008015
 21
144.1525739584484995
 31
0.0
  0
LINE
  5
30BB9
  8
0
 10
6800.1696675648963719
 20
144.1213756415490934
 30
0.0
 11
6800.4894944591669628
 21
144.1213756425491113
 31
0.0
  0
LINE
  5
30BBA
  8
0
 10
6800.4894957350670666
 20
144.2044001926491035
 30
0.0
 11
6800.1344257335686052
 21
144.2044001932491142
 31
0.0
  0
LINE
  5
30BBB
  8
0
 10
6800.2089668736962267
 20
144.0287922719491007
 30
0.0
 11
6800.3023841354406613
 21
144.0287922729434911
 31
0.0
  0
LINE
  5
30BBC
  8
0
 10
6800.5226907835703969
 20
143.2897050567474082
 30
0.0
 11
6799.3202031205673848
 21
143.2897050567474082
 31
0.0
  0
LINE
  5
30BBD
  8
0
 10
6800.6321018186672518
 20
143.2897056551491062
 30
0.0
 11
6806.1154787111672704
 21
143.2897056551491062
 31
0.0
  0
LINE
  5
30BBE
  8
0
 10
6800.6324455509902691
 20
143.2798624512491017
 30
0.0
 11
6806.1154787111672704
 21
143.2798624512491017
 31
0.0
  0
LINE
  5
30BBF
  8
0
 10
6800.7305240566665816
 20
143.2894451287490938
 30
0.0
 11
6800.7304416856477474
 21
143.2798631354490908
 31
0.0
  0
LINE
  5
30BC0
  8
0
 10
6801.1153384149656631
 20
143.2897056551491062
 30
0.0
 11
6801.1153384149656631
 21
143.2798624512491017
 31
0.0
  0
LINE
  5
30BC1
  8
0
 10
6805.9689386654672489
 20
143.2895195824490884
 30
0.0
 11
6805.9690210364851737
 21
143.2799375891491138
 31
0.0
  0
LINE
  5
30BC2
  8
0
 10
6805.5841229443667544
 20
143.2897056551491062
 30
0.0
 11
6805.5841229443667544
 21
143.2798624512491017
 31
0.0
  0
LINE
  5
30BC3
  8
0
 10
6806.1153061728673492
 20
144.6479584110491032
 30
0.0
 11
6806.1153061728673492
 21
141.9314528991490931
 31
0.0
  0
LINE
  5
30BC4
  8
0
 10
6806.0956061728657005
 20
141.9117528991490929
 30
0.0
 11
6800.6992450582565652
 21
141.9117528991490929
 31
0.0
  0
ARC
  5
30BC5
  8
0
 10
6806.0956061728657005
 20
141.9314528991490931
 30
0.0
 40
0.0197
 50
270.0
 51
0.0
  0
ARC
  5
30BC6
  8
0
 10
6800.6992450582565652
 20
141.9314528991490931
 30
0.0
 40
0.0197
 50
182.0000000027652902
 51
270.0
  0
ARC
  5
30BC7
  8
0
 10
6806.0956061728657005
 20
144.6479584110491032
 30
0.0
 40
0.0197
 50
0.0000000000211698
 51
90.0
  0
ARC
  5
30BC8
  8
0
 10
6801.0049050981788241
 20
144.8865823119379002
 30
0.0
 40
0.3132666299094562
 50
224.3341769824606899
 51
263.4916858361016239
  0
ARC
  5
30BC9
  8
0
 10
6801.0828403288778645
 20
145.5697296804250982
 30
0.0
 40
1.0008451543379251
 50
263.4916858361016239
 51
268.4875349989146116
  0
LINE
  5
30BCA
  8
0
 10
6801.0564235930669383
 20
144.5692332141491079
 30
0.0
 11
6805.6431548002683485
 21
144.5692332141491079
 31
0.0
  0
LINE
  5
30BCB
  8
0
 10
6803.5564125693672395
 20
144.6873434503490898
 30
0.0
 11
6804.3438361915668793
 21
144.6873434503490898
 31
0.0
  0
LINE
  5
30BCC
  8
0
 10
6803.5446125692669739
 20
144.6991544740490951
 30
0.0
 11
6804.3556361916671449
 21
144.6991544740490951
 31
0.0
  0
LINE
  5
30BCD
  8
0
 10
6803.5446125692669739
 20
144.6991544740490951
 30
0.0
 11
6803.5564235930660288
 21
144.6873434503490898
 31
0.0
  0
ARC
  5
30BCE
  8
0
 10
6803.4152994167998258
 20
144.6783030028769019
 30
0.0
 40
0.1290525526190811
 50
330.393518936134285
 51
359.044060802007607
  0
ARC
  5
30BCF
  8
0
 10
6803.4492694932459926
 20
144.6649243449151925
 30
0.0
 40
0.0930507085618331
 50
283.0065133893086227
 51
327.2203912910330814
  0
ARC
  5
30BD0
  8
0
 10
6803.3353440659057014
 20
145.2286306443810986
 30
0.0
 40
0.6681235131415861
 50
278.3984517517596942
 51
281.645763359078785
  0
LINE
  5
30BD1
  8
0
 10
6800.7808329958679678
 20
144.6676584110491035
 30
0.0
 11
6800.7808329958679678
 21
143.2897056551491062
 31
0.0
  0
ARC
  5
30BD2
  8
0
 10
6803.5564125693672395
 20
144.675543450349096
 30
0.0
 40
0.0118
 50
90.0
 51
179.9999999999739089
  0
LINE
  5
30BD3
  8
0
 10
6803.5446125693670183
 20
144.6991544740490951
 30
0.0
 11
6803.5446125693670183
 21
162.2868630654533888
 31
0.0
  0
LINE
  5
30BD4
  8
0
 10
6804.3556361916671449
 20
144.6991544740490951
 30
0.0
 11
6804.3438251678680899
 21
144.6873434503490898
 31
0.0
  0
ARC
  5
30BD5
  8
0
 10
6804.3436018615384455
 20
144.6749777276156124
 30
0.0
 40
0.0123679428072945
 50
5.3707549802217702
 51
88.914376847642103
  0
LINE
  5
30BD6
  8
0
 10
6804.35563619156801
 20
144.6991544740490951
 30
0.0
 11
6804.35563619156801
 21
144.7610220453618979
 31
0.0
  0
LINE
  5
30BD7
  8
0
 10
6804.35563619156801
 20
144.9294997555201974
 30
0.0
 11
6804.35563619156801
 21
160.849450429351009
 31
0.0
  0
ARC
  5
30BD8
  8
0
 10
6804.4849493433348471
 20
144.6783030028769019
 30
0.0
 40
0.1290525526190811
 50
180.9559391979915972
 51
209.6064810638658003
  0
ARC
  5
30BD9
  8
0
 10
6804.4509792668877708
 20
144.6649243449151925
 30
0.0
 40
0.0930507085618331
 50
212.7796087089668902
 51
256.9934866106913773
  0
ARC
  5
30BDA
  8
0
 10
6804.564904694228062
 20
145.2286306443810986
 30
0.0
 40
0.6681235131415861
 50
258.3542366409211013
 51
260.729722516394304
  0
ARC
  5
30BDB
  8
0
 10
6805.6946732951555532
 20
144.8865823119379002
 30
0.0
 40
0.3132666299094562
 50
276.5083141638983761
 51
315.6658230175393101
  0
ARC
  5
30BDC
  8
0
 10
6805.6167380644546938
 20
145.5697296804250982
 30
0.0
 40
1.0008451543379251
 50
271.5124650010853884
 51
276.5083141638983761
  0
LINE
  5
30BDD
  8
0
 10
6805.918745397467319
 20
144.6676584110491035
 30
0.0
 11
6805.918745397467319
 21
143.2897056551491062
 31
0.0
  0
LINE
  5
30BDE
  8
0
 10
6803.0972547047313128
 20
141.8781191542848887
 30
0.0
 11
6803.1162542094270975
 21
141.9117528991490929
 31
0.0
  0
ARC
  5
30BDF
  8
0
 10
6803.6984596979937123
 20
146.1388506725095908
 30
0.0
 40
4.3104649730647546
 50
258.7130751432594025
 51
260.1185899614673076
  0
ARC
  5
30BE0
  8
0
 10
6803.3525217373980922
 20
144.1529113316530868
 30
0.0
 40
2.2946206987859772
 50
260.1185899614673076
 51
261.6627815683381186
  0
ARC
  5
30BE1
  8
0
 10
6803.1531933085188939
 20
142.7927505383929088
 30
0.0
 40
0.9199319317984063
 50
261.6627815683381186
 51
265.0553787571395787
  0
ARC
  5
30BE2
  8
0
 10
6803.0846127609656833
 20
142.0000475212519859
 30
0.0
 40
0.1242678287456344
 50
265.0553787571395787
 51
272.5616799676150777
  0
ARC
  5
30BE3
  8
0
 10
6803.0889618584033087
 20
141.9028383180198887
 30
0.0
 40
0.0269613857856477
 50
272.5616799676150777
 51
281.0853558857136818
  0
ARC
  5
30BE4
  8
0
 10
6803.0930456371088439
 20
141.8819949266539027
 30
0.0
 40
0.0057217009442431
 50
281.0853558857127723
 51
317.3606657246278928
  0
ARC
  5
30BE5
  8
0
 10
6802.7196802370617661
 20
140.8433404846574888
 30
0.0
 40
1.10540482113173
 50
72.5409242275820958
 51
75.1354458967609418
  0
ARC
  5
30BE6
  8
0
 10
6802.9566543327628096
 20
141.5718597608355083
 30
0.0
 40
0.3394318061514067
 50
67.2164829340623839
 51
73.804218890883817
  0
ARC
  5
30BE7
  8
0
 10
6803.0772139995897305
 20
141.8566471928484134
 30
0.0
 40
0.0301907602792335
 50
50.77385344006764
 51
68.8657252552262236
  0
ARC
  5
30BE8
  8
0
 10
6803.0946718546565535
 20
141.8780327053233066
 30
0.0
 40
0.0025842964106362
 50
1.916995680959231
 51
50.7738534399989518
  0
LINE
  5
30BE9
  8
0
 10
6802.9351640434697401
 20
141.9117528991490929
 30
0.0
 11
6802.9487253058669012
 21
141.908382690049109
 31
0.0
  0
LINE
  5
30BEA
  8
0
 10
6802.9487253058669012
 20
141.908382690049109
 30
0.0
 11
6802.9775954589567846
 21
141.9031905534758948
 31
0.0
  0
LINE
  5
30BEB
  8
0
 10
6802.9775954589567846
 20
141.9031905534758948
 30
0.0
 11
6802.992202808476577
 21
141.8995314580207889
 31
0.0
  0
LINE
  5
30BEC
  8
0
 10
6802.9508809914232188
 20
141.9117528991490929
 30
0.0
 11
6802.9779777961657601
 21
141.9050311992490947
 31
0.0
  0
LINE
  5
30BED
  8
0
 10
6802.9779777961657601
 20
141.9050311992490947
 30
0.0
 11
6803.006914697081811
 21
141.9017469232150859
 31
0.0
  0
LINE
  5
30BEE
  8
0
 10
6803.006914697081811
 20
141.9017469232150859
 30
0.0
 11
6803.0354306927356447
 21
141.8966033063186956
 31
0.0
  0
LINE
  5
30BEF
  8
0
 10
6803.0354306927356447
 20
141.8966033063186956
 30
0.0
 11
6803.0593485198660346
 21
141.8906593111491077
 31
0.0
  0
LINE
  5
30BF0
  8
0
 10
6802.9619218300413195
 20
141.9117528991490929
 30
0.0
 11
6802.978832013365718
 21
141.9087262753490961
 31
0.0
  0
LINE
  5
30BF1
  8
0
 10
6802.978832013365718
 20
141.9087262753490961
 30
0.0
 11
6803.0077664706668656
 21
141.9054320276491126
 31
0.0
  0
LINE
  5
30BF2
  8
0
 10
6803.0077664706668656
 20
141.9054320276491126
 30
0.0
 11
6803.0358557111667324
 21
141.8984620866991122
 31
0.0
  0
LINE
  5
30BF3
  8
0
 10
6803.0358557111667324
 20
141.8984620866991122
 30
0.0
 11
6803.0556853272510125
 21
141.8948836441190053
 31
0.0
  0
LINE
  5
30BF4
  8
0
 10
6803.0002397163034402
 20
141.9117528991490929
 30
0.0
 11
6803.0289952174662176
 21
141.9035354597490937
 31
0.0
  0
LINE
  5
30BF5
  8
0
 10
6803.0289952174662176
 20
141.9035354597490937
 30
0.0
 11
6803.0617813192657195
 21
141.8929075788491048
 31
0.0
  0
ARC
  5
30BF6
  8
0
 10
6803.0594583723368487
 20
141.8922907617439932
 30
0.0
 40
0.0016351448280578
 50
266.1478475432799087
 51
323.0978409042854764
  0
ARC
  5
30BF7
  8
0
 10
6803.0510724656487582
 20
141.898587572751893
 30
0.0
 40
0.0121219584444701
 50
323.0978409042986073
 51
332.0584459675040989
  0
ARC
  5
30BF8
  8
0
 10
6803.0364126647627927
 20
141.9012223407789861
 30
0.0
 40
0.0047222609423605
 50
202.8481680009170987
 51
312.957487984981924
  0
ARC
  5
30BF9
  8
0
 10
6803.0307315139816637
 20
141.89634683909361
 30
0.0
 40
0.002419364658365
 50
261.1483272914131248
 51
320.0616899978060133
  0
LINE
  5
30BFA
  8
0
 10
6803.0325865281665756
 20
141.89479369784911
 30
0.0
 11
6803.0341193914400719
 21
141.8968398343216109
 31
0.0
  0
LINE
  5
30BFB
  8
0
 10
6803.0303592293657857
 20
141.8939562890491004
 30
0.0
 11
6803.0064851449660637
 21
141.8998894134491024
 31
0.0
  0
LINE
  5
30BFC
  8
0
 10
6803.0064851449660637
 20
141.8998894134491024
 30
0.0
 11
6802.9779777961657601
 21
141.9050311992490947
 31
0.0
  0
ARC
  5
30BFD
  8
0
 10
6802.9927353492794282
 20
141.9034672271828015
 30
0.0
 40
0.0039716342484521
 50
262.2942252832439749
 51
333.8210609789998102
  0
ARC
  5
30BFE
  8
0
 10
6802.9495987746440733
 20
141.9116275197347932
 30
0.0
 40
0.0049295666021337
 50
209.0079978372835967
 51
307.0228619907837242
  0
ARC
  5
30BFF
  8
0
 10
6802.9785528771990357
 20
141.9078488758833032
 30
0.0
 40
0.0047556931507893
 50
203.2374639521580093
 51
312.3511955310373764
  0
LINE
  5
30C00
  8
0
 10
6803.006914697081811
 20
141.9017469232150859
 30
0.0
 11
6802.9788294617155771
 21
141.9087160126101992
 31
0.0
  0
LINE
  5
30C01
  8
0
 10
6803.0077690211674053
 20
141.9054422906490913
 30
0.0
 11
6802.9795739227656668
 21
141.9105064300491108
 31
0.0
  0
LINE
  5
30C02
  8
0
 10
6802.9795739227656668
 20
141.9105064300491108
 30
0.0
 11
6802.9744985831393933
 21
141.9117528991490929
 31
0.0
  0
LINE
  5
30C03
  8
0
 10
6802.9901796849890161
 20
141.9117528991490929
 30
0.0
 11
6803.008200029065847
 21
141.9072886855990987
 31
0.0
  0
LINE
  5
30C04
  8
0
 10
6803.008200029065847
 20
141.9072886855990987
 30
0.0
 11
6803.029024465463408
 21
141.9035259787738141
 31
0.0
  0
ARC
  5
30C05
  8
0
 10
6803.0074754050592674
 20
141.904507235009703
 30
0.0
 40
0.0047230981312028
 50
209.97240876019859
 51
312.9522055347817968
  0
ARC
  5
30C06
  8
0
 10
6803.0087567308501093
 20
141.9100498491621067
 30
0.0
 40
0.0047230981033006
 50
202.9296270604743029
 51
312.9522060187790089
  0
LINE
  5
30C07
  8
0
 10
6802.9779777961657601
 20
141.9050311992490947
 30
0.0
 11
6802.9784040357799313
 21
141.9087750014809046
 31
0.0
  0
LINE
  5
30C08
  8
0
 10
6803.0077635040834139
 20
141.9054323654007135
 30
0.0
 11
6803.0068528067758962
 21
141.9017622807176906
 31
0.0
  0
LINE
  5
30C09
  8
0
 10
6803.0354306927356447
 20
141.8966033063186103
 30
0.0
 11
6803.0358557111667324
 21
141.8984620866991122
 31
0.0
  0
LINE
  5
30C0A
  8
0
 10
6803.008200029065847
 20
141.9072886855990987
 30
0.0
 11
6803.0087784558299973
 21
141.9093127895426107
 31
0.0
  0
LINE
  5
30C0B
  8
0
 10
6802.9487253058669012
 20
141.908382690049109
 30
0.0
 11
6802.9487253058669012
 21
141.9117528991490929
 31
0.0
  0
ARC
  5
30C0C
  8
0
 10
6803.0220156647437761
 20
141.7626654775835107
 30
0.0
 40
0.1361775026269151
 50
65.7841691791651328
 51
73.0214665916014241
  0
ARC
  5
30C0D
  8
0
 10
6803.0579359633893546
 20
141.8425327400395872
 30
0.0
 40
0.048604404777481
 50
55.4807832381924015
 51
65.7841691791644791
  0
ARC
  5
30C0E
  8
0
 10
6803.0834479604736771
 20
141.8796262677334994
 30
0.0
 40
0.003584500379975
 50
22.4615018283333789
 51
55.4807832381882378
  0
ARC
  5
30C0F
  8
0
 10
6803.0856304392909806
 20
141.8805285624835903
 30
0.0
 40
0.0012228590840513
 50
279.5826559471095152
 51
22.4615018282671706
  0
ARC
  5
30C10
  8
0
 10
6803.0746851404501285
 20
141.9290744515537028
 30
0.0
 40
0.0509855609513222
 50
270.6523831794896751
 51
282.6307617636945224
  0
ARC
  5
30C11
  8
0
 10
6803.0793827481429616
 20
142.1191481367652045
 30
0.0
 40
0.2410910972390332
 50
264.3069695866475968
 51
269.0215185865487229
  0
ARC
  5
30C12
  8
0
 10
6803.3457923631403901
 20
144.2540564112572099
 30
0.0
 40
2.3924908615116509
 50
258.243670850153876
 51
263.0300565106045951
  0
ARC
  5
30C13
  8
0
 10
6801.9395650396563724
 20
166.6230711202643988
 30
0.0
 40
0.0114939818965977
 50
188.3993017717567113
 51
210.9888605285310064
  0
LINE
  5
30C14
  8
0
 10
6804.2847700497695769
 20
141.9117528991490929
 30
0.0
 11
6804.33332235697344
 21
140.5134464487435082
 31
0.0
  0
ARC
  5
30C15
  8
0
 10
6804.353010492217436
 20
140.5141300645491071
 30
0.0
 40
0.0197
 50
181.9886378522232917
 51
270.0
  0
LINE
  5
30C16
  8
0
 10
6804.353010492217436
 20
140.4944300645491069
 30
0.0
 11
6805.1220558683662603
 21
140.4944300645491069
 31
0.0
  0
LINE
  5
30C17
  8
0
 10
6804.442271091065777
 20
140.4944300645491069
 30
0.0
 11
6804.4395826557656619
 21
139.9345443245491083
 31
0.0
  0
LINE
  5
30C18
  8
0
 10
6805.0327808193669625
 20
140.4944300645491069
 30
0.0
 11
6805.0306540063666034
 21
139.9978103804490956
 31
0.0
  0
ARC
  5
30C19
  8
0
 10
6783.2395228229543136
 20
139.6759800201922133
 30
0.0
 40
21.7935075890387289
 50
351.8820111666611865
 51
0.8461323420589922
  0
ARC
  5
30C1A
  8
0
 10
6801.2682094505726127
 20
137.1060305571357958
 30
0.0
 40
3.582572281528122
 50
334.5389517834145181
 51
351.8552874270055781
  0
ARC
  5
30C1B
  8
0
 10
6803.9123211316036759
 20
135.8470597853655022
 30
0.0
 40
0.6540344234947263
 50
286.7535052175887245
 51
334.5389517834153139
  0
ARC
  5
30C1C
  8
0
 10
6803.9741327815663681
 20
135.6417276775142966
 30
0.0
 40
0.4396003903151601
 50
266.9249750331927089
 51
286.7535052175887245
  0
ARC
  5
30C1D
  8
0
 10
6803.9842382673041357
 20
135.8298385593274133
 30
0.0
 40
0.6279825144631875
 50
241.6317610570461909
 51
266.9249750331927089
  0
ARC
  5
30C1E
  8
0
 10
6804.7551218539028923
 20
136.7793883893070017
 30
0.0
 40
1.8438224740223621
 50
204.9014720135336063
 51
234.5554088619306867
  0
ARC
  5
30C1F
  8
0
 10
6820.5601843853337414
 20
143.9988703092897993
 30
0.0
 40
19.2196629301025901
 50
191.5214528812288108
 51
204.5838163579429931
  0
ARC
  5
30C20
  8
0
 10
6825.8590715249720233
 20
145.5909480272302972
 30
0.0
 40
24.7348578199244109
 50
188.6193641474245055
 51
192.6834958388236032
  0
ARC
  5
30C21
  8
0
 10
6774.6151513023132793
 20
140.0309969093881932
 30
0.0
 40
29.8245873174788905
 50
354.815292833968897
 51
359.8147053768533965
  0
ARC
  5
30C22
  8
0
 10
6796.636148138711178
 20
138.0328553712101041
 30
0.0
 40
7.7131226153123933
 50
347.7159103891294762
 51
354.815292833968897
  0
ARC
  5
30C23
  8
0
 10
6801.3272507034944283
 20
137.0113941131965021
 30
0.0
 40
2.9120991437037849
 50
340.3425530867277757
 51
347.7159103891294762
  0
ARC
  5
30C24
  8
0
 10
6803.1571331394834488
 20
136.3577342057124042
 30
0.0
 40
0.968972538411437
 50
325.2466791722246171
 51
340.3425530867277757
  0
ARC
  5
30C25
  8
0
 10
6828.5589802724298352
 20
146.1060980098168898
 30
0.0
 40
26.8916231313878811
 50
188.9731839059481899
 51
196.1542584705917136
  0
ARC
  5
30C26
  8
0
 10
6821.1695688956406229
 20
143.965671264695203
 30
0.0
 40
19.1984555687614993
 50
196.1542584705917136
 51
202.09211828019221
  0
ARC
  5
30C27
  8
0
 10
6807.3171869926109139
 20
138.3430218953049859
 30
0.0
 40
4.2484498724910518
 50
202.09211828019221
 51
212.0965564605195084
  0
ARC
  5
30C28
  8
0
 10
6805.0895687940555945
 20
136.9458261920972859
 30
0.0
 40
1.618917847283583
 50
212.0965564605195084
 51
221.0057703195060981
  0
ARC
  5
30C29
  8
0
 10
6804.2585719604830956
 20
136.2233047204763068
 30
0.0
 40
0.5177398351695714
 50
221.0057703195060981
 51
233.8484938445322996
  0
LINE
  5
30C2A
  8
0
 10
6805.190271406663669
 20
141.9117528991490929
 30
0.0
 11
6805.1417190994607154
 21
140.5134464487435082
 31
0.0
  0
ARC
  5
30C2B
  8
0
 10
6805.1220309642158099
 20
140.5141300645491071
 30
0.0
 40
0.0197
 50
270.0
 51
358.0113621477765946
  0
LINE
  5
30C2C
  8
0
 10
6803.5446125693670183
 20
165.6487083849563078
 30
0.0
 11
6803.5446125693670183
 21
175.2345875448490915
 31
0.0
  0
LINE
  5
30C2D
  8
0
 10
6803.3202031205673848
 20
175.2345875448490915
 30
0.0
 11
6804.5800456402675991
 21
175.2345875448490915
 31
0.0
  0
LINE
  5
30C2E
  8
0
 10
6803.3202031205673848
 20
176.8093906944490925
 30
0.0
 11
6804.5800456402675991
 21
176.8093906944490925
 31
0.0
  0
LINE
  5
30C2F
  8
0
 10
6804.5800456402675991
 20
176.8093906944490925
 30
0.0
 11
6804.5800456402675991
 21
176.2975796721491122
 31
0.0
  0
LINE
  5
30C30
  8
0
 10
6804.5800456402675991
 20
176.2975796721491122
 30
0.0
 11
6804.9343763489669072
 21
176.2975796721491122
 31
0.0
  0
LINE
  5
30C31
  8
0
 10
6804.9343763489669072
 20
175.5692332141491079
 30
0.0
 11
6804.9343763489669072
 21
176.4747450251491045
 31
0.0
  0
LINE
  5
30C32
  8
0
 10
6804.9737763489665667
 20
176.5141151039491092
 30
0.0
 11
6805.761118081267341
 21
176.5141151039491092
 31
0.0
  0
ARC
  5
30C33
  8
0
 10
6804.9737763489665667
 20
176.4747151039491087
 30
0.0
 40
0.0394
 50
90.0
 51
180.0
  0
LINE
  5
30C34
  8
0
 10
6805.8005180812670005
 20
176.8683913474378926
 30
0.0
 11
6805.8005180812670005
 21
175.1755870941603064
 31
0.0
  0
ARC
  5
30C35
  8
0
 10
6805.83991808126666
 20
176.8683913474378926
 30
0.0
 40
0.0394
 50
90.0054958432616985
 51
180.0
  0
ARC
  5
30C36
  8
0
 10
6805.761118081267341
 20
176.5535151039491097
 30
0.0
 40
0.0394
 50
270.0
 51
0.0
  0
LINE
  5
30C37
  8
0
 10
6805.8399143019969415
 20
176.9077913472567047
 30
0.0
 11
6806.0957768215321266
 21
176.9078158897328024
 31
0.0
  0
LINE
  5
30C38
  8
0
 10
6806.1154787111672704
 20
176.8881158898234105
 30
0.0
 11
6806.1154787111672704
 21
175.1558473873490982
 31
0.0
  0
ARC
  5
30C39
  8
0
 10
6806.0957787111674406
 20
176.8881158898234105
 30
0.0
 40
0.0197
 50
0.0
 51
90.0054958432616985
  0
ARC
  5
30C3A
  8
0
 10
6805.1465055490816667
 20
176.0219891196491062
 30
0.0
 40
0.6299420451173137
 50
154.0564400163341077
 51
205.9435599836658923
  0
LINE
  5
30C3B
  8
0
 10
6803.3399031205672145
 20
176.9865571474491048
 30
0.0
 11
6804.5603606008662609
 21
176.9865571474491048
 31
0.0
  0
LINE
  5
30C3C
  8
0
 10
6803.3281031205669933
 20
176.8487607732490972
 30
0.0
 11
6804.5721716245670905
 21
176.8487607732490972
 31
0.0
  0
LINE
  5
30C3D
  8
0
 10
6803.3202031205673848
 20
176.9668571474491046
 30
0.0
 11
6803.3202031205673848
 21
176.8566607732491036
 31
0.0
  0
ARC
  5
30C3E
  8
0
 10
6803.3281031205669933
 20
176.8566607732491036
 30
0.0
 40
0.0079
 50
180.0
 51
270.0
  0
ARC
  5
30C3F
  8
0
 10
6803.3399031205672145
 20
176.9668571474491046
 30
0.0
 40
0.0197
 50
90.0
 51
180.0
  0
LINE
  5
30C40
  8
0
 10
6803.4383133567671393
 20
176.8487607732490972
 30
0.0
 11
6803.4383133567671393
 21
176.8093906944490925
 31
0.0
  0
LINE
  5
30C41
  8
0
 10
6803.7275294878672867
 20
176.9668721081490901
 30
0.0
 11
6803.7275294878672867
 21
176.8566347889490942
 31
0.0
  0
ARC
  5
30C42
  8
0
 10
6803.7593336932368402
 20
176.9667050297570938
 30
0.0
 40
0.0318046442279765
 50
141.3772931963135022
 51
179.6990084003826951
  0
ARC
  5
30C43
  8
0
 10
6803.7414933203463079
 20
176.8571405582931106
 30
0.0
 40
0.0139729889479011
 50
182.0743436017405088
 51
216.8493554031520887
  0
LINE
  5
30C44
  8
0
 10
6803.3202031205673848
 20
176.8093906944490925
 30
0.0
 11
6803.3202031205673848
 21
175.2345875448490915
 31
0.0
  0
LINE
  5
30C45
  8
0
 10
6804.580045640366734
 20
176.9668571474491046
 30
0.0
 11
6804.580045640366734
 21
176.8566607732491036
 31
0.0
  0
ARC
  5
30C46
  8
0
 10
6804.5721456403671255
 20
176.8566607732491036
 30
0.0
 40
0.0079
 50
270.0
 51
0.0
  0
ARC
  5
30C47
  8
0
 10
6804.5603456403669043
 20
176.9668571474491046
 30
0.0
 40
0.0197
 50
0.0
 51
90.0
  0
LINE
  5
30C48
  8
0
 10
6804.4619354041669794
 20
176.8487607732490972
 30
0.0
 11
6804.4619354041669794
 21
176.8093906944490925
 31
0.0
  0
LINE
  5
30C49
  8
0
 10
6804.1727192730677416
 20
176.9668721081490901
 30
0.0
 11
6804.1727192730677416
 21
176.8566347889490942
 31
0.0
  0
ARC
  5
30C4A
  8
0
 10
6804.1409150676972786
 20
176.9667050297570938
 30
0.0
 40
0.0318046442279765
 50
0.3009915996173236
 51
38.622706803686448
  0
ARC
  5
30C4B
  8
0
 10
6804.1587554405878109
 20
176.8571405582931106
 30
0.0
 40
0.0139729889479011
 50
323.1506445968478829
 51
357.9256563982593775
  0
LINE
  5
30C4C
  8
0
 10
6803.5957936717668417
 20
176.9865571474491048
 30
0.0
 11
6803.5957936717668417
 21
189.2896791947491124
 31
0.0
  0
LINE
  5
30C4D
  8
0
 10
6804.5800456402675991
 20
175.2345875448490915
 30
0.0
 11
6804.5800456402675991
 21
175.7463985684491092
 31
0.0
  0
LINE
  5
30C4E
  8
0
 10
6804.5800456402675991
 20
175.7463985684491092
 30
0.0
 11
6804.9343763489669072
 21
175.7463985684491092
 31
0.0
  0
LINE
  5
30C4F
  8
0
 10
6804.9737763489665667
 20
175.5298633376490898
 30
0.0
 11
6805.2513054827868473
 21
175.5298631353890073
 31
0.0
  0
LINE
  5
30C50
  8
0
 10
6805.4835889473515635
 20
175.5298631353890073
 30
0.0
 11
6805.761118081267341
 21
175.5298633376490898
 31
0.0
  0
ARC
  5
30C51
  8
0
 10
6804.9737763489665667
 20
175.5692633376490903
 30
0.0
 40
0.0394
 50
180.0
 51
270.0
  0
ARC
  5
30C52
  8
0
 10
6805.83991808126666
 20
175.1755870941603064
 30
0.0
 40
0.0394
 50
180.0
 51
269.9945041567382873
  0
ARC
  5
30C53
  8
0
 10
6805.761118081267341
 20
175.4904633376490892
 30
0.0
 40
0.0394
 50
0.0
 51
90.0
  0
LINE
  5
30C54
  8
0
 10
6805.8399143019969415
 20
175.1361870943416079
 30
0.0
 11
6806.0957768215321266
 21
175.1361625518653966
 31
0.0
  0
ARC
  5
30C55
  8
0
 10
6806.0957787111674406
 20
175.1558625517747885
 30
0.0
 40
0.0197
 50
269.9945041567382873
 51
0.0
  0
ARC
  5
30C56
  8
0
 10
6805.3674472150696602
 20
175.037832754798103
 30
0.0
 40
0.50555197299795
 50
76.7186749898602329
 51
103.2813250101397955
  0
ARC
  5
30C57
  8
0
 10
6803.3779864982043364
 20
163.4921386446511065
 30
0.0
 40
0.0392638887963176
 50
20.5568304354290987
 51
139.1438118305441947
  0
ARC
  5
30C58
  8
0
 10
6803.9598560646336409
 20
163.0287877058090942
 30
0.0
 40
0.7830518939915901
 50
141.3526280425527943
 51
189.4750014311927089
  0
ARC
  5
30C59
  8
0
 10
6803.9433350609970148
 20
163.0259670276867894
 30
0.0
 40
0.7662919480602062
 50
189.4703242119030051
 51
230.2291148452954133
  0
ARC
  5
30C5A
  8
0
 10
6803.9618593014802173
 20
163.0482234989954122
 30
0.0
 40
0.7952487780079461
 50
230.2291148452954133
 51
262.2356760255664199
  0
ARC
  5
30C5B
  8
0
 10
6803.8569075379873539
 20
162.2784927340725858
 30
0.0
 40
0.0183959456586632
 50
262.2356760255664199
 51
27.1386620702553714
  0
LINE
  5
30C5C
  8
0
 10
6803.3669649089670202
 20
162.4709316852282939
 30
0.0
 11
6803.3673751368187368
 21
162.4242954590978911
 31
0.0
  0
ARC
  5
30C5D
  8
0
 10
6803.9495758275406843
 20
163.0300216426076076
 30
0.0
 40
0.7868069307949366
 50
144.5419063265485136
 51
224.0981170168012113
  0
ARC
  5
30C5E
  8
0
 10
6803.9546967708765806
 20
163.0349838556086866
 30
0.0
 40
0.7939376824045788
 50
224.0981170168012113
 51
242.8823939855510048
  0
ARC
  5
30C5F
  8
0
 10
6803.9483739032002632
 20
163.0226372456139075
 30
0.0
 40
0.7800662212695264
 50
242.8823939855510048
 51
268.031551082090914
  0
ARC
  5
30C60
  8
0
 10
6803.9501334513270194
 20
163.0298803748225112
 30
0.0
 40
0.8464761311924515
 50
227.0758423420996905
 51
246.0049105051031972
  0
ARC
  5
30C61
  8
0
 10
6803.3870743747147571
 20
162.4244687401863132
 30
0.0
 40
0.0197
 50
180.5039798509295963
 51
227.0758423421029875
  0
ARC
  5
30C62
  8
0
 10
6803.9501229584539033
 20
163.0298568020058951
 30
0.0
 40
0.8464503285166451
 50
246.0049105051031972
 51
269.4882682932832836
  0
ARC
  5
30C63
  8
0
 10
6803.3832002998660755
 20
162.4943078485491128
 30
0.0
 40
0.0118913481000376
 50
259.2085396061008851
 51
276.4255475610714257
  0
ARC
  5
30C64
  8
0
 10
6803.3787644524791176
 20
162.4710354779614931
 30
0.0
 40
0.0118
 50
79.2085396061000324
 51
180.5039798509207003
  0
LINE
  5
30C65
  8
0
 10
6803.8732781858388989
 20
162.2868839619632979
 30
0.0
 11
6803.4147502339683342
 21
163.5059256202490872
 31
0.0
  0
LINE
  5
30C66
  8
0
 10
6803.3976966270665798
 20
163.4820076073490895
 30
0.0
 11
6803.8300951975388671
 21
162.2951744069353026
 31
0.0
  0
ARC
  5
30C67
  8
0
 10
6803.8115518423919639
 20
162.2885938034166884
 30
0.0
 40
0.0196763909998068
 50
260.3964529411665012
 51
19.5385849900641588
  0
ARC
  5
30C68
  8
0
 10
6803.3591814617875571
 20
163.460993287585211
 30
0.0
 40
0.0438750452038761
 50
28.6173930436014601
 51
139.5400575169122135
  0
LINE
  5
30C69
  8
0
 10
6803.8447086025889803
 20
162.3628390089762945
 30
0.0
 11
6804.4932594806568886
 21
162.5988922240053114
 31
0.0
  0
ARC
  5
30C6A
  8
0
 10
6803.9129595711456204
 20
162.8233572220896974
 30
0.0
 40
0.9846580714498946
 50
71.7607820705344182
 51
79.1418902182567621
  0
ARC
  5
30C6B
  8
0
 10
6804.012096795627258
 20
163.2700394601243943
 30
0.0
 40
0.5313540089576182
 50
66.8324397379801525
 51
74.857095716228315
  0
LINE
  5
30C6C
  8
0
 10
6804.5332834137670943
 20
163.5887941422811025
 30
0.0
 11
6804.532875011293072
 21
163.6354287626699033
 31
0.0
  0
ARC
  5
30C6D
  8
0
 10
6803.9501201273460538
 20
163.0298526933401888
 30
0.0
 40
0.8464678726948871
 50
47.075635362851699
 51
77.9815168329992332
  0
ARC
  5
30C6E
  8
0
 10
6804.5131757666831618
 20
163.6352562466259997
 30
0.0
 40
0.0197
 50
0.5017546982271269
 51
47.0756353628511377
  0
ARC
  5
30C6F
  8
0
 10
6804.091187502930552
 20
163.7518364107689024
 30
0.0
 40
0.0392278208373539
 50
79.3354365951580434
 51
199.5983859247444911
  0
ARC
  5
30C70
  8
0
 10
6804.1236920134515458
 20
163.740586895352692
 30
0.0
 40
0.0420499885195754
 50
78.3901939377064139
 51
192.7323056705751867
  0
ARC
  5
30C71
  8
0
 10
6803.9317921571146144
 20
162.9941726433536928
 30
0.0
 40
0.8134682500219103
 50
56.0956087497831035
 51
78.1781425259531062
  0
ARC
  5
30C72
  8
0
 10
6803.9612171346052492
 20
163.0379543807119092
 30
0.0
 40
0.7607172327197818
 50
16.1196976727251418
 51
56.0956087497831035
  0
ARC
  5
30C73
  8
0
 10
6803.9375419320213041
 20
163.0311120663776023
 30
0.0
 40
0.785361349316725
 50
332.5431065526703946
 51
16.1196976727251418
  0
ARC
  5
30C74
  8
0
 10
6804.0584976715626908
 20
162.9572674868300055
 30
0.0
 40
0.6440558633677492
 50
319.2832755195713048
 51
333.4110569749454953
  0
LINE
  5
30C75
  8
0
 10
6804.514321694166938
 20
162.5442112847491103
 30
0.0
 11
6804.0542322712663008
 21
163.7386784177490995
 31
0.0
  0
ARC
  5
30C76
  8
0
 10
6804.5327902528042614
 20
162.5511809206799967
 30
0.0
 40
0.0197353371791072
 50
198.9852531439672987
 51
314.6344310048405077
  0
ARC
  5
30C77
  8
0
 10
6803.9510598739889247
 20
163.0314409225779002
 30
0.0
 40
0.7855317322222751
 50
43.6209993994994107
 51
75.4829365824109573
  0
ARC
  5
30C78
  8
0
 10
6803.9491401895938907
 20
163.0296114897421944
 30
0.0
 40
0.78818352645936
 50
339.5187447675414774
 51
43.6209993994994107
  0
ARC
  5
30C79
  8
0
 10
6803.9526376277581221
 20
163.028305155200087
 30
0.0
 40
0.7844500851995848
 50
311.9054516621635003
 51
339.5187447675414774
  0
LINE
  5
30C7A
  8
0
 10
6804.5332837472496976
 20
162.4709188572747109
 30
0.0
 11
6804.5328735985285675
 21
162.4242925621678069
 31
0.0
  0
LINE
  5
30C7B
  8
0
 10
6804.5265973868999936
 20
162.410049547221405
 30
0.0
 11
6804.4978329407867932
 21
162.3841531349316085
 31
0.0
  0
ARC
  5
30C7C
  8
0
 10
6804.521465282099598
 20
162.4710127885410884
 30
0.0
 40
0.0118188384195217
 50
359.5446319063702845
 51
100.8720112744771029
  0
ARC
  5
30C7D
  8
0
 10
6804.5131504693426905
 20
162.4244811730555966
 30
0.0
 40
0.0197254002741648
 50
312.9770756983904221
 51
359.4525365311592964
  0
ARC
  5
30C7E
  8
0
 10
6804.5170475765808078
 20
162.4943250523720906
 30
0.0
 40
0.0119083860432064
 50
265.1150118163375851
 51
280.589832901260877
  0
ARC
  5
30C7F
  8
0
 10
6803.9391009890232453
 20
162.9875365975794068
 30
0.0
 40
0.8173657427149125
 50
71.3341393772446111
 51
76.3382360338577968
  0
LINE
  5
30C80
  8
0
 10
6804.0826760160380218
 20
163.7313192370386048
 30
0.0
 11
6804.5141284718001771
 21
162.5447605263557023
 31
0.0
  0
ARC
  5
30C81
  8
0
 10
6804.5170484555674193
 20
163.5654164014025014
 30
0.0
 40
0.0118932661481431
 50
79.2104987872351529
 51
95.1338810084329367
  0
ARC
  5
30C82
  8
0
 10
6804.5214838662350303
 20
163.5886908077980024
 30
0.0
 40
0.0118
 50
259.2104987871837238
 51
0.5017546982417823
  0
ARC
  5
30C83
  8
0
 10
6804.0611648822568895
 20
162.9119003524236859
 30
0.0
 40
0.6178285250352311
 50
311.9116225162978253
 51
324.7378406226043808
  0
ARC
  5
30C84
  8
0
 10
6804.5075104830766577
 20
162.5972278240953131
 30
0.0
 40
0.071716464796681
 50
303.0818215565133755
 51
324.1406755461135845
  0
LINE
  5
30C85
  8
0
 10
6798.8655840649671518
 20
171.0855209937490997
 30
0.0
 11
6798.9170683575666772
 21
170.9970484635491061
 31
0.0
  0
LINE
  5
30C86
  8
0
 10
6798.9170683575666772
 20
170.9970484635491061
 30
0.0
 11
6798.9223189042850208
 21
170.9992471126024896
 31
0.0
  0
LINE
  5
30C87
  8
0
 10
6798.9032391351529441
 20
171.0321797398958097
 30
0.0
 11
6798.9532856716396054
 21
170.9457969371416937
 31
0.0
  0
ARC
  5
30C88
  8
0
 10
6799.0200227005661873
 20
170.7903668758382025
 30
0.0
 40
0.1691518104747889
 50
99.4425155681945512
 51
113.2372415445593958
  0
ARC
  5
30C89
  8
0
 10
6799.0019137646431773
 20
170.9198836081384911
 30
0.0
 40
0.0385678296983523
 50
62.5622008042780209
 51
104.4772247616566005
  0
LINE
  5
30C8A
  8
0
 10
6798.9890080048662639
 20
170.8063925745491076
 30
0.0
 11
6799.042856948665758
 21
170.720090507549088
 31
0.0
  0
LINE
  5
30C8B
  8
0
 10
6799.042856948665758
 20
170.720090507549088
 30
0.0
 11
6799.0675911437028844
 21
170.72981721674509
 31
0.0
  0
LINE
  5
30C8C
  8
0
 10
6799.0502148137666154
 20
170.7120772158490922
 30
0.0
 11
6799.1042174473677733
 21
170.6331915066490978
 31
0.0
  0
LINE
  5
30C8D
  8
0
 10
6799.012022981568407
 20
170.8769469728491117
 30
0.0
 11
6799.0580513859804341
 21
170.7968178774736998
 31
0.0
  0
LINE
  5
30C8E
  8
0
 10
6799.0919449082657593
 20
170.5630023323491002
 30
0.0
 11
6799.1722414942169053
 21
170.4414217477990974
 31
0.0
  0
ARC
  5
30C8F
  8
0
 10
6800.6781816906059248
 20
171.4119594939614899
 30
0.0
 40
1.742337714200443
 50
210.2142333247458907
 51
213.0731882250379101
  0
ARC
  5
30C90
  8
0
 10
6799.8397643423650152
 20
170.9373014217950129
 30
0.0
 40
0.7237440805737304
 50
206.1924810175862888
 51
212.5765656419602863
  0
LINE
  5
30C91
  8
0
 10
6799.207491767868305
 20
170.3031040073491056
 30
0.0
 11
6799.2671136279759594
 21
170.2208317083901079
 31
0.0
  0
LINE
  5
30C92
  8
0
 10
6799.3169082658750995
 20
170.2229618602671906
 30
0.0
 11
6799.3612015658482051
 21
170.1557899014925113
 31
0.0
  0
LINE
  5
30C93
  8
0
 10
6799.3612015658482051
 20
170.1557899014925113
 30
0.0
 11
6799.4564331030242101
 21
169.9551017089559934
 31
0.0
  0
LINE
  5
30C94
  8
0
 10
6799.4448574326670496
 20
169.9409469346491051
 30
0.0
 11
6799.4879814988680664
 21
169.8819760206490912
 31
0.0
  0
ARC
  5
30C95
  8
0
 10
6798.7627041145433395
 20
171.2202830727568141
 30
0.0
 40
0.169543805955247
 50
307.3588069917037728
 51
321.105990052770494
  0
ARC
  5
30C96
  8
0
 10
6798.729107105957155
 20
171.2473866423401887
 30
0.0
 40
0.2127104883623608
 50
321.105990052770494
 51
327.9134982713795807
  0
ARC
  5
30C97
  8
0
 10
6798.8773558233187941
 20
171.1544390593074922
 30
0.0
 40
0.0377335316197838
 50
327.9134982713816839
 51
33.1576411615652304
  0
ARC
  5
30C98
  8
0
 10
6798.795358596044025
 20
171.17177266925151
 30
0.0
 40
0.1764249673888486
 50
307.8712260715824982
 51
323.6791890157430771
  0
ARC
  5
30C99
  8
0
 10
6799.2538603110988333
 20
170.8347132074694912
 30
0.0
 40
0.3926382131849408
 50
141.2948335306778063
 51
143.6791890157431055
  0
ARC
  5
30C9A
  8
0
 10
6798.9237462012742981
 20
171.0992333562622036
 30
0.0
 40
0.0303821582187373
 50
321.294833530643416
 51
37.6219951595166222
  0
ARC
  5
30C9B
  8
0
 10
6798.8106162306776241
 20
171.0545133008897096
 30
0.0
 40
0.151079358795472
 50
24.7566721983574816
 51
46.8609083993748428
  0
ARC
  5
30C9C
  8
0
 10
6802.6049466333770397
 20
172.6356155137632982
 30
0.0
 40
3.958583813869073
 50
205.3417973903810889
 51
205.8691448813792135
  0
ARC
  5
30C9D
  8
0
 10
6798.9544520578720039
 20
170.9067754263529082
 30
0.0
 40
0.0805991101445306
 50
25.3417973903818705
 51
35.9671520811974119
  0
LINE
  5
30C9E
  8
0
 10
6799.004903415680019
 20
170.9583353892977016
 30
0.0
 11
6799.033111474337602
 21
170.8964204589198062
 31
0.0
  0
ARC
  5
30C9F
  8
0
 10
6798.9105829438567525
 20
171.0079465646896892
 30
0.0
 40
0.1656843778082433
 50
307.8743388836559234
 51
323.6890947994421026
  0
ARC
  5
30CA0
  8
0
 10
6798.974197108237604
 20
170.9611986715962075
 30
0.0
 40
0.0867405533609855
 50
323.6890947994558019
 51
358.3003559396084938
  0
ARC
  5
30CA1
  8
0
 10
6798.7422917932135533
 20
170.6863976010220938
 30
0.0
 40
0.4190693751389187
 50
27.6925288580816584
 51
40.5116080282054227
  0
ARC
  5
30CA2
  8
0
 10
6798.9517354399367832
 20
170.796323137811612
 30
0.0
 40
0.1825312919658578
 50
357.2764812314629808
 51
27.6925288580816584
  0
ARC
  5
30CA3
  8
0
 10
6799.1042152692307354
 20
170.7776327363428095
 30
0.0
 40
0.0314814279713252
 50
18.5535186762827209
 51
86.7634770613480981
  0
ARC
  5
30CA4
  8
0
 10
6799.1025589962710001
 20
170.7483431268121876
 30
0.0
 40
0.0608178297033493
 50
86.7634770613480981
 51
112.4489503092061966
  0
ARC
  5
30CA5
  8
0
 10
6798.9686858338736783
 20
171.0758909364664078
 30
0.0
 40
0.2930323773215145
 50
287.7562498195724743
 51
292.1851493707447958
  0
ARC
  5
30CA6
  8
0
 10
6798.8607583449156664
 20
170.9598644219076107
 30
0.0
 40
0.2000037651691048
 50
309.8804448833635092
 51
326.5736707163915753
  0
ARC
  5
30CA7
  8
0
 10
6798.8961141036688787
 20
170.8803876810497968
 30
0.0
 40
0.2282004416045625
 50
312.476413620232222
 51
326.6488110682159913
  0
ARC
  5
30CA8
  8
0
 10
6799.3651152326247029
 20
170.5716260384936049
 30
0.0
 40
0.3333116369410101
 50
143.0521706321752902
 51
146.6365600565584089
  0
ARC
  5
30CA9
  8
0
 10
6799.085482961303569
 20
170.7819451399510911
 30
0.0
 40
0.0165859646537732
 50
323.0521706321773081
 51
17.2431083134436918
  0
ARC
  5
30CAA
  8
0
 10
6798.9945724247500038
 20
170.7537286568322088
 30
0.0
 40
0.1117747012574293
 50
17.2431083134436918
 51
29.2017920946624905
  0
ARC
  5
30CAB
  8
0
 10
6799.2117777316288993
 20
170.3797973727006081
 30
0.0
 40
0.2752776813872282
 50
105.4002627726509047
 51
113.0001639693705044
  0
ARC
  5
30CAC
  8
0
 10
6799.1531155578131802
 20
170.5927652365722906
 30
0.0
 40
0.0543782434546125
 50
90.7648857568341043
 51
105.4002627726509047
  0
ARC
  5
30CAD
  8
0
 10
6799.1525879893461024
 20
170.6322817925534991
 30
0.0
 40
0.0148581659610015
 50
37.8476787007475934
 51
90.7648857568341043
  0
ARC
  5
30CAE
  8
0
 10
6798.6144340884338817
 20
170.3086641893740136
 30
0.0
 40
0.6427185912267365
 50
23.7390071129355213
 51
31.1779553391588813
  0
ARC
  5
30CAF
  8
0
 10
6798.9066775751789464
 20
170.7615922203862056
 30
0.0
 40
0.2715914732458177
 50
313.0122299268703046
 51
326.3676777467165948
  0
ARC
  5
30CB0
  8
0
 10
6799.0458916042771307
 20
170.6689853961312053
 30
0.0
 40
0.1043892908565408
 50
326.3676777467165948
 51
347.7826112095573876
  0
ARC
  5
30CB1
  8
0
 10
6799.2534797237976818
 20
170.2753370406846045
 30
0.0
 40
0.1848885607135872
 50
103.278389246469402
 51
116.0649827027811938
  0
ARC
  5
30CB2
  8
0
 10
6799.216513856684287
 20
170.4319775380791953
 30
0.0
 40
0.0239453385653337
 50
51.9273232797104782
 51
103.2783892464697999
  0
ARC
  5
30CB3
  8
0
 10
6799.2081004899755499
 20
170.4212370293357139
 30
0.0
 40
0.037588771690601
 50
22.7761224297643494
 51
51.9273232797109685
  0
ARC
  5
30CB4
  8
0
 10
6733.8286220974778189
 20
139.0239846379294022
 30
0.0
 40
72.5652165442245263
 50
25.4805942068030191
 51
25.6502729017677709
  0
ARC
  5
30CB5
  8
0
 10
6799.0130358572096156
 20
170.4947312101720911
 30
0.0
 40
0.2730093149529262
 50
315.4197803911736742
 51
326.7042397861030736
  0
ARC
  5
30CB6
  8
0
 10
6801.4246134304548832
 20
168.9175945810873998
 30
0.0
 40
2.6084954375929712
 50
146.0948106279631133
 51
146.8275843872104076
  0
ARC
  5
30CB7
  8
0
 10
6799.2308371729977807
 20
170.3742017406962077
 30
0.0
 40
0.0288656470595516
 50
356.9507311318379834
 51
25.4349114464556685
  0
ARC
  5
30CB8
  8
0
 10
6810.5004263350192559
 20
175.5544900231971042
 30
0.0
 40
12.3743229651158408
 50
204.3427637538862882
 51
204.6850619152386059
  0
ARC
  5
30CB9
  8
0
 10
6799.3477831837299163
 20
170.0740894488671131
 30
0.0
 40
0.1674540771536045
 50
105.1983048863123003
 51
118.7991952136366933
  0
ARC
  5
30CBA
  8
0
 10
6799.3110811522356016
 20
170.2091911637755004
 30
0.0
 40
0.0274558182824463
 50
56.107280860783348
 51
105.1983048863120018
  0
ARC
  5
30CBB
  8
0
 10
6799.1896361800072555
 20
170.3662681432531087
 30
0.0
 40
0.1916634409177032
 50
311.6086767419952821
 51
328.4976197048671906
  0
ARC
  5
30CBC
  8
0
 10
6799.9340280647129475
 20
170.5878055613418098
 30
0.0
 40
0.6640906915257984
 50
208.0632311898567934
 51
214.3780599539283003
  0
ARC
  5
30CBD
  8
0
 10
6799.4526969367707352
 20
170.0816368238444056
 30
0.0
 40
0.1472009452594328
 50
101.6981336694721989
 51
116.6347353951563974
  0
ARC
  5
30CBE
  8
0
 10
6799.4284502272475947
 20
170.1987389645626081
 30
0.0
 40
0.0276149331864475
 50
59.307827041337859
 51
101.6981336694722984
  0
ARC
  5
30CBF
  8
0
 10
6799.424772525852859
 20
170.1925430815759057
 30
0.0
 40
0.0348201017152946
 50
21.0223400572764199
 51
59.307827041337859
  0
ARC
  5
30CC0
  8
0
 10
6800.2779657261098691
 20
170.5204350086569036
 30
0.0
 40
0.879210397123807
 50
201.0223400572756987
 51
211.3465918387626061
  0
ARC
  5
30CC1
  8
0
 10
6799.4977718069212642
 20
170.0522969786250087
 30
0.0
 40
0.0312289949270271
 50
326.9692567051013725
 51
20.15574499995002
  0
ARC
  5
30CC2
  8
0
 10
6799.3348240132727369
 20
170.1326539811882981
 30
0.0
 40
0.2127269421257313
 50
313.0115986044759211
 51
332.7568270083921789
  0
ARC
  5
30CC3
  8
0
 10
6800.2882523543757998
 20
170.4662902956997073
 30
0.0
 40
0.9448172249600194
 50
211.1819045530540961
 51
215.1234207713210083
  0
ARC
  5
30CC4
  8
0
 10
6799.5838411240601999
 20
169.7975884332263945
 30
0.0
 40
0.1425729286786128
 50
101.8594438603348067
 51
118.6549756916711971
  0
ARC
  5
30CC5
  8
0
 10
6799.5590377692387847
 20
169.9216426115617935
 30
0.0
 40
0.0161156430557578
 50
31.1208530964432484
 51
106.203338172808202
  0
ARC
  5
30CC6
  8
0
 10
6798.6556728774567091
 20
170.598146897787899
 30
0.0
 40
1.026997591882427
 50
320.2138796194024053
 51
323.8704923228311259
  0
ARC
  5
30CC7
  8
0
 10
6799.4522808441961388
 20
170.0166217279956129
 30
0.0
 40
0.0407137707767427
 50
323.8704923228330017
 51
17.9180593325334101
  0
ARC
  5
30CC8
  8
0
 10
6809.9225436103088214
 20
175.2435768832872895
 30
0.0
 40
11.6622021905012208
 50
205.9080216537770127
 51
206.559195542189201
  0
ARC
  5
30CC9
  8
0
 10
6799.3991314970598978
 20
170.136498057376798
 30
0.0
 40
0.0352433475306662
 50
19.1121954469596105
 51
74.9503530558317834
  0
ARC
  5
30CCA
  8
0
 10
6799.4129002651925475
 20
170.0837226120729042
 30
0.0
 40
0.0869327124834024
 50
93.0448255438588632
 51
112.081216273575194
  0
ARC
  5
30CCB
  8
0
 10
6799.4316995994704484
 20
170.0233957282707138
 30
0.0
 40
0.1499939660372846
 50
110.0724409862455957
 51
118.0346728612521048
  0
ARC
  5
30CCC
  8
0
 10
6799.2376511228649179
 20
170.4055518047217959
 30
0.0
 40
0.1706539729448257
 50
310.289391190620222
 51
335.379910826226876
  0
ARC
  5
30CCD
  8
0
 10
6799.361171624196686
 20
170.3489473082424865
 30
0.0
 40
0.0347812999335124
 50
335.3799108262306845
 51
21.0806837052678908
  0
ARC
  5
30CCE
  8
0
 10
6828.5966820828707569
 20
185.0719838293034059
 30
0.0
 40
32.6989008470899876
 50
206.390107812891813
 51
206.735876818300909
  0
ARC
  5
30CCF
  8
0
 10
6799.2627703474863665
 20
170.5109946810204065
 30
0.0
 40
0.0504267861262673
 50
32.3252772521074405
 51
78.2058408030469252
  0
ARC
  5
30CD0
  8
0
 10
6799.292741236204165
 20
170.4140840579595988
 30
0.0
 40
0.147588623450837
 50
97.6565206349500414
 51
115.2069008345418979
  0
ARC
  5
30CD1
  8
0
 10
6799.0327305969567533
 20
170.6965071130489946
 30
0.0
 40
0.213498193025905
 50
310.9086276220061791
 51
326.590478340315201
  0
ARC
  5
30CD2
  8
0
 10
6799.2820806571280627
 20
170.3354285427708135
 30
0.0
 40
0.1410423769007582
 50
100.3765553986795993
 51
116.9549075124491964
  0
ARC
  5
30CD3
  8
0
 10
6799.2638389524481681
 20
170.4520705708177104
 30
0.0
 40
0.0232216279331923
 50
40.6100541693270003
 51
108.3741392594580049
  0
ARC
  5
30CD4
  8
0
 10
6799.2263768450156931
 20
170.4199502566004014
 30
0.0
 40
0.0725686043217005
 50
25.8063289900959916
 51
40.6100541693270003
  0
ARC
  5
30CD5
  8
0
 10
6804.4443386800621738
 20
172.9431226854543979
 30
0.0
 40
5.7234235297073131
 50
205.8063289900960058
 51
207.3800809880403051
  0
ARC
  5
30CD6
  8
0
 10
6799.328147930455998
 20
170.2933974441625935
 30
0.0
 40
0.0382126650456615
 50
359.8384823678126736
 51
27.3800809880380918
  0
ARC
  5
30CD7
  8
0
 10
6799.0449970625286369
 20
170.7886913483548881
 30
0.0
 40
0.2243003887386792
 50
310.3887213600240784
 51
327.7633957238430753
  0
ARC
  5
30CD8
  8
0
 10
6799.201579312107242
 20
170.6899464818012007
 30
0.0
 40
0.0391827246610885
 50
327.7633957238783751
 51
13.0256381192902797
  0
ARC
  5
30CD9
  8
0
 10
6799.1592636460363792
 20
170.6801571942469877
 30
0.0
 40
0.0826159578560373
 50
13.0256381192918695
 51
35.6800301042185311
  0
ARC
  5
30CDA
  8
0
 10
6798.0400996534572187
 20
169.8765476228070099
 30
0.0
 40
1.460409986583181
 50
35.6800301042185311
 51
42.0371344207944091
  0
ARC
  5
30CDB
  8
0
 10
6792.2072584383922731
 20
167.648718981402908
 30
0.0
 40
7.6110367162173631
 50
25.7778198123018107
 51
26.8836783594918494
  0
ARC
  5
30CDC
  8
0
 10
6791.0922739826455654
 20
167.0834543961047984
 30
0.0
 40
8.8611224684551502
 50
26.8836783594918494
 51
27.9292027155923108
  0
ARC
  5
30CDD
  8
0
 10
6799.2526359343437434
 20
171.2667356051040883
 30
0.0
 40
0.3329509871144797
 50
185.6720427430608993
 51
199.1227715542040073
  0
ARC
  5
30CDE
  8
0
 10
6798.8436871180692833
 20
171.1134517467525029
 30
0.0
 40
0.1042133601217468
 50
2.3803955849761049
 51
25.102461605495261
  0
ARC
  5
30CDF
  8
0
 10
6806.7425903811072203
 20
174.5229492147165899
 30
0.0
 40
8.4759770574754008
 50
206.1480686179488941
 51
207.2899612718568108
  0
ARC
  5
30CE0
  8
0
 10
6798.7753166879583659
 20
170.3106290903477031
 30
0.0
 40
0.6052780105981305
 50
31.2267014673909706
 51
39.886905797295988
  0
ARC
  5
30CE1
  8
0
 10
6799.1717490319451827
 20
170.5509696336297054
 30
0.0
 40
0.1416810087710198
 50
5.8986222381392119
 51
31.2267014673916599
  0
ARC
  5
30CE2
  8
0
 10
6799.2725951625234302
 20
170.5613886165726001
 30
0.0
 40
0.0402980848727802
 50
324.4506565841357997
 51
5.898622238140832
  0
ARC
  5
30CE3
  8
0
 10
6799.2624747774279967
 20
170.4554872366286986
 30
0.0
 40
0.2396802622549737
 50
311.6796851869423222
 51
325.9688711572238731
  0
ARC
  5
30CE4
  8
0
 10
6799.4064240525285641
 20
170.3582783935623866
 30
0.0
 40
0.0659823838227609
 50
325.9688711572231909
 51
2.3667412502079088
  0
ARC
  5
30CE5
  8
0
 10
6798.482825642185162
 20
169.9616274436615129
 30
0.0
 40
1.0670800035074539
 50
21.9791844584574498
 51
29.9237694669109011
  0
ARC
  5
30CE6
  8
0
 10
6797.9305847106152214
 20
169.5615525823490088
 30
0.0
 40
1.7467319521608959
 50
32.2617662767074975
 51
40.148192504792533
  0
ARC
  5
30CE7
  8
0
 10
6799.2701237706996835
 20
170.6767675873813914
 30
0.0
 40
0.0118558026033207
 50
111.6458509707046005
 51
186.7402330310756042
  0
ARC
  5
30CE8
  8
0
 10
6799.3938231201072995
 20
170.3378863900850035
 30
0.0
 40
0.0235719657537081
 50
25.3052875430455195
 51
90.4811327623241937
  0
ARC
  5
30CE9
  8
0
 10
6799.1165554956587584
 20
170.2067912780399013
 30
0.0
 40
0.3302693148924229
 50
17.0846179703437002
 51
25.3052875430455195
  0
ARC
  5
30CEA
  8
0
 10
6799.2639792672252952
 20
170.1410000483475073
 30
0.0
 40
0.2341479887303183
 50
41.6774629392010212
 51
44.0565348645671335
  0
ARC
  5
30CEB
  8
0
 10
6799.6392485987198597
 20
170.3556846015640076
 30
0.0
 40
0.2309712854758204
 50
199.9852235541054029
 51
216.2378869503835972
  0
ARC
  5
30CEC
  8
0
 10
6799.5164592581695615
 20
170.092894592415405
 30
0.0
 40
0.1413246463135702
 50
99.7480291606461833
 51
116.4622572682901023
  0
ARC
  5
30CED
  8
0
 10
6799.4974148310093369
 20
170.2037494763075074
 30
0.0
 40
0.0288457794602961
 50
17.7249279039691885
 51
99.7480291606460412
  0
ARC
  5
30CEE
  8
0
 10
6799.5600854361500751
 20
169.7539880743561866
 30
0.0
 40
0.1469009604052087
 50
103.7647645975685009
 51
119.3953909158887967
  0
ARC
  5
30CEF
  8
0
 10
6799.5308213404905473
 20
169.8734472194637135
 30
0.0
 40
0.0239096003650623
 50
43.481853496835619
 51
103.764764597568103
  0
ARC
  5
30CF0
  8
0
 10
6799.5133025803761484
 20
169.8568330787589105
 30
0.0
 40
0.0480536809507856
 50
25.5412866762935202
 51
43.4818534968344323
  0
ARC
  5
30CF1
  8
0
 10
6801.3024827387052937
 20
170.7118113593278963
 30
0.0
 40
1.9349121531477951
 50
205.5412866762935096
 51
209.4010137379156902
  0
ARC
  5
30CF2
  8
0
 10
6811.8914592587725565
 20
176.4006269993363105
 30
0.0
 40
14.0081539128842696
 50
207.7239286404424092
 51
208.9915141236949978
  0
ARC
  5
30CF3
  8
0
 10
6803.4499552968918579
 20
171.7230592000306899
 30
0.0
 40
4.35731821562233
 50
208.9915141236949978
 51
214.1374266064906919
  0
ARC
  5
30CF4
  8
0
 10
6804.2654197059337093
 20
172.2759473087153026
 30
0.0
 40
5.3425427905991247
 50
214.1374266064906919
 51
217.9494443781701989
  0
ARC
  5
30CF5
  8
0
 10
6795.1680012666802213
 20
165.1356264437849006
 30
0.0
 40
6.2224177526794424
 50
35.52744696966041
 51
38.2802327399557711
  0
ARC
  5
30CF6
  8
0
 10
6803.3741156308387872
 20
171.2356452972437921
 30
0.0
 40
4.0012634061873849
 50
218.3466998244819024
 51
222.5717017851787034
  0
ARC
  5
30CF7
  8
0
 10
6800.4067775800622258
 20
168.5097416458328894
 30
0.0
 40
0.0280846582479714
 50
319.2193069355868147
 51
42.5717017851798971
  0
ARC
  5
30CF8
  8
0
 10
6799.6069522222569503
 20
169.1996621847800952
 30
0.0
 40
1.0843568547234519
 50
317.124416701812379
 51
319.2193069355868147
  0
ARC
  5
30CF9
  8
0
 10
6799.5265514294160312
 20
170.226139434180709
 30
0.0
 40
0.013708826610489
 50
263.0443469652947215
 51
12.8116677168848607
  0
ARC
  5
30CFA
  8
0
 10
6799.3059085215381856
 20
170.175963342237992
 30
0.0
 40
0.2399850582382427
 50
12.8116677168840702
 51
36.6481620930018295
  0
ARC
  5
30CFB
  8
0
 10
6799.7141881976676814
 20
170.4797114061067873
 30
0.0
 40
0.2688913317086206
 50
205.4737334312970916
 51
216.6481620930019005
  0
ARC
  5
30CFC
  8
0
 10
6827.4518936019394459
 20
183.261077989148788
 30
0.0
 40
30.8235613442259613
 50
205.0452275186565032
 51
205.4020933255405055
  0
ARC
  5
30CFD
  8
0
 10
6799.5826593414485615
 20
170.026544808182706
 30
0.0
 40
0.0284578244463346
 50
315.3057532406743917
 51
25.4020933255456605
  0
ARC
  5
30CFE
  8
0
 10
6799.3826329733474267
 20
170.1458311938592942
 30
0.0
 40
0.2606102018878242
 50
313.1030659497458828
 51
327.6886163422194045
  0
ARC
  5
30CFF
  8
0
 10
6799.7209550011057217
 20
170.015828769179592
 30
0.0
 40
0.1712052074428059
 50
200.6138232592537065
 51
219.5827876487971082
  0
ARC
  5
30D00
  8
0
 10
6799.6546510019934431
 20
169.7836915054002134
 30
0.0
 40
0.139462126997427
 50
101.693689305181806
 51
118.0796680004019947
  0
ARC
  5
30D01
  8
0
 10
6799.6356272449165772
 20
169.8754827756498003
 30
0.0
 40
0.0457202539441782
 50
80.1015067469169679
 51
101.6627126647720019
  0
ARC
  5
30D02
  8
0
 10
6799.6253026622707694
 20
169.8944661081004881
 30
0.0
 40
0.0317740661710607
 50
18.6174984487895792
 51
55.0897987577687189
  0
ARC
  5
30D03
  8
0
 10
6799.0025843770554275
 20
169.5523076105903044
 30
0.0
 40
0.7769167522312327
 50
30.4535448473046699
 51
38.764589264827201
  0
ARC
  5
30D04
  8
0
 10
6799.6480303921116501
 20
169.9317998007718131
 30
0.0
 40
0.0281745530991896
 50
285.1927613048115973
 51
30.4535448473088799
  0
ARC
  5
30D05
  8
0
 10
6920.38837848987896
 20
226.8413010668901109
 30
0.0
 40
133.4849616055423098
 50
205.2481790283547127
 51
205.3121053972398897
  0
ARC
  5
30D06
  8
0
 10
6799.5461041713579107
 20
169.823278937077788
 30
0.0
 40
0.1809404295042328
 50
312.387719278943905
 51
342.8608176757505817
  0
ARC
  5
30D07
  8
0
 10
6799.7485587834171383
 20
169.5577763116189942
 30
0.0
 40
0.1075186284457377
 50
91.3571049216538
 51
120.8451195999024037
  0
ARC
  5
30D08
  8
0
 10
6799.7421430532522209
 20
169.6508191745481895
 30
0.0
 40
0.014954829901401
 50
11.5847113549927396
 51
75.0051851448595954
  0
ARC
  5
30D09
  8
0
 10
6798.3252219194655481
 20
168.9610228005882107
 30
0.0
 40
1.5903985831197209
 50
20.322121274819601
 51
25.82435658165981
  0
ARC
  5
30D0A
  8
0
 10
6799.1122132678601702
 20
169.360174612783311
 30
0.0
 40
0.657161538957907
 50
16.1709780309733091
 51
26.5275338020106588
  0
ARC
  5
30D0B
  8
0
 10
6800.477322368788009
 20
169.7560257481231929
 30
0.0
 40
0.7641832393381709
 50
196.170978030974112
 51
208.8021078893681874
  0
ARC
  5
30D0C
  8
0
 10
6800.3419318693822788
 20
169.6917193675161002
 30
0.0
 40
0.5349642860077882
 50
202.5004649770638991
 51
225.2891735092453018
  0
ARC
  5
30D0D
  8
0
 10
6798.9049646507719444
 20
168.407957039563513
 30
0.0
 40
1.4328476418774581
 50
44.5620902038607412
 51
50.4866191582942818
  0
ARC
  5
30D0E
  8
0
 10
6799.3873647966283897
 20
169.1446747553426917
 30
0.0
 40
0.601800189136497
 50
11.4426116792881807
 51
26.5173898300308508
  0
ARC
  5
30D0F
  8
0
 10
6800.6109306922971882
 20
170.073554259160602
 30
0.0
 40
1.028049164830519
 50
223.4933368565010028
 51
231.943618509670614
  0
ARC
  5
30D10
  8
0
 10
6800.6239273336595943
 20
169.4636212161776996
 30
0.0
 40
0.765056035423881
 50
187.3325416041712117
 51
193.8612809812869102
  0
ARC
  5
30D11
  8
0
 10
6798.7458936236880618
 20
168.6264594143769955
 30
0.0
 40
1.306561996311103
 50
25.8416494303768403
 51
40.6345733883688922
  0
ARC
  5
30D12
  8
0
 10
6800.7351975535966631
 20
169.9301229497878012
 30
0.0
 40
1.0957150016154531
 50
204.3858734302721132
 51
222.0686939772706125
  0
ARC
  5
30D13
  8
0
 10
6800.5183420690509593
 20
169.8601380725656895
 30
0.0
 40
0.8615010571563004
 50
222.3001682251245938
 51
232.2932594016679957
  0
ARC
  5
30D14
  8
0
 10
6801.0969630493827935
 20
169.4064477870066128
 30
0.0
 40
1.1287756979196839
 50
187.2466112886411906
 51
191.6474570127913921
  0
ARC
  5
30D15
  8
0
 10
6799.2612213146703652
 20
168.4207164331176045
 30
0.0
 40
1.1062843862410201
 50
41.4633707449599029
 51
49.6695162099771821
  0
ARC
  5
30D16
  8
0
 10
6800.0647703483336954
 20
169.1305123930899015
 30
0.0
 40
0.0341367470317999
 50
15.2823426372451792
 51
41.7260934788178233
  0
ARC
  5
30D17
  8
0
 10
6804.8225018656175962
 20
172.6707216873656137
 30
0.0
 40
5.9531607248010268
 50
216.9285741122926083
 51
217.3784776907772027
  0
ARC
  5
30D18
  8
0
 10
6800.1627723419269387
 20
168.9281386255134123
 30
0.0
 40
0.1468120641274769
 50
101.6721439535739933
 51
118.8797636647116036
  0
ARC
  5
30D19
  8
0
 10
6800.777268407390693
 20
166.9009212080991915
 30
0.0
 40
2.2645538168332289
 50
105.9172363453996013
 51
106.5271749066850049
  0
ARC
  5
30D1A
  8
0
 10
6800.1671166533405994
 20
169.0506533698118119
 30
0.0
 40
0.0300426876447904
 50
56.3670339001257403
 51
111.2708401913811969
  0
ARC
  5
30D1B
  8
0
 10
6801.0850269371412651
 20
169.8143936864335046
 30
0.0
 40
1.1653350065812449
 50
219.3397715830033974
 51
226.6514372026632032
  0
ARC
  5
30D1C
  8
0
 10
6800.2669741295649146
 20
168.9477699683284015
 30
0.0
 40
0.0264061837643692
 50
334.9335559598441137
 51
46.6514372026642974
  0
ARC
  5
30D1D
  8
0
 10
6800.2092026828113376
 20
168.9755725564531872
 30
0.0
 40
0.0905184111316039
 50
306.8206465514278989
 51
334.4853499034501283
  0
ARC
  5
30D1E
  8
0
 10
6800.4858632970754115
 20
169.0488322617015911
 30
0.0
 40
0.265897839788312
 50
213.2322507298466974
 51
225.2475770603732883
  0
ARC
  5
30D1F
  8
0
 10
6800.1155844308868836
 20
168.746409859074106
 30
0.0
 40
0.2154528052523288
 50
31.8186061230150017
 51
46.6614517637112129
  0
ARC
  5
30D20
  8
0
 10
6800.3874281777680153
 20
168.6886740419384978
 30
0.0
 40
0.1929602722639369
 50
102.5062375768946055
 51
117.3894936487008067
  0
ARC
  5
30D21
  8
0
 10
6800.3671013405182748
 20
168.7803152649759113
 30
0.0
 40
0.0990917787613453
 50
74.2696805552833439
 51
102.5062375768946055
  0
ARC
  5
30D22
  8
0
 10
7259.4358776385934107
 20
602.5912174081540797
 30
0.0
 40
631.5288038951831595
 50
223.3750276162722912
 51
223.3940462925031056
  0
ARC
  5
30D23
  8
0
 10
6799.1784920278969366
 20
169.7708518538076987
 30
0.0
 40
0.5894855458513235
 50
17.6840355211832687
 51
52.2603116999187165
  0
ARC
  5
30D24
  8
0
 10
6799.5163833069736938
 20
170.0665338180926938
 30
0.0
 40
0.2542677810368628
 50
312.1026379254980725
 51
327.472419576962011
  0
ARC
  5
30D25
  8
0
 10
6799.6597997370736266
 20
169.9750703905826015
 30
0.0
 40
0.0841683072139281
 50
327.4724195769625794
 51
342.6127217031389023
  0
ARC
  5
30D26
  8
0
 10
6799.7750178529977347
 20
169.8957965930198952
 30
0.0
 40
0.089978438949321
 50
191.4955469435493001
 51
221.98840519743041
  0
ARC
  5
30D27
  8
0
 10
6799.6318121915892334
 20
169.82364014591829
 30
0.0
 40
0.0772582338212464
 50
8.9075076690729702
 51
44.5764444719329518
  0
ARC
  5
30D28
  8
0
 10
6799.7711254017576721
 20
169.7190758410557123
 30
0.0
 40
0.1324607926104622
 50
100.7503489798973959
 51
118.3927142910941939
  0
ARC
  5
30D29
  8
0
 10
6799.7529411207851808
 20
169.8271067921006079
 30
0.0
 40
0.0230475883760702
 50
16.4819829083292895
 51
106.4423577070787985
  0
ARC
  5
30D2A
  8
0
 10
6797.831344838629775
 20
168.8986272843625045
 30
0.0
 40
2.1568998110904909
 50
20.9811841420874288
 51
25.6899544342425514
  0
ARC
  5
30D2B
  8
0
 10
6799.7762475339677621
 20
169.6863832791686093
 30
0.0
 40
0.070700062307125
 50
317.2568360334674935
 51
347.3744143027237783
  0
ARC
  5
30D2C
  8
0
 10
6799.6840406635983527
 20
169.7239449206562938
 30
0.0
 40
0.1676051219821572
 50
310.6622740793197863
 51
329.3091063149872184
  0
ARC
  5
30D2D
  8
0
 10
6796.0036720212128785
 20
167.033200196653695
 30
0.0
 40
4.5752584713060367
 50
33.6101634856402214
 51
34.0778818162168307
  0
ARC
  5
30D2E
  8
0
 10
6799.8796274551514216
 20
169.4499711590250968
 30
0.0
 40
0.133090201622271
 50
101.7518441443538961
 51
119.5187514035413017
  0
ARC
  5
30D2F
  8
0
 10
6799.8669897840436533
 20
169.5107192987688904
 30
0.0
 40
0.0710414529373091
 50
87.6341742506386083
 51
101.7518441443536972
  0
ARC
  5
30D30
  8
0
 10
6792.0533215970126548
 20
166.0741234052092068
 30
0.0
 40
8.5675167057496129
 50
23.1121452034695807
 51
24.1674091842596397
  0
ARC
  5
30D31
  8
0
 10
6799.8845104066640488
 20
169.4163706941214116
 30
0.0
 40
0.0529330334448237
 50
355.3821839263462152
 51
23.1121452034688311
  0
ARC
  5
30D32
  8
0
 10
6799.9325731303879365
 20
169.421950382558208
 30
0.0
 40
0.0109053407427142
 50
231.9720496870932891
 51
295.5210298422007895
  0
ARC
  5
30D33
  8
0
 10
6806.0423209630062047
 20
175.040500202988909
 30
0.0
 40
8.2953695798983347
 50
222.6064482414024042
 51
223.8912306626178008
  0
ARC
  5
30D34
  8
0
 10
6799.9920514036666646
 20
169.2986843261718946
 30
0.0
 40
0.0727475709123963
 50
303.6375413692293819
 51
352.6602901422708101
  0
ARC
  5
30D35
  8
0
 10
6800.0942165262113122
 20
169.2671298211811859
 30
0.0
 40
0.068332234934695
 50
205.1237120929843059
 51
237.0845494421903084
  0
ARC
  5
30D36
  8
0
 10
6799.9670161839858338
 20
169.1561497397910898
 30
0.0
 40
0.1048194877925398
 50
30.7649551071059513
 51
51.4433064280595431
  0
ARC
  5
30D37
  8
0
 10
6800.1607806414567676
 20
168.9912470931394921
 30
0.0
 40
0.2418753262952998
 50
101.7271565418286059
 51
115.3861246642628942
  0
ARC
  5
30D38
  8
0
 10
6800.1254150609429416
 20
169.1622718713971949
 30
0.0
 40
0.0672324483794617
 50
63.0969266567636495
 51
101.8410493004862047
  0
ARC
  5
30D39
  8
0
 10
6808.3016668120189934
 20
177.0523700042579094
 30
0.0
 40
11.2989236030547495
 50
223.8679719744291958
 51
224.6967467044304101
  0
ARC
  5
30D3A
  8
0
 10
6800.2580149982686635
 20
169.0863205521052919
 30
0.0
 40
0.0223532274792326
 50
3.1961924468491052
 51
57.7390975818652308
  0
ARC
  5
30D3B
  8
0
 10
6800.1618840181608903
 20
169.1397756321474048
 30
0.0
 40
0.1294450652748925
 50
311.3356145164572126
 51
336.2136293047033178
  0
ARC
  5
30D3C
  8
0
 10
6800.3464095925146466
 20
168.8972594964085943
 30
0.0
 40
0.1293327716240266
 50
104.4049768369897038
 51
121.0141354047272984
  0
ARC
  5
30D3D
  8
0
 10
6800.2092114109527756
 20
168.9742677504220865
 30
0.0
 40
0.0782525632470305
 50
25.6189302211929792
 51
60.8077760887171408
  0
ARC
  5
30D3E
  8
0
 10
6800.3183053448337887
 20
169.0767616296566018
 30
0.0
 40
0.0787332443105975
 50
205.729822315234486
 51
240.6968839946945877
  0
ARC
  5
30D3F
  8
0
 10
6800.3487028056306372
 20
168.9190484874523861
 30
0.0
 40
0.1090673147507743
 50
72.8145523322146744
 51
108.4226192647853964
  0
ARC
  5
30D40
  8
0
 10
6795.9082590267871637
 20
165.818349592429513
 30
0.0
 40
5.5023753587043212
 50
35.6235370978792218
 51
36.8699928056241433
  0
ARC
  5
30D41
  8
0
 10
6800.2920394099219266
 20
169.0946584393354044
 30
0.0
 40
0.0309730768981149
 50
54.2080242988017034
 51
150.5653058649581055
  0
ARC
  5
30D42
  8
0
 10
6799.9777815821889817
 20
168.4566740072525022
 30
0.0
 40
0.6953643390150083
 50
15.5708625921705401
 51
54.5660918454783612
  0
ARC
  5
30D43
  8
0
 10
6800.4575086482782353
 20
168.5198799912342054
 30
0.0
 40
0.2266814449047099
 50
30.0678326315972093
 51
72.4033020906850595
  0
ARC
  5
30D44
  8
0
 10
6800.6211208121749223
 20
168.5560908953187038
 30
0.0
 40
0.0839369302079986
 50
67.1714631289891742
 51
116.6075360107206933
  0
ARC
  5
30D45
  8
0
 10
6800.3670396635998259
 20
169.0633125810784918
 30
0.0
 40
0.4833646373621724
 50
292.6221824785583863
 51
296.6075360107207075
  0
ARC
  5
30D46
  8
0
 10
6800.7369507362036529
 20
168.8224598896742066
 30
0.0
 40
0.2756941929815948
 50
214.5518391215433098
 51
228.1374062256504089
  0
ARC
  5
30D47
  8
0
 10
6800.3257577082986245
 20
168.4606501940666874
 30
0.0
 40
0.2758847221514797
 50
34.5565523764942384
 51
48.1326929706804165
  0
ARC
  5
30D48
  8
0
 10
6800.4094520772532633
 20
168.7722299313082885
 30
0.0
 40
0.1461181289775354
 50
313.4201276475412783
 51
330.5738988884280047
  0
ARC
  5
30D49
  8
0
 10
6800.5142016003192111
 20
168.7131454212268977
 30
0.0
 40
0.0258540782312968
 50
330.5706208378110205
 51
23.2378062439598985
  0
ARC
  5
30D4A
  8
0
 10
6800.2243360923221189
 20
168.7943458385138058
 30
0.0
 40
0.188128102921898
 50
25.6211739583050218
 51
73.8661674313240155
  0
ARC
  5
30D4B
  8
0
 10
6800.1572190901679278
 20
168.927489725664401
 30
0.0
 40
0.1336663329617994
 50
310.7951700134360067
 51
329.8926880112861113
  0
ARC
  5
30D4C
  8
0
 10
6800.2417010938916064
 20
168.8716941672711869
 30
0.0
 40
0.0331217104804693
 50
340.1361510937381922
 51
41.8635270382254774
  0
ARC
  5
30D4D
  8
0
 10
6802.1762740205467708
 20
170.7443478439041087
 30
0.0
 40
2.6593748772997841
 50
221.443148263308899
 51
224.0956982447779069
  0
ARC
  5
30D4E
  8
0
 10
6800.1601495914210318
 20
168.9041903678514132
 30
0.0
 40
0.0831175285072269
 50
74.2060017444077715
 51
105.9781649010043054
  0
ARC
  5
30D4F
  8
0
 10
6800.1639382193234269
 20
168.831027686295414
 30
0.0
 40
0.1553748944224178
 50
99.8831583407770864
 51
118.5043251339652954
  0
ARC
  5
30D50
  8
0
 10
6800.6873159084971121
 20
169.3952575648758057
 30
0.0
 40
0.7348170470683573
 50
211.2159867866108129
 51
215.5938128068059996
  0
ARC
  5
30D51
  8
0
 10
6799.9918706336356991
 20
169.1007200603808087
 30
0.0
 40
0.109258944138086
 50
307.8329872985585212
 51
336.2362771588447004
  0
ARC
  5
30D52
  8
0
 10
6799.9011561863326278
 20
168.963287690118193
 30
0.0
 40
0.2556413294279721
 50
17.7957161305290015
 51
25.1171590846014894
  0
ARC
  5
30D53
  8
0
 10
6800.1288834405213493
 20
168.9895782268841913
 30
0.0
 40
0.0541597434536323
 50
354.2689812825669264
 51
73.1686976015324717
  0
ARC
  5
30D54
  8
0
 10
6800.0085374983564179
 20
169.1706624359632087
 30
0.0
 40
0.0944479791867208
 50
305.6865297206225023
 51
340.7411272799654967
  0
ARC
  5
30D55
  8
0
 10
6800.0477284831713405
 20
169.0286853148112129
 30
0.0
 40
0.1439127408817783
 50
19.0540203086675888
 51
79.0599576339893417
  0
ARC
  5
30D56
  8
0
 10
6800.3654334676930375
 20
169.2820225025735112
 30
0.0
 40
0.2644879613948925
 50
192.0426643219020946
 51
214.3316741134213999
  0
ARC
  5
30D57
  8
0
 10
6800.0518805537240041
 20
169.2057447107357007
 30
0.0
 40
0.1052546970256316
 50
9.0098093569382556
 51
94.2647771579620155
  0
ARC
  5
30D58
  8
0
 10
6831.6959296147288114
 20
182.8156994222790104
 30
0.0
 40
34.3660947282006219
 50
202.9002636576825012
 51
203.159640306853305
  0
ARC
  5
30D59
  8
0
 10
6799.8474919599320856
 20
169.5783950345405913
 30
0.0
 40
0.1767607495212421
 50
312.4477827064869189
 51
346.9436965352721245
  0
ARC
  5
30D5A
  8
0
 10
6799.5576460969596155
 20
169.1491241614702119
 30
0.0
 40
0.6042046242741798
 50
28.8468101430706803
 51
40.119423167531842
  0
ARC
  5
30D5B
  8
0
 10
6800.055530625359097
 20
169.2881871237680969
 30
0.0
 40
0.1556366153329071
 50
78.3808522741163358
 51
104.0556515484996964
  0
ARC
  5
30D5C
  8
0
 10
6800.060222274240914
 20
169.2742265148447984
 30
0.0
 40
0.1703226359884133
 50
104.4460919840169026
 51
117.2701654096518951
  0
ARC
  5
30D5D
  8
0
 10
6800.0535261915274532
 20
169.4912338619562036
 30
0.0
 40
0.0969289989003672
 50
206.5130746162894866
 51
222.604939563828907
  0
ARC
  5
30D5E
  8
0
 10
6799.8681555505272627
 20
169.3655271116923871
 30
0.0
 40
0.1354624937880048
 50
27.7101801225444611
 51
40.0763498282343704
  0
ARC
  5
30D5F
  8
0
 10
6799.8088644256959014
 20
169.6066184037055962
 30
0.0
 40
0.0817330671262389
 50
327.978609099600078
 51
66.8039196479020063
  0
ARC
  5
30D60
  8
0
 10
6803.6385876265221668
 20
173.2416082438546994
 30
0.0
 40
5.2204352580959261
 50
224.1147418950488941
 51
225.864569892439107
  0
ARC
  5
30D61
  8
0
 10
6799.299416685596043
 20
169.3156722023520899
 30
0.0
 40
0.7488157298190581
 50
16.5509375415044708
 51
48.3577060313040121
  0
ARC
  5
30D62
  8
0
 10
6799.6794460473056461
 20
169.861999657158492
 30
0.0
 40
0.118288750223607
 50
334.231593370908513
 51
62.2665314438927027
  0
ARC
  5
30D63
  8
0
 10
6799.3042335144682511
 20
169.9652191683316005
 30
0.0
 40
0.3728428709625815
 50
319.5396626908013218
 51
333.9740321419743054
  0
ARC
  5
30D64
  8
0
 10
6794.2663321517920849
 20
167.2970471273578141
 30
0.0
 40
5.9280137910123214
 50
24.9924256852900015
 51
26.1185726579564808
  0
ARC
  5
30D65
  8
0
 10
6800.2841114186448976
 20
170.2024373799700072
 30
0.0
 40
0.8451569862513075
 50
214.5379949909658137
 51
218.3470339512498128
  0
ARC
  5
30D66
  8
0
 10
6799.6944654374092352
 20
169.5471854833837995
 30
0.0
 40
0.1499659558426612
 50
97.4382922140017911
 51
119.2090571526530027
  0
ARC
  5
30D67
  8
0
 10
6799.4508574565516028
 20
169.52251427296369
 30
0.0
 40
0.2740751801284932
 50
27.740424592440931
 51
37.5726809618785609
  0
ARC
  5
30D68
  8
0
 10
6799.9115131705511885
 20
169.8177569418776045
 30
0.0
 40
0.2750865294532094
 50
207.7585428642310035
 51
217.5545626900762954
  0
ARC
  5
30D69
  8
0
 10
6821.5626003229172056
 20
177.80223744717361
 30
0.0
 40
23.4147445695166283
 50
199.7340675570409871
 51
200.1370572541106867
  0
ARC
  5
30D6A
  8
0
 10
6784.4875409710703025
 20
162.1487533097802896
 30
0.0
 40
16.8938998747153093
 50
26.7068717208931794
 51
27.271286838251811
  0
ARC
  5
30D6B
  8
0
 10
6799.4657105810383655
 20
169.6102459933294995
 30
0.0
 40
0.261412520062892
 50
26.5924774559342794
 51
49.3423921740123888
  0
ARC
  5
30D6C
  8
0
 10
6799.6505453691479488
 20
169.6722135187455933
 30
0.0
 40
0.1193360147697821
 50
13.3818368951957893
 51
54.9908265082660606
  0
ARC
  5
30D6D
  8
0
 10
6800.806685622281293
 20
170.6799431496145871
 30
0.0
 40
1.429093715861611
 50
223.3006535244331872
 51
226.7871427719348958
  0
ARC
  5
30D6E
  8
0
 10
6799.5938279171823524
 20
169.0711470845409963
 30
0.0
 40
0.4951720343340984
 50
63.2601152635643587
 51
72.4217155260466541
  0
ARC
  5
30D6F
  8
0
 10
6801.1141609980613794
 20
169.8586847604445893
 30
0.0
 40
1.342699907072566
 50
194.9030008148282889
 51
201.5277480213794092
  0
ARC
  5
30D70
  8
0
 10
6797.7355081574369251
 20
168.6916413291469894
 30
0.0
 40
2.1505689366603091
 50
21.4286385670086013
 51
27.5849093543959398
  0
ARC
  5
30D71
  8
0
 10
6799.2774152748470442
 20
168.5217649501248047
 30
0.0
 40
1.2142939303271989
 50
24.2610828483703393
 51
49.3686705765024882
  0
ARC
  5
30D72
  8
0
 10
6792.4801793658916722
 20
162.4029836117109937
 30
0.0
 40
10.0790941477011096
 50
41.1040391019239522
 51
42.0574920348999015
  0
ARC
  5
30D73
  8
0
 10
6799.9635738512242824
 20
169.1829227954802093
 30
0.0
 40
0.0281963849458436
 50
270.1241061673488275
 51
351.0992280877729854
  0
ARC
  5
30D74
  8
0
 10
6798.8154989324193593
 20
167.4786146775018096
 30
0.0
 40
1.950358886774898
 50
44.1544144728425465
 51
48.8671373179909665
  0
ARC
  5
30D75
  8
0
 10
6788.2145113931501328
 20
159.2448744827875942
 30
0.0
 40
15.3418077492070495
 50
38.6229907343235226
 51
39.2301341392010485
  0
ARC
  5
30D76
  8
0
 10
6793.9205293432069084
 20
163.4553203409579965
 30
0.0
 40
8.3085580758102502
 50
40.7612903862263281
 51
41.6907258504939122
  0
ARC
  5
30D77
  8
0
 10
6800.1962675764052619
 20
168.8588030335916983
 30
0.0
 40
0.0275064688662929
 50
327.5893603036042236
 51
50.5830461210505575
  0
ARC
  5
30D78
  8
0
 10
6800.1173946766029985
 20
168.9088778455626141
 30
0.0
 40
0.1209324883525483
 50
306.1763051810988259
 51
327.5893603036028026
  0
ARC
  5
30D79
  8
0
 10
6800.3519147651340973
 20
168.4838795084558001
 30
0.0
 40
0.2931783913575273
 50
99.4642564584162159
 51
114.135224932873399
  0
ARC
  5
30D7A
  8
0
 10
6800.3080196608152619
 20
168.7472597713561129
 30
0.0
 40
0.0261653920299195
 50
28.2284013333060315
 51
99.487464380188527
  0
ARC
  5
30D7B
  8
0
 10
6809.3760731019146988
 20
176.6148488645515044
 30
0.0
 40
11.9798329634091605
 50
220.9729815596934941
 51
221.5772484485856921
  0
ARC
  5
30D7C
  8
0
 10
6800.3975066372850051
 20
168.640897177220296
 30
0.0
 40
0.0291845773503754
 50
322.1186845974137896
 51
54.5842477067252219
  0
ARC
  5
30D7D
  8
0
 10
6800.1137160317575763
 20
168.8622635734672883
 30
0.0
 40
0.3891014745715272
 50
316.3767467250966092
 51
322.0501091240686264
  0
ARC
  5
30D7E
  8
0
 10
6798.5193513987796905
 20
167.1538676494758136
 30
0.0
 40
2.364942095095365
 50
35.4972478175331716
 51
37.5080647403233982
  0
ARC
  5
30D7F
  8
0
 10
6800.6235169655119535
 20
168.1476894890924996
 30
0.0
 40
0.4194184039893961
 50
105.9464129944234969
 51
115.2277633859188057
  0
ARC
  5
30D80
  8
0
 10
6800.925150703813415
 20
168.9262316108656137
 30
0.0
 40
0.5608905015884879
 50
215.3550859092036092
 51
222.5656285112139017
  0
ARC
  5
30D81
  8
0
 10
6800.6300687889297478
 20
168.2633914676769109
 30
0.0
 40
0.3070225901116305
 50
97.4789788886628088
 51
112.6057210459203048
  0
ARC
  5
30D82
  8
0
 10
6800.5926582590409453
 20
168.5483605278076027
 30
0.0
 40
0.0196084064352544
 50
27.9579746460546801
 51
97.4789788886629225
  0
ARC
  5
30D83
  8
0
 10
6814.8183282913723815
 20
181.5508731036975973
 30
0.0
 40
19.2536637756194082
 50
222.4424411848015097
 51
223.0323154509603114
  0
ARC
  5
30D84
  8
0
 10
6804.685344180094944
 20
172.5987480170192043
 30
0.0
 40
5.7501653855375867
 50
221.5067985501011947
 51
223.0780578725965029
  0
ARC
  5
30D85
  8
0
 10
6800.3632025075321508
 20
168.7739257038687981
 30
0.0
 40
0.0213313323764156
 50
41.5067985500599335
 51
90.9843140645755142
  0
ARC
  5
30D86
  8
0
 10
6800.3655112595306491
 20
168.6395491503097901
 30
0.0
 40
0.1557277180502189
 50
90.9843140645755142
 51
105.6923330169474013
  0
ARC
  5
30D87
  8
0
 10
6800.3874610308548654
 20
168.5614202206932077
 30
0.0
 40
0.2368814123851935
 50
105.6923330169474013
 51
116.0664546072751051
  0
ARC
  5
30D88
  8
0
 10
6801.0562156400383174
 20
169.3906940291703904
 30
0.0
 40
0.9886065822071778
 50
214.8130743934547979
 51
218.5788913848413131
  0
ARC
  5
30D89
  8
0
 10
6799.6012213722788147
 20
168.3063334065253116
 30
0.0
 40
0.8271853778016485
 50
34.4454603314360028
 51
38.9465207410569221
  0
ARC
  5
30D8A
  8
0
 10
6800.232112463667363
 20
168.8367714376427955
 30
0.0
 40
0.0470223120291748
 50
30.0407814017105714
 51
113.0083365224244005
  0
ARC
  5
30D8B
  8
0
 10
6800.4260589896612146
 20
168.5942139583619905
 30
0.0
 40
0.0714225767064488
 50
27.4110764199991515
 51
99.3793272168838939
  0
ARC
  5
30D8C
  8
0
 10
6800.3767484282097939
 20
168.7016085717619944
 30
0.0
 40
0.1351177190187485
 50
312.7272044006318765
 51
332.015843797978107
  0
ARC
  5
30D8D
  8
0
 10
6800.4655434175056143
 20
168.6466539056251008
 30
0.0
 40
0.0316714252158599
 50
344.532948972649308
 51
51.4383447828671478
  0
ARC
  5
30D8E
  8
0
 10
6800.5028270133643673
 20
168.5365379547318128
 30
0.0
 40
0.1091926213404757
 50
11.0965088820377904
 51
53.1127425313155328
  0
ARC
  5
30D8F
  8
0
 10
6804.0868368288402053
 20
171.845200948049694
 30
0.0
 40
4.7012602247639803
 50
223.0916563587022097
 51
226.0183335229914974
  0
ARC
  5
30D90
  8
0
 10
6800.3922617379648727
 20
168.0172682598357028
 30
0.0
 40
0.618791866059418
 50
37.7953371027343223
 51
45.9950244605528198
  0
ARC
  5
30D91
  8
0
 10
6800.8394413579108004
 20
168.3640780429280142
 30
0.0
 40
0.0528884837191572
 50
302.6534638523298781
 51
37.7953371027343223
  0
ARC
  5
30D92
  8
0
 10
6800.8486327345881364
 20
168.1768331851785092
 30
0.0
 40
0.1210525641992132
 50
76.4878655367914462
 51
124.0126710747224053
  0
ARC
  5
30D93
  8
0
 10
6798.4149511276318663
 20
165.7683327485025018
 30
0.0
 40
3.5274598867165068
 50
40.259267339998658
 51
45.7378027615806673
  0
ARC
  5
30D94
  8
0
 10
6802.7052468314586804
 20
169.9205797060714076
 30
0.0
 40
2.7266538172567061
 50
212.3430034351918891
 51
214.4828923375339116
  0
ARC
  5
30D95
  8
0
 10
6800.5980569215262221
 20
168.0601715961994103
 30
0.0
 40
0.3464038262603712
 50
101.8313903952202963
 51
113.9063945809535028
  0
ARC
  5
30D96
  8
0
 10
6800.5348097208479885
 20
168.3620924358230013
 30
0.0
 40
0.0379295132412495
 50
15.5702155984849906
 51
101.8313903952202963
  0
ARC
  5
30D97
  8
0
 10
6800.4732040728604261
 20
168.3992919825859076
 30
0.0
 40
0.1017943794424346
 50
310.3284425257738235
 51
344.6079276255517811
  0
ARC
  5
30D98
  8
0
 10
6800.1048612041631714
 20
167.9991516330651962
 30
0.0
 40
0.6201089909824226
 50
50.0399084306574977
 51
58.6523737096873674
  0
ARC
  5
30D99
  8
0
 10
6800.3621124717919884
 20
168.3064550766727052
 30
0.0
 40
0.2193428203055995
 50
17.4618526575244708
 51
49.9913758991945585
  0
ARC
  5
30D9A
  8
0
 10
6800.5131983082437728
 20
168.5006256370488131
 30
0.0
 40
0.0462146305201304
 50
40.9180560142791734
 51
91.4198950035786879
  0
ARC
  5
30D9B
  8
0
 10
7005.9030352486670381
 20
345.8097554573712955
 30
0.0
 40
271.2903156897858139
 50
220.803397755771897
 51
220.8367897743387971
  0
ARC
  5
30D9C
  8
0
 10
6800.5964823550839355
 20
168.3990340835545965
 30
0.0
 40
0.0563303004690651
 50
302.4370413441943128
 51
12.5189503150579693
  0
ARC
  5
30D9D
  8
0
 10
6779.4729808697020417
 20
153.1926843839619039
 30
0.0
 40
26.0243950789685705
 50
35.4434069209127998
 51
35.6254828483470334
  0
ARC
  5
30D9E
  8
0
 10
6800.8843645278311669
 20
167.6951934791754013
 30
0.0
 40
0.625183189860457
 50
101.8794040171644042
 51
109.5887472678981993
  0
ARC
  5
30D9F
  8
0
 10
6800.6277017312440876
 20
168.2988934030572921
 30
0.0
 40
0.1247844044677668
 50
25.1121393806968385
 51
83.7080596048180752
  0
ARC
  5
30DA0
  8
0
 10
6800.6344725781063971
 20
168.4358479295192126
 30
0.0
 40
0.1354176808929032
 50
314.2885098066042815
 51
335.2109884592218236
  0
ARC
  5
30DA1
  8
0
 10
6800.7190040288696764
 20
168.3829746296941892
 30
0.0
 40
0.0386064962985823
 50
354.1956413140111977
 51
48.6725589023860579
  0
ARC
  5
30DA2
  8
0
 10
6800.088186003455121
 20
167.7476221729203871
 30
0.0
 40
0.8719548672394765
 50
37.39576877282488
 51
42.6968453521690634
  0
ARC
  5
30DA3
  8
0
 10
6804.8319458226060306
 20
171.7346471244152895
 30
0.0
 40
5.3258737352101759
 50
219.612510147549898
 51
220.480103977457901
  0
ARC
  5
30DA4
  8
0
 10
6800.7220711910922546
 20
168.2533017207306045
 30
0.0
 40
0.1602415636735507
 50
14.9110959352971406
 51
81.9545881093762603
  0
ARC
  5
30DA5
  8
0
 10
6797.0532402793432993
 20
165.704331813165993
 30
0.0
 40
4.3590886695015776
 50
35.5897967536211581
 51
36.9011918541636206
  0
ARC
  5
30DA6
  8
0
 10
6800.6870798621112044
 20
168.0736974570513951
 30
0.0
 40
0.189706539860977
 50
92.3468921518103087
 51
117.9820826863016947
  0
LINE
  5
30DA7
  8
0
 10
6800.5654039463106528
 20
168.2862614026402071
 30
0.0
 11
6800.5589871693209716
 21
168.2800397093942024
 31
0.0
  0
LINE
  5
30DA8
  8
0
 10
6800.5589871693209716
 20
168.2800397093942024
 30
0.0
 11
6800.6194784700683158
 21
168.197461895449095
 31
0.0
  0
LINE
  5
30DA9
  8
0
 10
6800.6194784700683158
 20
168.197461895449095
 30
0.0
 11
6800.6998328420668258
 21
168.222658850249104
 31
0.0
  0
LINE
  5
30DAA
  8
0
 10
6800.6998328420668258
 20
168.222658850249104
 30
0.0
 11
6800.7113015783697847
 21
168.2107782789933879
 31
0.0
  0
ARC
  5
30DAB
  8
0
 10
6800.5671119739363348
 20
168.1320625849766941
 30
0.0
 40
0.1726195789101811
 50
30.6138693929858086
 51
49.4598106646413811
  0
ARC
  5
30DAC
  8
0
 10
6800.0121481082787795
 20
167.7187289492347873
 30
0.0
 40
0.8902939209217189
 50
37.1368062853745116
 51
39.9827306400675013
  0
ARC
  5
30DAD
  8
0
 10
6800.6357689593060059
 20
168.2523269628480023
 30
0.0
 40
0.0862059723726258
 50
313.3207998730812278
 51
2.586607877155243
  0
ARC
  5
30DAE
  8
0
 10
6800.8612240737011234
 20
167.9006374843791889
 30
0.0
 40
0.238936811160421
 50
103.2948201784735005
 51
116.8989250534613973
  0
ARC
  5
30DAF
  8
0
 10
6800.8176388637511991
 20
168.0850903799799028
 30
0.0
 40
0.049404383270491
 50
64.531579593740517
 51
103.2948201784733016
  0
ARC
  5
30DB0
  8
0
 10
6800.6226604995272282
 20
167.9298553013088053
 30
0.0
 40
0.2944278558668694
 50
36.8062400589161527
 51
42.7448633266916929
  0
ARC
  5
30DB1
  8
0
 10
6804.293257825424007
 20
170.8895470264137941
 30
0.0
 40
4.4986378368761848
 50
216.8819065314181103
 51
218.1000537550580134
  0
ARC
  5
30DB2
  8
0
 10
6800.5851212423985999
 20
168.2453925733952929
 30
0.0
 40
0.1675736728851838
 50
314.8954188429477767
 51
325.8962614908094224
  0
ARC
  5
30DB3
  8
0
 10
6781.6006067716680263
 20
153.1947048726192975
 30
0.0
 40
24.246249291082119
 50
37.7734540131676866
 51
38.0134883711824969
  0
ARC
  5
30DB4
  8
0
 10
6800.8521816494348968
 20
167.8984955421578036
 30
0.0
 40
0.1713966242319807
 50
101.910154717028604
 51
120.2698094219369978
  0
ARC
  5
30DB5
  8
0
 10
6800.8240219626695762
 20
168.0320055552795111
 30
0.0
 40
0.0349492293779121
 50
47.6041092089353484
 51
101.9101547099456013
  0
ARC
  5
30DB6
  8
0
 10
6800.6398820549702577
 20
168.0599980397664126
 30
0.0
 40
0.2165696943128064
 50
15.8281928586737894
 51
68.9645600779555537
  0
ARC
  5
30DB7
  8
0
 10
6806.0053367565133158
 20
172.3006927775568045
 30
0.0
 40
6.5884487094747488
 50
217.6055164850893959
 51
218.8097750345114036
  0
ARC
  5
30DB8
  8
0
 10
6800.8103265992085653
 20
168.1497508507268037
 30
0.0
 40
0.0648324982965308
 50
307.0663385815474271
 51
19.5725628128399087
  0
ARC
  5
30DB9
  8
0
 10
6799.6884128270230576
 20
167.058582011465603
 30
0.0
 40
1.558309359238903
 50
38.5072951083418076
 51
41.8381233161245518
  0
ARC
  5
30DBA
  8
0
 10
6801.9920250037803271
 20
169.0034051655657947
 30
0.0
 40
1.4578437592229241
 50
218.3924892858397016
 51
221.9529291386216983
  0
ARC
  5
30DBB
  8
0
 10
6801.0238586230607325
 20
167.8144602929976941
 30
0.0
 40
0.2437340675765702
 50
102.0888122279632029
 51
118.4261604987295016
  0
ARC
  5
30DBC
  8
0
 10
6800.9794593881870242
 20
168.0217617045350949
 30
0.0
 40
0.0317313145690882
 50
42.6777350509778373
 51
102.0888122279633023
  0
ARC
  5
30DBD
  8
0
 10
6800.8135908359727182
 20
167.9808010284411068
 30
0.0
 40
0.1992434768544741
 50
18.2726097526071314
 51
73.1295734748977964
  0
ARC
  5
30DBE
  8
0
 10
6801.0576441497687483
 20
168.1108098558061954
 30
0.0
 40
0.079835365857797
 50
219.9882949895431068
 51
308.0534419163014945
  0
ARC
  5
30DBF
  8
0
 10
6801.6677339012821903
 20
168.599005484552606
 30
0.0
 40
0.944132539594424
 50
216.9408896335816053
 51
222.0816509361164037
  0
ARC
  5
30DC0
  8
0
 10
6800.5913344073360349
 20
167.5999168870060032
 30
0.0
 40
0.5247250984413069
 50
44.2794614965801685
 51
60.7674913211221721
  0
ARC
  5
30DC1
  8
0
 10
6800.7590091558167842
 20
169.0742945757340863
 30
0.0
 40
0.5703379343086304
 50
212.5276320690462057
 51
233.1150352791619866
  0
ARC
  5
30DC2
  8
0
 10
6795.915118184984749
 20
164.9716022395595019
 30
0.0
 40
5.7584015468402168
 50
38.1298641234865912
 51
41.1337912717073735
  0
ARC
  5
30DC3
  8
0
 10
6800.7749676589555747
 20
170.679541372280795
 30
0.0
 40
1.4712988572167409
 50
200.3112465907719866
 51
208.2243302180445141
  0
ARC
  5
30DC4
  8
0
 10
6799.1748169407310343
 20
170.4775272745866914
 30
0.0
 40
0.1197448539633928
 50
347.4665937476987096
 51
42.6312707665604833
  0
ARC
  5
30DC5
  8
0
 10
6799.7631294346583672
 20
169.6745387232934945
 30
0.0
 40
0.0216636900604398
 50
252.9935053687009088
 51
21.4385477915014917
  0
ARC
  5
30DC6
  8
0
 10
6799.373514636332402
 20
169.8913045201161083
 30
0.0
 40
0.2304330934231031
 50
23.1869007730498495
 51
48.2190572267411426
  0
ARC
  5
30DC7
  8
0
 10
6800.5401155139043112
 20
168.2829040442370001
 30
0.0
 40
0.1133462406371517
 50
38.2715323652883299
 51
78.2022979718335591
  0
ARC
  5
30DC8
  8
0
 10
6798.7431996118311872
 20
166.7110898837115087
 30
0.0
 40
2.5108951180015411
 50
43.0015686448752916
 51
46.6450122130042715
  0
ARC
  5
30DC9
  8
0
 10
6800.6653327437079497
 20
168.5036064146358115
 30
0.0
 40
0.1173573984609109
 50
223.001568644874709
 51
263.2437521724511953
  0
ARC
  5
30DCA
  8
0
 10
6791.2851618778286138
 20
164.585450706846899
 30
0.0
 40
9.8093954118194553
 50
32.9628810906572269
 51
33.3424442337222615
  0
ARC
  5
30DCB
  8
0
 10
6799.2900036375258424
 20
169.7600785695410082
 30
0.0
 40
0.3331963563435507
 50
25.8597876202280688
 51
35.824237851586787
  0
ARC
  5
30DCC
  8
0
 10
6799.5577430258781533
 20
169.8061539279902945
 30
0.0
 40
0.1491400246816572
 50
15.2055620214245302
 51
24.5939582277968007
  0
ARC
  5
30DCD
  8
0
 10
6799.8372718459322641
 20
169.9073406246137949
 30
0.0
 40
0.1491400153291179
 50
195.2055617263895897
 51
204.5939585228263979
  0
ARC
  5
30DCE
  8
0
 10
6800.0701324023511916
 20
169.2551863927724867
 30
0.0
 40
0.040884291902761
 50
220.5306051325694909
 51
240.9524394208345086
  0
ARC
  5
30DCF
  8
0
 10
6800.0161866781700155
 20
169.1891800598706084
 30
0.0
 40
0.0455895944545645
 50
41.594058057237028
 51
59.8889864962151677
  0
ARC
  5
30DD0
  8
0
 10
6800.1861466142654535
 20
168.9332434433196966
 30
0.0
 40
0.1209828482496914
 50
44.1584723809720074
 51
55.7386385061960965
  0
ARC
  5
30DD1
  8
0
 10
6800.3409887081197667
 20
169.1174409355664068
 30
0.0
 40
0.1208862534436794
 50
224.1538299510943943
 51
235.7432809361077943
  0
LINE
  5
30DD2
  8
0
 10
6804.3328228904665593
 20
144.8917067461491115
 30
0.0
 11
6804.3552452858657489
 21
144.8994260455490917
 31
0.0
  0
LINE
  5
30DD3
  8
0
 10
6804.3552452858657489
 20
144.8994260455490917
 30
0.0
 11
6804.369014764167332
 21
144.8525430647491135
 31
0.0
  0
LINE
  5
30DD4
  8
0
 10
6804.369014764167332
 20
144.8525430647491135
 30
0.0
 11
6804.3603618470660876
 21
144.7979407845490982
 31
0.0
  0
LINE
  5
30DD5
  8
0
 10
6804.3603618470660876
 20
144.7979407845490982
 30
0.0
 11
6804.3376328806452875
 21
144.7912653128834961
 31
0.0
  0
LINE
  5
30DD6
  8
0
 10
6804.3376328806452875
 20
144.7912653128834961
 30
0.0
 11
6804.3241699733671339
 21
144.8371044659490963
 31
0.0
  0
LINE
  5
30DD7
  8
0
 10
6804.3241699733671339
 20
144.8371044659490963
 30
0.0
 11
6804.3328228904665593
 21
144.8917067461491115
 31
0.0
  0
LINE
  5
30DD8
  8
0
 10
6804.3266165546674529
 20
144.8525430647491135
 30
0.0
 11
6804.369014764167332
 21
144.8525430647491135
 31
0.0
  0
LINE
  5
30DD9
  8
0
 10
6804.3603618470660876
 20
144.7979407845490982
 30
0.0
 11
6804.3356723022670849
 21
144.7979407845490982
 31
0.0
  0
ARC
  5
30DDA
  8
0
 10
6804.4285930755913796
 20
144.8696661866731006
 30
0.0
 40
0.1164857988539484
 50
151.0082655227988937
 51
181.5769525643152065
  0
ARC
  5
30DDB
  8
0
 10
6804.5626032274876707
 20
144.8563501008447076
 30
0.0
 40
0.250655824092843
 50
177.6882909913404944
 51
190.740495269745395
  0
ARC
  5
30DDC
  8
0
 10
6804.3801034769530816
 20
144.8172996353760027
 30
0.0
 40
0.0642236019057077
 50
186.8518336967771916
 51
215.2291680408135903
  0
ARC
  5
30DDD
  8
0
 10
6804.367656503730359
 20
144.7997250656794108
 30
0.0
 40
0.0445007784924233
 50
205.9496501185385
 51
227.4056237892515071
  0
ARC
  5
30DDE
  8
0
 10
6804.3465173997055899
 20
144.7769442257236108
 30
0.0
 40
0.0134240999148487
 50
228.0188806961321006
 51
300.4197504664214193
  0
ARC
  5
30DDF
  8
0
 10
6804.3278511342759884
 20
144.7996673190338015
 30
0.0
 40
0.0427178696968806
 50
306.5897218223843197
 51
336.5308287095472224
  0
ARC
  5
30DE0
  8
0
 10
6804.2528768826969099
 20
144.8379414798652078
 30
0.0
 40
0.1268413908254203
 50
334.1591161227598263
 51
1.106122460003742
  0
ARC
  5
30DE1
  8
0
 10
6804.2167653166707169
 20
144.8463712892524882
 30
0.0
 40
0.1630390707617354
 50
357.89758357259268
 51
28.2968225991433009
  0
ARC
  5
30DE2
  8
0
 10
6804.3252777900652291
 20
144.9003486071395059
 30
0.0
 40
0.0420882643225336
 50
33.6299676545136421
 51
59.3469372587655499
  0
ARC
  5
30DE3
  8
0
 10
6804.3420505158201195
 20
144.928649884652998
 30
0.0
 40
0.0091901391758519
 50
59.3469372587684632
 51
124.5543273838261058
  0
ARC
  5
30DE4
  8
0
 10
6804.3592955311323749
 20
144.9035383854057102
 30
0.0
 40
0.0396528635188549
 50
124.4963485965730001
 51
145.2771913542217135
  0
ARC
  5
30DE5
  8
0
 10
6804.3091081229686097
 20
144.7962638633977122
 30
0.0
 40
0.0583682011532828
 50
308.3746362988489977
 51
341.2898006887413089
  0
ARC
  5
30DE6
  8
0
 10
6804.3318412939934205
 20
144.7675556420826979
 30
0.0
 40
0.021749093628679
 50
248.6956487830271101
 51
308.3746362988463829
  0
ARC
  5
30DE7
  8
0
 10
6804.3362786266980038
 20
144.7789342585824102
 30
0.0
 40
0.0339623174034708
 50
214.7497435112560993
 51
248.6956487830761944
  0
ARC
  5
30DE8
  8
0
 10
6804.401981396613337
 20
144.8245134562259011
 30
0.0
 40
0.1139267922169298
 50
188.9130947415312107
 51
214.7497435112560993
  0
ARC
  5
30DE9
  8
0
 10
6804.6295992963941899
 20
144.8602107669451868
 30
0.0
 40
0.3443268926809484
 50
175.3608098910765989
 51
188.9130947415312107
  0
ARC
  5
30DEA
  8
0
 10
6804.3935519353262862
 20
144.8793651963806894
 30
0.0
 40
0.1075036488174223
 50
158.0483158136717066
 51
175.3608098910773947
  0
ARC
  5
30DEB
  8
0
 10
6804.3281329589754023
 20
144.9028633491905111
 30
0.0
 40
0.0381363279893236
 50
111.5769095441175978
 51
154.0476479914929939
  0
ARC
  5
30DEC
  8
0
 10
6804.3285768556843323
 20
144.9097105521335038
 30
0.0
 40
0.0320664070113965
 50
59.9678079904867403
 51
116.8210242965622996
  0
ARC
  5
30DED
  8
0
 10
6804.3463352506250885
 20
144.7883489205364071
 30
0.0
 40
0.0449436113502792
 50
200.975360588715489
 51
251.1863003404291987
  0
ARC
  5
30DEE
  8
0
 10
6804.416792626681854
 20
144.8282334359996071
 30
0.0
 40
0.1255859736782045
 50
189.4639913944587875
 51
206.4677008670713008
  0
ARC
  5
30DEF
  8
0
 10
6804.5299682261611451
 20
144.8557538891465981
 30
0.0
 40
0.241896959394562
 50
182.5737523632527086
 51
191.4864092527323862
  0
ARC
  5
30DF0
  8
0
 10
6804.7710894230622216
 20
144.8665924536774128
 30
0.0
 40
0.4832616338519136
 50
177.4262476367472914
 51
182.5737523632527086
  0
ARC
  5
30DF1
  8
0
 10
6804.3887888837825813
 20
144.8776338916512998
 30
0.0
 40
0.1010374768916438
 50
153.6817919107741091
 51
173.9439458710504027
  0
ARC
  5
30DF2
  8
0
 10
6804.3453750272428806
 20
144.8862026635461859
 30
0.0
 40
0.0594606111618182
 50
112.1251276910912935
 51
142.4641861073239113
  0
ARC
  5
30DF3
  8
0
 10
6804.4149633284869196
 20
144.8681145470623903
 30
0.0
 40
0.1106533843101911
 50
153.5469853007859911
 51
172.2224745396210039
  0
ARC
  5
30DF4
  8
0
 10
6804.6315913157468458
 20
144.8572038255360042
 30
0.0
 40
0.3272886969939875
 50
175.4637669132301028
 51
185.2522310785903983
  0
ARC
  5
30DF5
  8
0
 10
6804.4228417671738498
 20
144.8380142393313008
 30
0.0
 40
0.1176589895380364
 50
185.2522310785911941
 51
205.9938267433996089
  0
ARC
  5
30DF6
  8
0
 10
6804.3763265767593111
 20
144.8153334686959113
 30
0.0
 40
0.0659088175972526
 50
205.9938267433996089
 51
225.5320891712513003
  0
ARC
  5
30DF7
  8
0
 10
6804.3427948218559322
 20
144.781173058350106
 30
0.0
 40
0.0180411644070252
 50
225.5320891712524087
 51
281.9078357400642858
  0
ARC
  5
30DF8
  8
0
 10
6804.3306022704791758
 20
144.9102326813651871
 30
0.0
 40
0.0163633341259253
 50
103.781660474432897
 51
153.9971702957186892
  0
ENDSEC
  0
EOF
