  0
SECTION
  2
HEADER
  9
$ACADVER
  1
AC1009
  9
$INSBASE
 10
7055.9164618008380785
 20
194.1496134582245077
 30
0.0
  9
$EXTMIN
 10
7048.1327051940679667
 20
187.3530014349425983
 30
-0.0015258207003583
  9
$EXTMAX
 10
7070.7892586918596862
 20
194.1671304075019862
 30
0.0000000349246037
  9
$LIMMIN
 10
0.0
 20
0.0
  9
$LIMMAX
 10
11.6929133858000007
 20
8.2677165353999982
  9
$ORTHOMODE
 70
     0
  9
$REGENMODE
 70
     1
  9
$FILLMODE
 70
     1
  9
$QTEXTMODE
 70
     0
  9
$MIRRTEXT
 70
     0
  9
$DRAGMODE
 70
     2
  9
$LTSCALE
 40
0.6431102362
  9
$OSMODE
 70
  4095
  9
$ATTMODE
 70
     1
  9
$TEXTSIZE
 40
0.2
  9
$TRACEWID
 40
0.05
  9
$TEXTSTYLE
  7
STANDARD
  9
$CLAYER
  8
0
  9
$CELTYPE
  6
BYLAYER
  9
$CECOLOR
 62
   256
  9
$DIMSCALE
 40
1.0
  9
$DIMASZ
 40
0.1875
  9
$DIMEXO
 40
0.0625
  9
$DIMDLI
 40
0.4443307087
  9
$DIMRND
 40
0.0
  9
$DIMDLE
 40
0.0
  9
$DIMEXE
 40
0.125
  9
$DIMTP
 40
0.01
  9
$DIMTM
 40
0.01
  9
$DIMTXT
 40
2.0
  9
$DIMCEN
 40
0.1052362205
  9
$DIMTSZ
 40
0.0
  9
$DIMTOL
 70
     1
  9
$DIMLIM
 70
     0
  9
$DIMTIH
 70
     1
  9
$DIMTOH
 70
     1
  9
$DIMSE1
 70
     0
  9
$DIMSE2
 70
     0
  9
$DIMTAD
 70
     0
  9
$DIMZIN
 70
     0
  9
$DIMBLK
  1

  9
$DIMASO
 70
     1
  9
$DIMSHO
 70
     1
  9
$DIMPOST
  1
\X
  9
$DIMAPOST
  1

  9
$DIMALT
 70
     1
  9
$DIMALTD
 70
     2
  9
$DIMALTF
 40
25.3999999999999986
  9
$DIMLFAC
 40
1.0
  9
$DIMTOFL
 70
     0
  9
$DIMTVP
 40
0.0
  9
$DIMTIX
 70
     0
  9
$DIMSOXD
 70
     0
  9
$DIMSAH
 70
     0
  9
$DIMBLK1
  1

  9
$DIMBLK2
  1

  9
$DIMSTYLE
  2
STANDARD
  9
$DIMCLRD
 70
     0
  9
$DIMCLRE
 70
     0
  9
$DIMCLRT
 70
     0
  9
$DIMTFAC
 40
1.0
  9
$DIMGAP
 40
0.09
  9
$LUNITS
 70
     2
  9
$LUPREC
 70
     4
  9
$SKETCHINC
 40
0.1
  9
$FILLETRAD
 40
0.0
  9
$AUNITS
 70
     0
  9
$AUPREC
 70
     0
  9
$MENU
  1
.
  9
$ELEVATION
 40
0.0
  9
$PELEVATION
 40
0.0
  9
$THICKNESS
 40
0.0
  9
$LIMCHECK
 70
     0
  9
$BLIPMODE
 70
     0
  9
$CHAMFERA
 40
0.0
  9
$CHAMFERB
 40
0.0
  9
$SKPOLY
 70
     0
  9
$TDCREATE
 40
2458060.468368056230247
  9
$TDUPDATE
 40
2460588.6961689819581807
  9
$TDINDWG
 40
1.0164769676000001
  9
$TDUSRTIMER
 40
1.0164769676000001
  9
$USRTIMER
 70
     1
  9
$ANGBASE
 50
0.0
  9
$ANGDIR
 70
     0
  9
$PDMODE
 70
     0
  9
$PDSIZE
 40
0.3125
  9
$PLINEWID
 40
0.0
  9
$COORDS
 70
     2
  9
$SPLFRAME
 70
     0
  9
$SPLINETYPE
 70
     6
  9
$SPLINESEGS
 70
     8
  9
$ATTDIA
 70
     1
  9
$ATTREQ
 70
     1
  9
$HANDLING
 70
     1
  9
$HANDSEED
  5
32078
  9
$SURFTAB1
 70
     6
  9
$SURFTAB2
 70
     6
  9
$SURFTYPE
 70
     6
  9
$SURFU
 70
     6
  9
$SURFV
 70
     6
  9
$UCSNAME
  2

  9
$UCSORG
 10
0.0
 20
0.0
 30
0.0
  9
$UCSXDIR
 10
1.0
 20
0.0
 30
0.0
  9
$UCSYDIR
 10
0.0
 20
1.0
 30
0.0
  9
$PUCSNAME
  2

  9
$PUCSORG
 10
0.0
 20
0.0
 30
0.0
  9
$PUCSXDIR
 10
1.0
 20
0.0
 30
0.0
  9
$PUCSYDIR
 10
0.0
 20
1.0
 30
0.0
  9
$USERI1
 70
     0
  9
$USERI2
 70
     0
  9
$USERI3
 70
     0
  9
$USERI4
 70
     0
  9
$USERI5
 70
     0
  9
$USERR1
 40
0.0
  9
$USERR2
 40
0.0
  9
$USERR3
 40
0.0
  9
$USERR4
 40
0.0
  9
$USERR5
 40
0.0
  9
$WORLDVIEW
 70
     1
  9
$SHADEDGE
 70
     3
  9
$SHADEDIF
 70
    70
  9
$TILEMODE
 70
     1
  9
$MAXACTVP
 70
    64
  9
$PLIMCHECK
 70
     0
  9
$PEXTMIN
 10
1.0000000000000000E+20
 20
1.0000000000000000E+20
 30
1.0000000000000000E+20
  9
$PEXTMAX
 10
-1.0000000000000000E+20
 20
-1.0000000000000000E+20
 30
-1.0000000000000000E+20
  9
$PLIMMIN
 10
0.0
 20
0.0
  9
$PLIMMAX
 10
12.0
 20
9.0
  9
$UNITMODE
 70
     0
  9
$VISRETAIN
 70
     1
  9
$PLINEGEN
 70
     0
  9
$PSLTSCALE
 70
     1
  0
ENDSEC
  0
SECTION
  2
TABLES
  0
TABLE
  2
VPORT
 70
     1
  0
VPORT
  2
*ACTIVE
 70
     0
 10
0.0
 20
0.0
 11
1.0
 21
1.0
 12
3148.0956254976517812
 22
58.1804608186832297
 13
0.0
 23
0.0
 14
1.0
 24
1.0
 15
0.0
 25
0.0
 16
0.0
 26
0.0
 36
60.4960186965801583
 17
3911.3653564453120453
 27
132.5796051025390057
 37
0.0
 40
10.1347402621189797
 41
2.2426035502958581
 42
50.0
 43
0.0
 44
0.0
 50
0.0
 51
0.0
 71
     0
 72
   100
 73
     1
 74
     1
 75
     0
 76
     0
 77
     0
 78
     0
  0
ENDTAB
  0
TABLE
  2
LTYPE
 70
     3
  0
LTYPE
  2
CONTINUOUS
 70
     0
  3
Solid line
 72
    65
 73
     0
 40
0.0
  0
LTYPE
  2
PHANTOM2
 70
     0
  3
___ _ _ ___ _ _ ___ _ _ ___ _ _
 72
    65
 73
     6
 40
1.25
 49
0.625
 49
-0.125
 49
0.125
 49
-0.125
 49
0.125
 49
-0.125
  0
ENDTAB
  0
TABLE
  2
LAYER
 70
     2
  0
LAYER
  2
0
 70
     0
 62
   255
  6
CONTINUOUS
  0
LAYER
  2
DEFPOINTS
 70
     0
 62
     7
  6
CONTINUOUS
  0
ENDTAB
  0
TABLE
  2
STYLE
 70
     1
  0
STYLE
  2
STANDARD
 70
     0
 40
0.0
 41
0.8
 50
0.0
 71
     0
 42
0.2
  3
txt
  4

  0
ENDTAB
  0
TABLE
  2
VIEW
 70
     0
  0
ENDTAB
  0
TABLE
  2
UCS
 70
     0
  0
ENDTAB
  0
TABLE
  2
APPID
 70
    11
  0
APPID
  2
ACAD
 70
     0
  0
APPID
  2
ACAD_MLEADERVER
 70
     0
  0
APPID
  2
ACAD_EXEMPT_FROM_CAD_STANDARDS
 70
     0
  0
APPID
  2
ACAD_NAV_VCDISPLAY
 70
     0
  0
APPID
  2
ACAECLAYERSTANDARD
 70
     0
  0
APPID
  2
ACCMTRANSPARENCY
 70
     0
  0
APPID
  2
ACAD_DSTYLE_DIMJAG
 70
     0
  0
APPID
  2
ACAD_DSTYLE_DIMTALN
 70
     0
  0
APPID
  2
ACDBATTR
 70
     0
  0
APPID
  2
ACADANNOTATIVE
 70
     0
  0
APPID
  2
DCO15
 70
     0
  0
ENDTAB
  0
TABLE
  2
DIMSTYLE
 70
     2
  0
DIMSTYLE
  2
STANDARD
 70
     0
  3

  4

  5

  6

  7

 40
1.0
 41
0.1875
 42
0.0625
 43
0.38
 44
0.125
 45
0.0
 46
0.0
 47
0.01
 48
0.01
140
0.15625
141
0.09
142
0.0
143
25.3999999999999986
144
1.0
145
0.0
146
1.0
147
0.09
 71
     1
 72
     0
 73
     1
 74
     1
 75
     0
 76
     0
 77
     0
 78
     4
170
     0
171
     2
172
     0
173
     0
174
     0
175
     0
176
     0
177
     0
178
     0
  0
ENDTAB
  0
ENDSEC
  0
SECTION
  2
BLOCKS
  0
BLOCK
  8
0
  2
$MODEL_SPACE
 70
     0
 10
0.0
 20
0.0
 30
0.0
  3
$MODEL_SPACE
  1

  0
ENDBLK
  5
21
  8
0
  0
BLOCK
 67
     1
  8
0
  2
$PAPER_SPACE
 70
     0
 10
0.0
 20
0.0
 30
0.0
  3
$PAPER_SPACE
  1

  0
ENDBLK
  5
1D
 67
     1
  8
0
  0
BLOCK
  8
0
  2
_FILLED
 70
     0
 10
0.0
 20
0.0
 30
0.0
  3
_FILLED
  1

  0
SOLID
  5
309E9
  8
0
  6
BYBLOCK
 62
     0
 10
0.0
 20
0.0
 30
0.0
 11
-1.0
 21
0.1666666667
 31
0.0
 12
-1.0
 22
-0.1666666667
 32
0.0
 13
-1.0
 23
-0.1666666667
 33
0.0
  0
ENDBLK
  5
309EA
  8
0
  6
BYBLOCK
 62
     0
  0
ENDSEC
  0
SECTION
  2
ENTITIES
  0
ATTDEF
  5
26A5B
  8
DEFPOINTS
 10
7055.9063876953096042
 20
194.1541499268911934
 30
0.0
 40
0.001
  1
K-36518T-4
  3

  2
MODELNUMBER
 70
     0
1001
ACDBATTR
1070
     0
1070
     1
  0
ATTDEF
  5
26A5C
  8
DEFPOINTS
 10
7055.9062618856523841
 20
194.1524830865120066
 30
0.0
 40
0.001
  1
FLUENCE
  3

  2
TRADENAME
 70
     0
1001
ACDBATTR
1070
     0
1070
     1
  0
ATTDEF
  5
26A5D
  8
DEFPOINTS
 10
7055.9063876953096042
 20
194.1508165935578063
 30
0.0
 40
0.001
  1
BATH/SHOWER FAUCET
  3

  2
PRODUCT
 70
     0
1001
ACDBATTR
1070
     0
1070
     1
  0
LINE
  5
31C04
  8
0
 10
7060.896418243424705
 20
188.6861624036457954
 30
0.0
 11
7060.896418243424705
 21
194.1299134582245074
 31
0.0
  0
LINE
  5
31C05
  8
0
 10
7065.4991733139768257
 20
191.0181350669365088
 30
0.0
 11
7065.4991733139768257
 21
191.1163673024420007
 31
0.0
  0
LINE
  5
31C06
  8
0
 10
7050.9562053582512817
 20
194.1496134582245077
 30
0.0
 11
7060.8767182434248753
 21
194.1496134582245077
 31
0.0
  0
LINE
  5
31C07
  8
0
 10
7067.0172953122537365
 20
194.1496134582245077
 30
0.0
 11
7068.9405365243956112
 21
194.1496134582245077
 31
0.0
  0
LINE
  5
31C08
  8
0
 10
7058.6259925555968948
 20
187.3543378676245084
 30
0.0
 11
7060.4057884910171197
 21
187.3543378676245084
 31
0.0
  0
LINE
  5
31C09
  8
0
 10
7060.896418243424705
 20
194.1299275447865114
 30
0.0
 11
7050.956219444812632
 21
194.1299275447865114
 31
0.0
  0
ARC
  5
31C0A
  8
0
 10
7060.8767182434248753
 20
194.1299134582245074
 30
0.0
 40
0.0197
 50
0.0
 51
90.0
  0
LINE
  5
31C0B
  8
0
 10
7050.9562053582512817
 20
188.6189885750513042
 30
0.0
 11
7059.6937814241045999
 21
188.6189885750513042
 31
0.0
  0
ARC
  5
31C0C
  8
0
 10
7050.9562053582512817
 20
191.3843010166378917
 30
0.0
 40
2.765312441586623
 50
90.0
 51
270.0
  0
LINE
  5
31C0D
  8
0
 10
7059.5942677266348255
 20
188.6386744884891868
 30
0.0
 11
7050.956219444812632
 21
188.6386744884891868
 31
0.0
  0
ARC
  5
31C0E
  8
0
 10
7050.956219444812632
 20
191.3843010166378917
 30
0.0
 40
2.7456265281486192
 50
90.0
 51
270.0
  0
ARC
  5
31C0F
  8
0
 10
7059.5356053627601796
 20
220.3547781133999024
 30
0.0
 40
31.7361837228224886
 50
270.2855686221195128
 51
271.5269543803839269
  0
ARC
  5
31C10
  8
0
 10
7060.110798050161975
 20
198.5507884101041896
 30
0.0
 40
9.9246111652054587
 50
271.5617513084413872
 51
273.7948250330726978
  0
ARC
  5
31C11
  8
0
 10
7060.7079681659279231
 20
189.5476640180191055
 30
0.0
 40
0.9017035979895828
 50
273.7948250330726978
 51
279.0993080150785204
  0
ARC
  5
31C12
  8
0
 10
7060.8264950842030885
 20
188.8076185094068933
 30
0.0
 40
0.1522264567952815
 50
279.0993080150785204
 51
289.5120415263669997
  0
ARC
  5
31C13
  8
0
 10
7060.8341048110596603
 20
188.7556283259771135
 30
0.0
 40
0.1011949015787432
 50
295.2926279010872008
 51
301.5267719935217769
  0
ARC
  5
31C14
  8
0
 10
7060.8767182434248753
 20
188.6861624036457954
 30
0.0
 40
0.0197
 50
301.5267719935217769
 51
0.0
  0
ARC
  5
31C15
  8
0
 10
7059.5002260252731503
 20
228.2009304261522118
 30
0.0
 40
39.5623677087044214
 50
270.1361950250566224
 51
270.7715804829275044
  0
ARC
  5
31C16
  8
0
 10
7059.6951005920691387
 20
213.4575225646890999
 30
0.0
 40
24.8176727350329216
 50
270.7800786259768984
 51
271.8589010028707094
  0
ARC
  5
31C17
  8
0
 10
7060.2445329788715753
 20
196.5286432801152046
 30
0.0
 40
7.8798797920506312
 50
271.8589010028707094
 51
273.6572767171321061
  0
ARC
  5
31C18
  8
0
 10
7060.6179900728629946
 20
190.6859226050187033
 30
0.0
 40
2.0252359012359729
 50
273.6572767171321061
 51
275.7324656753395971
  0
ARC
  5
31C19
  8
0
 10
7060.7930958031965929
 20
189.0022054893412928
 30
0.0
 40
0.3325037724155198
 50
274.6891400883188794
 51
288.1038714953659223
  0
LINE
  5
31C1A
  8
0
 10
7058.5515297827132599
 20
188.5350092860612108
 30
0.0
 11
7058.5316385455071213
 21
187.4135641188534009
 31
0.0
  0
ARC
  5
31C1B
  8
0
 10
7058.5778542569796628
 20
187.4161745624147102
 30
0.0
 40
0.0462893767781336
 50
183.2328538558045921
 51
212.3510554643335126
  0
ARC
  5
31C1C
  8
0
 10
7058.5949523671260977
 20
187.4346512899763866
 30
0.0
 40
0.0709154146353677
 50
217.5772861556955036
 51
237.4025176279656932
  0
ARC
  5
31C1D
  8
0
 10
7058.6316926907238667
 20
187.4921060948850027
 30
0.0
 40
0.139112965802066
 50
237.4025176279656932
 51
251.1407687185418069
  0
ARC
  5
31C1E
  8
0
 10
7058.6209270363469841
 20
187.4605890305174967
 30
0.0
 40
0.1058079412482813
 50
251.1407687185418069
 51
263.4907316836370796
  0
ARC
  5
31C1F
  8
0
 10
7058.6322511258031227
 20
187.5791060448846963
 30
0.0
 40
0.2248552939334494
 50
264.0473681432479793
 51
268.4050365484009717
  0
LINE
  5
31C20
  8
0
 10
7060.4803070791031132
 20
188.5498673701409018
 30
0.0
 11
7060.5001425011078027
 21
187.4135641188534009
 31
0.0
  0
ARC
  5
31C21
  8
0
 10
7060.4539267896361707
 20
187.4161745624147102
 30
0.0
 40
0.0462893767781336
 50
327.6489445356664874
 51
356.7671461441954079
  0
ARC
  5
31C22
  8
0
 10
7060.4368286794888263
 20
187.4346512899763866
 30
0.0
 40
0.0709154146353677
 50
302.5974823720325162
 51
322.4227138443044964
  0
ARC
  5
31C23
  8
0
 10
7060.4000883558910573
 20
187.4921060948850027
 30
0.0
 40
0.139112965802066
 50
288.8592312814582215
 51
302.5974823720342215
  0
ARC
  5
31C24
  8
0
 10
7060.4108540102697589
 20
187.4605890305174967
 30
0.0
 40
0.1058079412482813
 50
276.5092683163110792
 51
288.8592312814582215
  0
ARC
  5
31C25
  8
0
 10
7060.3995299208118013
 20
187.5791060448846963
 30
0.0
 40
0.2248552939334494
 50
271.5949634515990283
 51
275.9526318567520207
  0
ARC
  5
31C26
  8
0
 10
7058.7272367256791767
 20
188.5402996369483901
 30
0.0
 40
0.1759034884878816
 50
153.4267523360568077
 51
178.5608654540199893
  0
ARC
  5
31C27
  8
0
 10
7058.7265153671260123
 20
188.5424069419059094
 30
0.0
 40
0.1751418855236583
 50
179.2441195375936047
 51
203.444251687032704
  0
ARC
  5
31C28
  8
0
 10
7058.8584240788459283
 20
188.6131251878931039
 30
0.0
 40
0.3245339015929594
 50
205.6338967857141995
 51
235.0753624726461908
  0
ARC
  5
31C29
  8
0
 10
7059.2060396411789043
 20
189.1109920806879074
 30
0.0
 40
0.9317472265688277
 50
235.0763486981767869
 51
254.5521773907219938
  0
ARC
  5
31C2A
  8
0
 10
7059.4764357742496941
 20
189.9926454319507911
 30
0.0
 40
1.8537517705115949
 50
253.7550394899338073
 51
265.7829954722603247
  0
ARC
  5
31C2B
  8
0
 10
7059.5157684894938939
 20
190.3592632090339976
 30
0.0
 40
2.2223031598081362
 50
265.4667165754516986
 51
273.2701296063081031
  0
ARC
  5
31C2C
  8
0
 10
7059.52662078780304
 20
190.2187444550737894
 30
0.0
 40
2.081396069102798
 50
273.1925310294379869
 51
279.4130927640939035
  0
ARC
  5
31C2D
  8
0
 10
7059.6238360881943663
 20
189.6934025337706089
 30
0.0
 40
1.54726050016467
 50
279.0433087323518748
 51
290.2721478074780066
  0
ARC
  5
31C2E
  8
0
 10
7059.8639758754361537
 20
189.0432492119402923
 30
0.0
 40
0.8541757583736211
 50
290.2721478074780066
 51
305.7919237381590847
  0
ARC
  5
31C2F
  8
0
 10
7060.1715569034049622
 20
188.61665086780161
 30
0.0
 40
0.3282553879858356
 50
305.7919237381590847
 51
331.7517066335107074
  0
ARC
  5
31C30
  8
0
 10
7060.2947147077329646
 20
188.5452030542720081
 30
0.0
 40
0.186007407297134
 50
333.1838682485928871
 51
357.4311676689432034
  0
ARC
  5
31C31
  8
0
 10
7060.3066109787187088
 20
188.5403171573618977
 30
0.0
 40
0.1739584486383817
 50
358.863329284005772
 51
21.4026011912847309
  0
ARC
  5
31C32
  8
0
 10
7060.2853955092678007
 20
188.5320017946858968
 30
0.0
 40
0.1967453176739106
 50
21.4026011912847309
 51
26.8243397153492786
  0
ARC
  5
31C33
  8
0
 10
7060.4367043825659493
 20
188.6085141021009122
 30
0.0
 40
0.0271914668646373
 50
26.8243397153492786
 51
59.6957616028508582
  0
ARC
  5
31C34
  8
0
 10
7058.7954305304792797
 20
188.5470550649222901
 30
0.0
 40
0.1648364713172862
 50
154.1260234193021859
 51
192.8434306448781115
  0
ARC
  5
31C35
  8
0
 10
7058.8412283330953869
 20
188.5650325953521929
 30
0.0
 40
0.2136110481963252
 50
194.8145928906178028
 51
223.2113466294316879
  0
ARC
  5
31C36
  8
0
 10
7059.032563763809776
 20
188.7451813532892118
 30
0.0
 40
0.4764090383644993
 50
223.2465405336012054
 51
242.418578747873994
  0
ARC
  5
31C37
  8
0
 10
7059.3553884892598944
 20
189.3840928998037896
 30
0.0
 40
1.1922206669612481
 50
242.8840097200466914
 51
260.4526422767639247
  0
ARC
  5
31C38
  8
0
 10
7059.5022266409232543
 20
190.0882013308348917
 30
0.0
 40
1.911136765893575
 50
259.6126069005558747
 51
266.3921477686930075
  0
ARC
  5
31C39
  8
0
 10
7059.515859271791669
 20
190.2665010781047954
 30
0.0
 40
2.0899423695942261
 50
266.3267440082505004
 51
275.3248831299458175
  0
ARC
  5
31C3A
  8
0
 10
7059.5523422237829436
 20
189.9158634404919042
 30
0.0
 40
1.737436308260611
 50
275.2000551196521769
 51
284.3196180185071853
  0
ARC
  5
31C3B
  8
0
 10
7059.7163569719550651
 20
189.2931142880134985
 30
0.0
 40
1.093480340161771
 50
284.0631856719256234
 51
296.1078196957878959
  0
ARC
  5
31C3C
  8
0
 10
7059.9471077854632313
 20
188.8226339956588902
 30
0.0
 40
0.5694597391530768
 50
296.0910808637875107
 51
310.150684054375688
  0
ARC
  5
31C3D
  8
0
 10
7060.1403848817262769
 20
188.5981699110334944
 30
0.0
 40
0.2732816808900016
 50
309.5222934244202975
 51
334.1801668599118784
  0
ARC
  5
31C3E
  8
0
 10
7060.2418364540098992
 20
188.5465673725676083
 30
0.0
 40
0.1594991812349767
 50
334.9936414704914114
 51
6.4527422818546682
  0
ARC
  5
31C3F
  8
0
 10
7060.2224844159582062
 20
188.5433416317754904
 30
0.0
 40
0.1790941070386489
 50
6.7824063326266666
 51
23.1945963994579216
  0
ARC
  5
31C40
  8
0
 10
7060.3684345040755943
 20
188.6066583970217039
 30
0.0
 40
0.020015966653158
 50
21.1451103287668403
 51
42.5743032865456072
  0
ARC
  5
31C41
  8
0
 10
7060.3783360214829372
 20
188.6157789698638112
 30
0.0
 40
0.0065540220082869
 50
42.4207441444596824
 51
88.0603553825346381
  0
LINE
  5
31C42
  8
0
 10
7060.3785578536244429
 20
188.6223292366512112
 30
0.0
 11
7060.3353064454149717
 21
188.6223292366512112
 31
0.0
  0
ARC
  5
31C43
  8
0
 10
7060.3905316243235575
 20
188.622251740437207
 30
0.0
 40
0.0119740214808286
 50
140.5258904701495055
 51
179.6291774658396889
  0
ARC
  5
31C44
  8
0
 10
7058.7028452826243665
 20
188.6123836476511997
 30
0.0
 40
0.0118110235999913
 50
145.9983216777162056
 51
188.9818231851037922
  0
ARC
  5
31C45
  8
0
 10
7059.6633620769953268
 20
188.76420221474811
 30
0.0
 40
0.9842519676083954
 50
188.9818231851037922
 51
205.1347927041767889
  0
ARC
  5
31C46
  8
0
 10
7060.3289357674530038
 20
188.6123836477113969
 30
0.0
 40
0.0118110235398206
 50
351.0181598036991204
 51
90.0000001345485572
  0
ARC
  5
31C47
  8
0
 10
7059.3684166947632548
 20
188.7642028672215986
 30
0.0
 40
0.9842543197859518
 50
334.8976370881309776
 51
351.0181598036991204
  0
LINE
  5
31C48
  8
0
 10
7060.328935767425719
 20
188.624194671251189
 30
0.0
 11
7060.1317862997102566
 21
188.624194671251189
 31
0.0
  0
LINE
  5
31C49
  8
0
 10
7060.2017546471070091
 20
188.6255864688006909
 30
0.0
 11
7060.2017789410247133
 21
188.624194671251189
 31
0.0
  0
LINE
  5
31C4A
  8
0
 10
7067.3891119641693876
 20
192.9394595510511863
 30
0.0
 11
7068.56871987247996
 21
192.9394595510511863
 31
0.0
  0
LINE
  5
31C4B
  8
0
 10
7067.3686984118912733
 20
192.4437502502194093
 30
0.0
 11
7067.369411986303021
 21
192.9197890809954004
 31
0.0
  0
ARC
  5
31C4C
  8
0
 10
7067.3891119641693876
 20
192.9197595510512997
 30
0.0
 40
0.0197
 50
89.9999999999478888
 51
179.9141146293451072
  0
LINE
  5
31C4D
  8
0
 10
7067.3765787456250109
 20
192.9349585126246041
 30
0.0
 11
7067.3765787456250109
 21
192.4470284118538075
 31
0.0
  0
ARC
  5
31C4E
  8
0
 10
7067.3805157535243779
 20
192.8781316791512097
 30
0.0
 40
0.0118110235999964
 50
109.4712208070299937
 51
160.894102299782304
  0
LINE
  5
31C4F
  8
0
 10
7067.0172953122537365
 20
194.1496134582245077
 30
0.0
 11
7067.0243361130251287
 21
193.1162914872512033
 31
0.0
  0
ARC
  5
31C50
  8
0
 10
7071.0749883541247982
 20
193.1438916314683922
 30
0.0
 40
4.0507462702932511
 50
180.3903932530481029
 51
186.5223763102277132
  0
ARC
  5
31C51
  8
0
 10
7071.3697655064261198
 20
193.1775938676190094
 30
0.0
 40
4.3474437765867817
 50
186.5223763102277132
 51
191.1206777947637079
  0
ARC
  5
31C52
  8
0
 10
7067.9789409503237039
 20
192.3387616003512051
 30
0.0
 40
0.5511811023999977
 50
14.4083843891177192
 51
165.5890373467078973
  0
ARC
  5
31C53
  8
0
 10
7067.9789409503237039
 20
192.3387616003512051
 30
0.0
 40
0.5314954144000001
 50
16.062816463367561
 51
163.9344216736502915
  0
ARC
  5
31C54
  8
0
 10
7067.9900351333162689
 20
191.9871570018736122
 30
0.0
 40
0.7255531902604312
 50
90.8781010673275773
 51
113.925527125529598
  0
ARC
  5
31C55
  8
0
 10
7067.8935897353067048
 20
192.2518487500560127
 30
0.0
 40
0.4449061247384463
 50
116.3972637631992058
 51
143.7608523281359112
  0
ARC
  5
31C56
  8
0
 10
7064.1913244844017754
 20
200.092912415238402
 30
0.0
 40
8.2828368873139411
 50
287.6329492428541812
 51
293.8069815467160879
  0
ARC
  5
31C57
  8
0
 10
7077.1369919759899858
 20
161.3651422872032981
 30
0.0
 40
32.5524905358208514
 50
108.6998063932609
 51
109.6951757180644051
  0
ARC
  5
31C58
  8
0
 10
7069.5013084908214296
 20
182.6287186676611043
 30
0.0
 40
9.9595349896422327
 50
109.5638802442748982
 51
110.9765405692290017
  0
ARC
  5
31C59
  8
0
 10
7066.4744122084894116
 20
190.5591630407924129
 30
0.0
 40
1.4711335643358581
 50
111.4707964406890994
 51
119.7079619310973015
  0
ARC
  5
31C5A
  8
0
 10
7065.99646839786692
 20
191.3535542152195887
 30
0.0
 40
0.5447180743601301
 50
117.4522000703904041
 51
146.3470439534482068
  0
ARC
  5
31C5B
  8
0
 10
7065.7376366741282254
 20
191.5361217297204064
 30
0.0
 40
0.2282519726517629
 50
148.490357824418993
 51
177.3589842633562057
  0
ARC
  5
31C5C
  8
0
 10
7065.6895486629564402
 20
191.5427195525890909
 30
0.0
 40
0.1799642105882906
 50
178.7520076296135016
 51
214.4052683402229889
  0
ARC
  5
31C5D
  8
0
 10
7065.8899077410233076
 20
191.6748586876690865
 30
0.0
 40
0.419957945723461
 50
213.833805920926892
 51
236.4423867331819054
  0
ARC
  5
31C5E
  8
0
 10
7066.4519680719677126
 20
192.5437160753336912
 30
0.0
 40
1.454744923277532
 50
236.9111128102769896
 51
252.8197994148819134
  0
ARC
  5
31C5F
  8
0
 10
7067.344026738215689
 20
195.332632468125297
 30
0.0
 40
4.382808148462785
 50
252.447598217416612
 51
262.1058830377377831
  0
ARC
  5
31C60
  8
0
 10
7068.4506269655767028
 20
206.7367244839128091
 30
0.0
 40
15.8377937276484193
 50
263.8070011640435268
 51
268.2932566191411752
  0
ARC
  5
31C61
  8
0
 10
7065.6947449898689229
 20
191.0271688355869912
 30
0.0
 40
0.1957802068333743
 50
182.6447038359771966
 51
197.1528438327572132
  0
ARC
  5
31C62
  8
0
 10
7065.7435704883500875
 20
191.0422388278410892
 30
0.0
 40
0.2468784843808821
 50
197.1528438327572132
 51
217.4004188081802909
  0
ARC
  5
31C63
  8
0
 10
7065.99650407014542
 20
191.2493141485354045
 30
0.0
 40
0.5736883401472197
 50
218.4866517251008986
 51
241.1033138290191005
  0
ARC
  5
31C64
  8
0
 10
7066.6520893996521409
 20
192.445673296793899
 30
0.0
 40
1.9378958815399761
 50
241.2262698891053105
 51
255.1147304985971971
  0
ARC
  5
31C65
  8
0
 10
7067.4776261068700478
 20
195.4155677252215071
 30
0.0
 40
5.0203159080317832
 50
254.7162599464583081
 51
262.8634664138832022
  0
ARC
  5
31C66
  8
0
 10
7067.8935267296437814
 20
198.4104505772488096
 30
0.0
 40
8.0437687753150886
 50
262.5741875937546865
 51
266.6292036878800218
  0
ARC
  5
31C67
  8
0
 10
7067.966818950155357
 20
199.488307104466486
 30
0.0
 40
9.1240751880538422
 50
266.5677256164696018
 51
268.9229747910458741
  0
ARC
  5
31C68
  8
0
 10
7070.3273658758207603
 20
447.1168378484119899
 30
0.0
 40
256.7634790527973223
 50
269.4349741308020043
 51
269.4759451476618892
  0
LINE
  5
31C69
  8
0
 10
7065.5095847310558383
 20
191.5424028386190116
 30
0.0
 11
7065.4991733139768257
 21
191.1163673024420007
 31
0.0
  0
LINE
  5
31C6A
  8
0
 10
7067.8708307141250771
 20
194.0395490813511969
 30
0.0
 11
7068.0870011225242706
 21
194.0395490813511969
 31
0.0
  0
LINE
  5
31C6B
  8
0
 10
7067.8608307141239493
 20
193.8526986082511883
 30
0.0
 11
7067.8608307141239493
 21
194.029549081351206
 31
0.0
  0
LINE
  5
31C6C
  8
0
 10
7067.8708307141250771
 20
193.842698608251311
 30
0.0
 11
7068.0870011225242706
 21
193.842698608251311
 31
0.0
  0
ARC
  5
31C6D
  8
0
 10
7067.8708307141250771
 20
193.8526986082511883
 30
0.0
 40
0.01
 50
180.0000000000422915
 51
270.0
  0
ARC
  5
31C6E
  8
0
 10
7067.8708307141250771
 20
194.029549081351206
 30
0.0
 40
0.01
 50
89.9999999999478888
 51
180.0
  0
LINE
  5
31C6F
  8
0
 10
7067.8805157535252874
 20
194.0395490813511969
 30
0.0
 11
7067.8805157535252874
 21
193.842698608251311
 31
0.0
  0
LINE
  5
31C70
  8
0
 10
7067.8805157535252874
 20
193.9738884972512949
 30
0.0
 11
7068.0773160831249697
 21
193.9738884972512949
 31
0.0
  0
LINE
  5
31C71
  8
0
 10
7067.8805157535252874
 20
193.8646263318512126
 30
0.0
 11
7068.0773160831249697
 21
193.8646263318512126
 31
0.0
  0
LINE
  5
31C72
  8
0
 10
7067.8805157535252874
 20
194.023800970451191
 30
0.0
 11
7068.0773160831249697
 21
194.023800970451191
 31
0.0
  0
LINE
  5
31C73
  8
0
 10
7067.8805157535252874
 20
194.0168589019511955
 30
0.0
 11
7068.0773160831249697
 21
194.0168589019511955
 31
0.0
  0
LINE
  5
31C74
  8
0
 10
7068.0970011225235794
 20
193.8526986082511883
 30
0.0
 11
7068.0970011225235794
 21
194.029549081351206
 31
0.0
  0
ARC
  5
31C75
  8
0
 10
7068.0870011225242706
 20
193.8526986082511883
 30
0.0
 40
0.01
 50
270.0
 51
359.9999999999575948
  0
ARC
  5
31C76
  8
0
 10
7068.0870011225242706
 20
194.029549081351206
 30
0.0
 40
0.01
 50
0.0
 51
90.0000000000521254
  0
LINE
  5
31C77
  8
0
 10
7068.0773160831249697
 20
194.0395490813511969
 30
0.0
 11
7068.0773160831249697
 21
193.842698608251311
 31
0.0
  0
LINE
  5
31C78
  8
0
 10
7070.4586585226716124
 20
191.0181350669365088
 30
0.0
 11
7070.4586585226716124
 21
191.1163673024420007
 31
0.0
  0
LINE
  5
31C79
  8
0
 10
7068.5891334247571649
 20
192.4437502502194093
 30
0.0
 11
7068.5884198503472362
 21
192.9197890809954004
 31
0.0
  0
ARC
  5
31C7A
  8
0
 10
7068.56871987247996
 20
192.9197595510512997
 30
0.0
 40
0.0197
 50
0.0858853706549056
 51
90.0
  0
LINE
  5
31C7B
  8
0
 10
7068.5812530910243368
 20
192.9349585126246041
 30
0.0
 11
7068.5812530910243368
 21
192.4470284118538075
 31
0.0
  0
ARC
  5
31C7C
  8
0
 10
7068.5773160831249697
 20
192.8781316791512097
 30
0.0
 40
0.0118110235999964
 50
19.1058977002176817
 51
70.5287791929700063
  0
LINE
  5
31C7D
  8
0
 10
7068.9405365243956112
 20
194.1496134582245077
 30
0.0
 11
7068.933495723624219
 21
193.1162914872512033
 31
0.0
  0
ARC
  5
31C7E
  8
0
 10
7064.8828434825227305
 20
193.1438916314683922
 30
0.0
 40
4.0507462702932511
 50
353.4776236897722015
 51
359.6096067469518971
  0
ARC
  5
31C7F
  8
0
 10
7064.5880663302223184
 20
193.1775938676190094
 30
0.0
 40
4.3474437765867817
 50
348.8793222052362921
 51
353.4776236897722015
  0
ARC
  5
31C80
  8
0
 10
7067.9677967033321693
 20
191.9871570018736122
 30
0.0
 40
0.7255531902604312
 50
66.0744728744703593
 51
89.1218989326724085
  0
ARC
  5
31C81
  8
0
 10
7068.0642421013417334
 20
192.2518487500560127
 30
0.0
 40
0.4449061247384463
 50
36.2391476718641101
 51
63.6027362368007729
  0
ARC
  5
31C82
  8
0
 10
7071.7665073522475723
 20
200.092912415238402
 30
0.0
 40
8.2828368873139411
 50
246.1930184532839121
 51
252.3670507571457904
  0
ARC
  5
31C83
  8
0
 10
7058.8208398606584524
 20
161.3651422872032981
 30
0.0
 40
32.5524905358208514
 50
70.3048242819355949
 51
71.3001936067390432
  0
ARC
  5
31C84
  8
0
 10
7066.4565233458270086
 20
182.6287186676611043
 30
0.0
 40
9.9595349896422327
 50
69.0234594307709841
 51
70.4361197557250449
  0
ARC
  5
31C85
  8
0
 10
7069.4834196281599361
 20
190.5591630407924129
 30
0.0
 40
1.4711335643358581
 50
60.2920380689027198
 51
68.5292035593108722
  0
ARC
  5
31C86
  8
0
 10
7069.9613634387833372
 20
191.3535542152195887
 30
0.0
 40
0.5447180743601301
 50
33.6529560465518003
 51
62.5477999296095604
  0
ARC
  5
31C87
  8
0
 10
7070.2201951625193033
 20
191.5361217297204064
 30
0.0
 40
0.2282519726517629
 50
2.641015736643773
 51
31.5096421755809608
  0
ARC
  5
31C88
  8
0
 10
7070.2682831736929074
 20
191.5427195525890909
 30
0.0
 40
0.1799642105882906
 50
325.5947316597770964
 51
1.2479923703864431
  0
ARC
  5
31C89
  8
0
 10
7070.0679240956278591
 20
191.6748586876690865
 30
0.0
 40
0.419957945723461
 50
303.5576132668180094
 51
326.1661940790730796
  0
ARC
  5
31C8A
  8
0
 10
7069.5058637646807256
 20
192.5437160753336912
 30
0.0
 40
1.454744923277532
 50
287.1802005851180866
 51
303.0888871897229819
  0
ARC
  5
31C8B
  8
0
 10
7068.6138050984336587
 20
195.332632468125297
 30
0.0
 40
4.382808148462785
 50
277.8941169622104894
 51
287.5524017825832743
  0
ARC
  5
31C8C
  8
0
 10
7067.5072048710726449
 20
206.7367244839128091
 30
0.0
 40
15.8377937276484193
 50
271.7067433808588248
 51
276.1929988359564732
  0
ARC
  5
31C8D
  8
0
 10
7070.2630868467786058
 20
191.0271688355869912
 30
0.0
 40
0.1957802068333743
 50
342.8471561672428152
 51
357.355296164022775
  0
ARC
  5
31C8E
  8
0
 10
7070.2142613482992601
 20
191.0422388278410892
 30
0.0
 40
0.2468784843808821
 50
322.5995811918197091
 51
342.8471561672428152
  0
ARC
  5
31C8F
  8
0
 10
7069.9613277665048372
 20
191.2493141485354045
 30
0.0
 40
0.5736883401472197
 50
298.8966861709807858
 51
321.513348274897794
  0
ARC
  5
31C90
  8
0
 10
7069.3057424369981163
 20
192.445673296793899
 30
0.0
 40
1.9378958815399761
 50
284.8852695014027177
 51
298.7737301108946895
  0
ARC
  5
31C91
  8
0
 10
7068.4802057297802094
 20
195.4155677252215071
 30
0.0
 40
5.0203159080317832
 50
277.1365335861167978
 51
285.2837400535415782
  0
ARC
  5
31C92
  8
0
 10
7068.0643051070055662
 20
198.4104505772488096
 30
0.0
 40
8.0437687753150886
 50
273.3707963121199782
 51
277.4258124062453135
  0
ARC
  5
31C93
  8
0
 10
7067.9910128864939907
 20
199.488307104466486
 30
0.0
 40
9.1240751880538422
 50
271.0770252089541259
 51
273.4322743835303982
  0
ARC
  5
31C94
  8
0
 10
7065.6304659608285874
 20
447.1168378484119899
 30
0.0
 40
256.7634790527973223
 50
270.5240548523381108
 51
270.5650258691981094
  0
LINE
  5
31C95
  8
0
 10
7070.4482471055916903
 20
191.5424028386190116
 30
0.0
 11
7070.4586585226716124
 21
191.1163673024420007
 31
0.0
  0
LINE
  5
31C96
  8
0
 10
7060.896418243424705
 20
192.830818135740401
 30
0.0
 11
7067.0530044114047996
 21
192.661996118309105
 31
0.0
  0
LINE
  5
31C97
  8
0
 10
7060.896418243424705
 20
192.2399935472857067
 30
0.0
 11
7066.3877485835982952
 21
192.0916521211526913
 31
0.0
  0
LINE
  5
31C98
  8
0
 10
7050.9160815227633066
 20
193.9529348287512107
 30
0.0
 11
7060.896418243424705
 21
193.9529348287512107
 31
0.0
  0
LINE
  5
31C99
  8
0
 10
7050.9160815227633066
 20
188.8156672045244875
 30
0.0
 11
7060.896418243424705
 21
188.8156672045244875
 31
0.0
  0
ARC
  5
31C9A
  8
0
 10
7050.9528983990257984
 20
191.3843010166378917
 30
0.0
 40
2.5688976513496811
 50
90.8211786265211742
 51
269.1788213735193835
  0
LINE
  5
31C9B
  8
0
 10
7054.437125338324222
 20
187.4134378543245134
 30
0.0
 11
7054.437125338324222
 21
188.5432843110245074
 31
0.0
  0
LINE
  5
31C9C
  8
0
 10
7056.4056292753239177
 20
187.4134378543245134
 30
0.0
 11
7056.4056292753239177
 21
188.5432843110245074
 31
0.0
  0
LINE
  5
31C9D
  8
0
 10
7056.3662292753251677
 20
188.5826843110245079
 30
0.0
 11
7054.4765253383247909
 21
188.5826843110245079
 31
0.0
  0
LINE
  5
31C9E
  8
0
 10
7054.4962253383246207
 20
187.3543378543245126
 30
0.0
 11
7056.3465292753253379
 21
187.3543378543245126
 31
0.0
  0
ARC
  5
31C9F
  8
0
 10
7054.4962253383246207
 20
187.4134378543245134
 30
0.0
 40
0.0591
 50
180.0000000000065086
 51
270.0
  0
ARC
  5
31CA0
  8
0
 10
7056.3465292753253379
 20
187.4134378543245134
 30
0.0
 40
0.0591
 50
270.0
 51
359.9999999999968168
  0
ARC
  5
31CA1
  8
0
 10
7056.3662292753251677
 20
188.5432843110245074
 30
0.0
 40
0.0394
 50
359.9999999999902229
 51
90.0
  0
ARC
  5
31CA2
  8
0
 10
7054.4765253383247909
 20
188.5432843110245074
 30
0.0
 40
0.0394
 50
90.0
 51
180.0000000000212026
  0
LINE
  5
31CA3
  8
0
 10
7056.4013726688262977
 20
188.5236291929244885
 30
0.0
 11
7056.3816643806221691
 21
188.5236291929244885
 31
0.0
  0
LINE
  5
31CA4
  8
0
 10
7056.3750031424324334
 20
188.5236291929244885
 30
0.0
 11
7056.3360718494241155
 21
188.5236291929244885
 31
0.0
  0
LINE
  5
31CA5
  8
0
 10
7056.3251521830370621
 20
188.5236291929244885
 30
0.0
 11
7056.2679565027929129
 21
188.5236291929244885
 31
0.0
  0
LINE
  5
31CA6
  8
0
 10
7056.2530472867447315
 20
188.5236291929244885
 30
0.0
 11
7056.1789955667964023
 21
188.5236291929244885
 31
0.0
  0
LINE
  5
31CA7
  8
0
 10
7056.1604639153401877
 20
188.5236291929244885
 30
0.0
 11
7056.0713795549017959
 21
188.5236291929244885
 31
0.0
  0
LINE
  5
31CA8
  8
0
 10
7056.0496817787470718
 20
188.5236291929244885
 30
0.0
 11
7055.9477583303869324
 21
188.5236291929244885
 31
0.0
  0
LINE
  5
31CA9
  8
0
 10
7055.9234287009521722
 20
188.5236291929244885
 30
0.0
 11
7055.811175858124443
 21
188.5236291929244885
 31
0.0
  0
LINE
  5
31CAA
  8
0
 10
7055.7848134511632452
 20
188.5236291929244885
 30
0.0
 11
7055.6649952521256637
 21
188.5236291929244885
 31
0.0
  0
LINE
  5
31CAB
  8
0
 10
7055.6372491987467583
 20
188.5236291929244885
 30
0.0
 11
7055.5128159632031384
 21
188.5236291929244885
 31
0.0
  0
LINE
  5
31CAC
  8
0
 10
7055.4975224647232608
 20
188.5236291929244885
 30
0.0
 11
7055.3452321489239694
 21
188.5236291929244885
 31
0.0
  0
LINE
  5
31CAD
  8
0
 10
7055.3299386511644116
 20
188.5236291929244885
 30
0.0
 11
7055.2055054156244296
 21
188.5236291929244885
 31
0.0
  0
LINE
  5
31CAE
  8
0
 10
7055.1777593625129157
 20
188.5236291929244885
 30
0.0
 11
7055.0579411616981815
 21
188.5236291929244885
 31
0.0
  0
LINE
  5
31CAF
  8
0
 10
7055.0315787561257821
 20
188.5236291929244885
 30
0.0
 11
7054.9193259123167081
 21
188.5236291929244885
 31
0.0
  0
LINE
  5
31CB0
  8
0
 10
7054.8949962836140912
 20
188.5236291929244885
 30
0.0
 11
7054.7930728344299496
 21
188.5236291929244885
 31
0.0
  0
LINE
  5
31CB1
  8
0
 10
7054.7713750591619828
 20
188.5236291929244885
 30
0.0
 11
7054.6822906979359686
 21
188.5236291929244885
 31
0.0
  0
LINE
  5
31CB2
  8
0
 10
7054.6637590468808412
 20
188.5236291929244885
 30
0.0
 11
7054.5897073267733504
 21
188.5236291929244885
 31
0.0
  0
LINE
  5
31CB3
  8
0
 10
7054.5747981110162073
 20
188.5236291929244885
 30
0.0
 11
7054.5175841106547523
 21
188.5236291929244885
 31
0.0
  0
LINE
  5
31CB4
  8
0
 10
7054.506705954334393
 20
188.5236291929244885
 30
0.0
 11
7054.4677514711893309
 21
188.5236291929244885
 31
0.0
  0
LINE
  5
31CB5
  8
0
 10
7054.4610902330632598
 20
188.5236291929244885
 30
0.0
 11
7054.4413819447236165
 21
188.5236291929244885
 31
0.0
  0
LINE
  5
31CB6
  8
0
 10
7054.4391431566273241
 20
188.5236291929244885
 30
0.0
 11
7054.437125338324222
 21
188.5236291929244885
 31
0.0
  0
LINE
  5
31CB7
  8
0
 10
7056.4036114570244536
 20
188.5236291929244885
 30
0.0
 11
7056.4056292753239177
 21
188.5236291929244885
 31
0.0
  0
LINE
  5
31CB8
  8
0
 10
7054.4391431566273241
 20
188.5236291929244885
 30
0.0
 11
7054.4391431566273241
 21
187.4330780118245059
 31
0.0
  0
LINE
  5
31CB9
  8
0
 10
7054.4413819447236165
 20
188.5236291929244885
 30
0.0
 11
7054.4413819447236165
 21
187.4330780118245059
 31
0.0
  0
LINE
  5
31CBA
  8
0
 10
7054.4610902330632598
 20
188.5236291929244885
 30
0.0
 11
7054.4610902330632598
 21
187.4330780118245059
 31
0.0
  0
LINE
  5
31CBB
  8
0
 10
7054.4677514711893309
 20
188.5236291929244885
 30
0.0
 11
7054.4677514711893309
 21
187.4330780118245059
 31
0.0
  0
LINE
  5
31CBC
  8
0
 10
7054.506705954334393
 20
188.5236291929244885
 30
0.0
 11
7054.506705954334393
 21
187.4330780118245059
 31
0.0
  0
LINE
  5
31CBD
  8
0
 10
7054.5175841106547523
 20
188.5236291929244885
 30
0.0
 11
7054.5175841106547523
 21
187.4330780118245059
 31
0.0
  0
LINE
  5
31CBE
  8
0
 10
7054.5747981110162073
 20
188.5236291929244885
 30
0.0
 11
7054.5747981110162073
 21
187.4330780118245059
 31
0.0
  0
LINE
  5
31CBF
  8
0
 10
7054.5897073267733504
 20
188.5236291929244885
 30
0.0
 11
7054.5897073267733504
 21
187.4330780118245059
 31
0.0
  0
LINE
  5
31CC0
  8
0
 10
7054.6637590468808412
 20
188.5236291929244885
 30
0.0
 11
7054.6637590468808412
 21
187.4330780118245059
 31
0.0
  0
LINE
  5
31CC1
  8
0
 10
7054.6822906979359686
 20
188.5236291929244885
 30
0.0
 11
7054.6822906979359686
 21
187.4330780118245059
 31
0.0
  0
LINE
  5
31CC2
  8
0
 10
7054.7713750591619828
 20
188.5236291929244885
 30
0.0
 11
7054.7713750591619828
 21
187.4330780118245059
 31
0.0
  0
LINE
  5
31CC3
  8
0
 10
7054.7930728344299496
 20
188.5236291929244885
 30
0.0
 11
7054.7930728344299496
 21
187.4330780118245059
 31
0.0
  0
LINE
  5
31CC4
  8
0
 10
7054.8949962836140912
 20
188.5236291929244885
 30
0.0
 11
7054.8949962836140912
 21
187.4330780118245059
 31
0.0
  0
LINE
  5
31CC5
  8
0
 10
7054.9193259123167081
 20
188.5236291929244885
 30
0.0
 11
7054.9193259123167081
 21
187.4330780118245059
 31
0.0
  0
LINE
  5
31CC6
  8
0
 10
7055.0315787561257821
 20
188.5236291929244885
 30
0.0
 11
7055.0315787561257821
 21
187.4330780118245059
 31
0.0
  0
LINE
  5
31CC7
  8
0
 10
7055.0579411616981815
 20
188.5236291929244885
 30
0.0
 11
7055.0579411616981815
 21
187.4330780118245059
 31
0.0
  0
LINE
  5
31CC8
  8
0
 10
7055.1777593625129157
 20
188.5236291929244885
 30
0.0
 11
7055.1777593625129157
 21
187.4330780118245059
 31
0.0
  0
LINE
  5
31CC9
  8
0
 10
7055.2055054156244296
 20
188.5236291929244885
 30
0.0
 11
7055.2055053631247574
 21
187.4330780118245059
 31
0.0
  0
LINE
  5
31CCA
  8
0
 10
7055.3299386511644116
 20
188.5236291929244885
 30
0.0
 11
7055.3299386511644116
 21
187.4330780118245059
 31
0.0
  0
LINE
  5
31CCB
  8
0
 10
7055.3452321489239694
 20
188.5236291929244885
 30
0.0
 11
7055.3452321489239694
 21
187.4330780118245059
 31
0.0
  0
LINE
  5
31CCC
  8
0
 10
7055.4975224647232608
 20
188.5236291929244885
 30
0.0
 11
7055.4975224647232608
 21
187.4330780118245059
 31
0.0
  0
LINE
  5
31CCD
  8
0
 10
7055.5128159632031384
 20
188.5236291929244885
 30
0.0
 11
7055.5128159632031384
 21
187.4330780118245059
 31
0.0
  0
LINE
  5
31CCE
  8
0
 10
7055.6372491987467583
 20
188.5236291929244885
 30
0.0
 11
7055.6372491987467583
 21
187.4330780118245059
 31
0.0
  0
LINE
  5
31CCF
  8
0
 10
7055.6649952521256637
 20
188.5236291929244885
 30
0.0
 11
7055.6649952494235549
 21
187.4330780118245059
 31
0.0
  0
LINE
  5
31CD0
  8
0
 10
7055.7848134511632452
 20
188.5236291929244885
 30
0.0
 11
7055.7848134511632452
 21
187.4330780118245059
 31
0.0
  0
LINE
  5
31CD1
  8
0
 10
7055.811175858124443
 20
188.5236291929244885
 30
0.0
 11
7055.8111758558243309
 21
187.4330780118245059
 31
0.0
  0
LINE
  5
31CD2
  8
0
 10
7055.9234287009521722
 20
188.5236291929244885
 30
0.0
 11
7055.9234287009521722
 21
187.4330780118245059
 31
0.0
  0
LINE
  5
31CD3
  8
0
 10
7055.9477583303869324
 20
188.5236291929244885
 30
0.0
 11
7055.9477583303869324
 21
187.4330780118245059
 31
0.0
  0
LINE
  5
31CD4
  8
0
 10
7056.0496817787470718
 20
188.5236291929244885
 30
0.0
 11
7056.0496817787470718
 21
187.4330780118245059
 31
0.0
  0
LINE
  5
31CD5
  8
0
 10
7056.0713795549017959
 20
188.5236291929244885
 30
0.0
 11
7056.0713795549017959
 21
187.4330780118245059
 31
0.0
  0
LINE
  5
31CD6
  8
0
 10
7056.1604639153401877
 20
188.5236291929244885
 30
0.0
 11
7056.1604639153401877
 21
187.4330780118245059
 31
0.0
  0
LINE
  5
31CD7
  8
0
 10
7056.1789955667964023
 20
188.5236291929244885
 30
0.0
 11
7056.1789955667964023
 21
187.4330780118245059
 31
0.0
  0
LINE
  5
31CD8
  8
0
 10
7056.2530472867447315
 20
188.5236291929244885
 30
0.0
 11
7056.2530472867447315
 21
187.4330780118245059
 31
0.0
  0
LINE
  5
31CD9
  8
0
 10
7056.2679565027929129
 20
188.5236291929244885
 30
0.0
 11
7056.2679565027929129
 21
187.4330780118245059
 31
0.0
  0
LINE
  5
31CDA
  8
0
 10
7056.3251521830370621
 20
188.5236291929244885
 30
0.0
 11
7056.3251521830370621
 21
187.4330780118245059
 31
0.0
  0
LINE
  5
31CDB
  8
0
 10
7056.3360718494241155
 20
188.5236291929244885
 30
0.0
 11
7056.3360718484236713
 21
187.4330780118245059
 31
0.0
  0
LINE
  5
31CDC
  8
0
 10
7056.3750031424324334
 20
188.5236291929244885
 30
0.0
 11
7056.3750031424324334
 21
187.4330780118245059
 31
0.0
  0
LINE
  5
31CDD
  8
0
 10
7056.3816643806221691
 20
188.5236291929244885
 30
0.0
 11
7056.3816643806221691
 21
187.4330780118245059
 31
0.0
  0
LINE
  5
31CDE
  8
0
 10
7056.4013726688262977
 20
188.5236291929244885
 30
0.0
 11
7056.4013726688262977
 21
187.4330780118245059
 31
0.0
  0
LINE
  5
31CDF
  8
0
 10
7056.4036114570244536
 20
188.5236291929244885
 30
0.0
 11
7056.4036114570244536
 21
187.4330780118245059
 31
0.0
  0
LINE
  5
31CE0
  8
0
 10
7054.437125338324222
 20
187.4330780118245059
 30
0.0
 11
7056.4056292753239177
 21
187.4330780118245059
 31
0.0
  0
LINE
  5
31CE1
  8
0
 10
7054.5582102433108957
 20
188.6189885750513042
 30
0.0
 11
7054.557576550124395
 21
188.5826843110245079
 31
0.0
  0
LINE
  5
31CE2
  8
0
 10
7056.2845443702353805
 20
188.6189885750513042
 30
0.0
 11
7056.2851780635237446
 21
188.5826843110245079
 31
0.0
  0
LINE
  5
31CE3
  8
0
 10
7055.393818251725861
 20
188.5236291929244885
 30
0.0
 11
7055.393818251725861
 21
187.4330780118245059
 31
0.0
  0
LINE
  5
31CE4
  8
0
 10
7055.4489363619250071
 20
188.5236291929244885
 30
0.0
 11
7055.4489363619250071
 21
187.4330780118245059
 31
0.0
  0
ARC
  5
31CE5
  8
0
 10
7066.413381125747037
 20
190.4559653602316018
 30
0.0
 40
0.150264626775445
 50
3.2970924051136228
 51
9.0086690643926381
  0
ARC
  5
31CE6
  8
0
 10
7066.564785062001647
 20
190.4650072799377938
 30
0.0
 40
0.0014444387524988
 50
196.0641469512981132
 51
243.3618874673950927
  0
ARC
  5
31CE7
  8
0
 10
7066.5702291905099628
 20
190.4748099794958875
 30
0.0
 40
0.0126563122039447
 50
241.2282898176293884
 51
257.2722743005338089
  0
ARC
  5
31CE8
  8
0
 10
7066.5807429721562585
 20
190.5218045758219034
 30
0.0
 40
0.0608126168393381
 50
257.3649173553213814
 51
273.2895683570646952
  0
ARC
  5
31CE9
  8
0
 10
7066.1655725134005479
 20
193.5585636772796931
 30
0.0
 40
3.1256368965933081
 50
277.6975557103976939
 51
278.5278543427954787
  0
ARC
  5
31CEA
  8
0
 10
7066.3352152222232689
 20
190.362508534155694
 30
0.0
 40
0.6034760066162779
 50
5.4158120560018101
 51
5.8416499764334571
  0
ARC
  5
31CEB
  8
0
 10
7066.9371032191884296
 20
190.4196632819686954
 30
0.0
 40
0.0011233144153806
 50
190.0919838573821039
 51
231.9636152929219008
  0
ARC
  5
31CEC
  8
0
 10
7066.943174059237208
 20
190.4296213628308863
 30
0.0
 40
0.0127790769030172
 50
238.0470182134596087
 51
262.003019222921921
  0
ARC
  5
31CED
  8
0
 10
7066.951431424450675
 20
190.4719736328578961
 30
0.0
 40
0.0559149679464555
 50
259.6609608940214002
 51
270.4154080544292924
  0
ARC
  5
31CEE
  8
0
 10
7066.9517429431034543
 20
190.4645898468085932
 30
0.0
 40
0.0485298030860414
 50
270.1108313560865213
 51
289.7894561695609923
  0
ARC
  5
31CEF
  8
0
 10
7066.8214155315408789
 20
190.3717146758208969
 30
0.0
 40
0.1541648285886907
 50
13.2585275447697608
 51
18.3037388028587884
  0
ARC
  5
31CF0
  8
0
 10
7066.8591728093742859
 20
190.3806112659335952
 30
0.0
 40
0.1153735751279821
 50
8.1591834815069291
 51
13.2585275447697608
  0
ARC
  5
31CF1
  8
0
 10
7066.8176370380169828
 20
190.3746560705500031
 30
0.0
 40
0.157334088165423
 50
4.0863696702402681
 51
8.1591834815037032
  0
ARC
  5
31CF2
  8
0
 10
7066.9766695173493645
 20
190.3860176337759924
 30
0.0
 40
0.0021037197768408
 50
184.0863696702207051
 51
223.8055709776783999
  0
ARC
  5
31CF3
  8
0
 10
7066.9835218786683981
 20
190.4021936740205092
 30
0.0
 40
0.0195182905278983
 50
244.6048078699531061
 51
264.0863496968373738
  0
ARC
  5
31CF4
  8
0
 10
7066.9911513289771392
 20
190.450871842674502
 30
0.0
 40
0.0687716376443797
 50
261.9417359955310189
 51
273.3255993387400054
  0
ARC
  5
31CF5
  8
0
 10
7066.9924478350112622
 20
190.4192638182040866
 30
0.0
 40
0.0371455453199332
 50
274.1574210257354025
 51
289.9512639209502254
  0
ARC
  5
31CF6
  8
0
 10
1148.5710820272520323
 20
20867.0478216364390391
 30
0.0
 40
21507.0284770050711813
 50
285.9731013514580127
 51
285.9731804271544888
  0
ARC
  5
31CF7
  8
0
 10
7067.0074031641115653
 20
190.4889026740611939
 30
0.0
 40
0.0998989223840027
 50
285.2378026744110002
 51
288.1536056618821249
  0
ARC
  5
31CF8
  8
0
 10
7067.0381946977304324
 20
190.3952025085301045
 30
0.0
 40
0.0012708030821522
 50
285.2159984985354981
 51
350.4165915803166058
  0
ARC
  5
31CF9
  8
0
 10
7067.1801849218472853
 20
190.3739824762803039
 30
0.0
 40
0.1422965307854542
 50
164.5981787160035026
 51
171.5098935820857946
  0
ARC
  5
31CFA
  8
0
 10
7067.1941889254003399
 20
190.3534937421829056
 30
0.0
 40
0.125698487028806
 50
5.2801909880797133
 51
15.6957497732024205
  0
ARC
  5
31CFB
  8
0
 10
7067.3215341338918734
 20
190.3657803144552929
 30
0.0
 40
0.0022956174901345
 50
198.2525707812729081
 51
249.6291317846252866
  0
ARC
  5
31CFC
  8
0
 10
7067.3295570363043225
 20
190.3848570106563898
 30
0.0
 40
0.0229888490317943
 50
247.4337702995771906
 51
265.7199013315632783
  0
ARC
  5
31CFD
  8
0
 10
7067.3331196791423281
 20
190.4087510904720091
 30
0.0
 40
0.0471154170803334
 50
263.5676326503275959
 51
282.4959960053424197
  0
ARC
  5
31CFE
  8
0
 10
7067.3372737133131523
 20
190.3815077191505907
 30
0.0
 40
0.0197046047580627
 50
287.8512792120018844
 51
305.4571711123923023
  0
ARC
  5
31CFF
  8
0
 10
7035.9873825946870056
 20
242.8757475881014898
 30
0.0
 40
61.1625954055005678
 50
300.8473992514582847
 51
300.8722896508085114
  0
ARC
  5
31D00
  8
0
 10
7067.3356180281398338
 20
190.4412048585768957
 30
0.0
 40
0.0717436542585537
 50
300.0211342603492994
 51
303.3402075846983053
  0
ARC
  5
31D01
  8
0
 10
7067.3742468774125882
 20
190.3823507799374113
 30
0.0
 40
0.0013470075546667
 50
306.5472883856086241
 51
349.7779953329995237
  0
ARC
  5
31D02
  8
0
 10
7067.4082925252423593
 20
190.3789739073802139
 30
0.0
 40
0.0328701341595285
 50
172.3214726672393908
 51
174.5221233607724969
  0
ARC
  5
31D03
  8
0
 10
7067.3257621510556419
 20
190.3269154955274871
 30
0.0
 40
0.1270013402516816
 50
3.9969675870523549
 51
24.3956197228216816
  0
ARC
  5
31D04
  8
0
 10
7067.4533447406765845
 20
190.3359475145038004
 30
0.0
 40
0.0009080790211772
 50
191.4045117399880098
 51
240.2132956615621993
  0
ARC
  5
31D05
  8
0
 10
7067.4628968533843363
 20
190.3594541221303871
 30
0.0
 40
0.0262735126612873
 50
247.6208398145959961
 51
269.5189670138983047
  0
ARC
  5
31D06
  8
0
 10
7067.4675275307317861
 20
190.3951050617085912
 30
0.0
 40
0.06211326590221
 50
265.5204429149426915
 51
278.5476660022561077
  0
ARC
  5
31D07
  8
0
 10
7067.4757363672961219
 20
190.3414185662157934
 30
0.0
 40
0.0078042155085316
 50
277.5335991687242085
 51
302.6138557461533196
  0
ARC
  5
31D08
  8
0
 10
6989.7376904683587782
 20
309.5286337102086804
 30
0.0
 40
142.3060682577041973
 50
303.1137608322134724
 51
303.1228533852039959
  0
ARC
  5
31D09
  8
0
 10
7067.4983548667178184
 20
190.3480316763944984
 30
0.0
 40
0.000985547589491
 50
300.6383012059648081
 51
343.283914742869797
  0
ARC
  5
31D0A
  8
0
 10
7067.6154728189567322
 20
190.3355281681949123
 30
0.0
 40
0.1168149804699032
 50
159.7896614681949075
 51
173.9952923652029142
  0
ARC
  5
31D0B
  8
0
 10
7067.4601659009476862
 20
190.4130153453118055
 30
0.0
 40
0.042621756333259
 50
247.5027080262954939
 51
268.1807444874568773
  0
ARC
  5
31D0C
  8
0
 10
7067.4697767487932651
 20
190.4980281720773974
 30
0.0
 40
0.1280832201549592
 50
265.0894616911452886
 51
271.7470754646931255
  0
ARC
  5
31D0D
  8
0
 10
7067.4726129686923741
 20
190.4390683918408911
 30
0.0
 40
0.0690721685495705
 50
270.8865421710149235
 51
281.792882487672216
  0
ARC
  5
31D0E
  8
0
 10
7067.4846748191594088
 20
190.381585045371196
 30
0.0
 40
0.010337170509737
 50
281.4651356689468003
 51
303.2463684593753896
  0
ARC
  5
31D0F
  8
0
 10
7069.6656129804187003
 20
187.0458324956688898
 30
0.0
 40
3.9751033818929882
 50
123.0853603970656991
 51
123.1767570916700976
  0
ARC
  5
31D10
  8
0
 10
7067.3805081067876017
 20
190.3405017119413003
 30
0.0
 40
0.2191234001694317
 50
6.0553521090302143
 51
8.189072296332613
  0
ARC
  5
31D11
  8
0
 10
7067.5997976121816464
 20
190.3638945981996926
 30
0.0
 40
0.0014162157341993
 50
191.3095866850185871
 51
237.8197217970480892
  0
ARC
  5
31D12
  8
0
 10
7067.6090430052236115
 20
190.384018255803511
 30
0.0
 40
0.0235506654346074
 50
244.8745566691976876
 51
268.9996665300780023
  0
ARC
  5
31D13
  8
0
 10
7067.6124564512247161
 20
190.4123652577299879
 30
0.0
 40
0.0520348238860149
 50
265.7849158970054191
 51
279.3659260023017055
  0
ARC
  5
31D14
  8
0
 10
7067.6187760289412836
 20
190.3749210016441111
 30
0.0
 40
0.0140620034436952
 50
278.7886261183434726
 51
296.3483414922087036
  0
ARC
  5
31D15
  8
0
 10
7067.3923609887206112
 20
190.6388814064515032
 30
0.0
 40
0.3614072018803367
 50
310.0720725064235239
 51
311.9985479205599859
  0
ARC
  5
31D16
  8
0
 10
7067.6327372552796078
 20
190.3310213726259974
 30
0.0
 40
0.1122090562428428
 50
4.2346733459823271
 51
18.7429235752884082
  0
ARC
  5
31D17
  8
0
 10
7067.74613638009032
 20
190.339756839370807
 30
0.0
 40
0.0015625302786261
 50
196.7286086831117018
 51
248.4431990499396932
  0
ARC
  5
31D18
  8
0
 10
7067.7564823507937035
 20
190.3689935608954045
 30
0.0
 40
0.032574863517478
 50
250.4134576495451938
 51
270.2460822453112996
  0
ARC
  5
31D19
  8
0
 10
7067.7592155216798346
 20
190.3810256492708106
 30
0.0
 40
0.0446819692013769
 50
266.6727825469293975
 51
284.6088651947475228
  0
ARC
  5
31D1A
  8
0
 10
7067.769680938379679
 20
190.3407801104866905
 30
0.0
 40
0.0030980745884199
 50
285.0457267936563994
 51
323.874051064463174
  0
ARC
  5
31D1B
  8
0
 10
7066.7876311662912485
 20
190.9686891117144114
 30
0.0
 40
1.168721422420911
 50
327.3963599460320211
 51
328.2956723368477014
  0
ARC
  5
31D1C
  8
0
 10
7067.8940773943322711
 20
190.3445529982880942
 30
0.0
 40
0.1125703642364447
 50
168.9794658401420122
 51
174.93874786812259
  0
ARC
  5
31D1D
  8
0
 10
7067.7999361615056841
 20
190.2958741887723875
 30
0.0
 40
0.1671922086042822
 50
11.6762301349343005
 51
24.1744786682217203
  0
ARC
  5
31D1E
  8
0
 10
7067.8666313820967844
 20
190.3096572514699005
 30
0.0
 40
0.0990876913755128
 50
5.1996201099421393
 51
11.6762301349358903
  0
ARC
  5
31D1F
  8
0
 10
7067.9667080144799911
 20
190.3187642694529131
 30
0.0
 40
0.0014024580198951
 50
185.1996201100523933
 51
229.8895946379298039
  0
ARC
  5
31D20
  8
0
 10
7067.9793416954944405
 20
190.3690712934705118
 30
0.0
 40
0.0531330692109502
 50
255.2394629768687082
 51
269.5138693196623194
  0
ARC
  5
31D21
  8
0
 10
7069.5444006524030556
 20
190.4559653602316018
 30
0.0
 40
0.150264626775445
 50
170.991330935607408
 51
176.7029075948863976
  0
ARC
  5
31D22
  8
0
 10
7069.3929967161484456
 20
190.4650072799377938
 30
0.0
 40
0.0014444387524988
 50
296.6381125326049073
 51
343.9358530487019152
  0
ARC
  5
31D23
  8
0
 10
7069.3875525876392203
 20
190.4748099794958875
 30
0.0
 40
0.0126563122039447
 50
282.7277256994661911
 51
298.7717101823704979
  0
ARC
  5
31D24
  8
0
 10
7069.3770388059920151
 20
190.5218045758219034
 30
0.0
 40
0.0608126168393381
 50
266.7104316429353048
 51
282.6350826446786186
  0
ARC
  5
31D25
  8
0
 10
7069.7922092647468162
 20
193.5585636772796931
 30
0.0
 40
3.1256368965933081
 50
261.4721456572045213
 51
262.3024442896021924
  0
ARC
  5
31D26
  8
0
 10
7069.6225665559268236
 20
190.362508534155694
 30
0.0
 40
0.6034760066162779
 50
174.1583500235664985
 51
174.5841879439981881
  0
ARC
  5
31D27
  8
0
 10
7069.0206785589607534
 20
190.4196632819686954
 30
0.0
 40
0.0011233144153806
 50
308.0363847070780139
 51
349.9080161426177824
  0
ARC
  5
31D28
  8
0
 10
7069.0146077189119751
 20
190.4296213628308863
 30
0.0
 40
0.0127790769030172
 50
277.996980777078079
 51
301.9529817865404198
  0
ARC
  5
31D29
  8
0
 10
7069.0063503536994176
 20
190.4719736328578961
 30
0.0
 40
0.0559149679464555
 50
269.5845919455705939
 51
280.3390391059785998
  0
ARC
  5
31D2A
  8
0
 10
7069.0060388350466383
 20
190.4645898468085932
 30
0.0
 40
0.0485298030860414
 50
250.210543830438894
 51
269.8891686439134787
  0
ARC
  5
31D2B
  8
0
 10
7069.1363662466092137
 20
190.3717146758208969
 30
0.0
 40
0.1541648285886907
 50
161.6962611971412116
 51
166.7414724552301948
  0
ARC
  5
31D2C
  8
0
 10
7069.0986089687758067
 20
190.3806112659335952
 30
0.0
 40
0.1153735751279821
 50
166.7414724552301948
 51
171.8408165184929999
  0
ARC
  5
31D2D
  8
0
 10
7069.1401447401331097
 20
190.3746560705500031
 30
0.0
 40
0.157334088165423
 50
171.8408165184962968
 51
175.9136303297597124
  0
ARC
  5
31D2E
  8
0
 10
7068.9811122607998186
 20
190.3860176337759924
 30
0.0
 40
0.0021037197768408
 50
316.1944290223215717
 51
355.9136303297792097
  0
ARC
  5
31D2F
  8
0
 10
7068.974259899480785
 20
190.4021936740205092
 30
0.0
 40
0.0195182905278983
 50
275.9136503031626262
 51
295.3951921300468939
  0
ARC
  5
31D30
  8
0
 10
7068.9666304491720439
 20
190.450871842674502
 30
0.0
 40
0.0687716376443797
 50
266.6744006612601083
 51
278.0582640044689811
  0
ARC
  5
31D31
  8
0
 10
7068.9653339431388304
 20
190.4192638182040866
 30
0.0
 40
0.0371455453199332
 50
250.048736079049803
 51
265.8425789742647112
  0
ARC
  5
31D32
  8
0
 10
12987.3866997508903296
 20
20867.0478216364390391
 30
0.0
 40
21507.0284770050711813
 50
254.0268195728455964
 51
254.026898648542101
  0
ARC
  5
31D33
  8
0
 10
7068.9503786140367083
 20
190.4889026740611939
 30
0.0
 40
0.0998989223840027
 50
251.8463943381177899
 51
254.7621973255889998
  0
ARC
  5
31D34
  8
0
 10
7068.9195870804187507
 20
190.3952025085301045
 30
0.0
 40
0.0012708030821522
 50
189.5834084196833942
 51
254.7840015014645019
  0
ARC
  5
31D35
  8
0
 10
7068.7775968563028073
 20
190.3739824762803039
 30
0.0
 40
0.1422965307854542
 50
8.4901064179141503
 51
15.4018212839965098
  0
ARC
  5
31D36
  8
0
 10
7068.7635928527479336
 20
190.3534937421829056
 30
0.0
 40
0.125698487028806
 50
164.3042502267975919
 51
174.7198090119202902
  0
ARC
  5
31D37
  8
0
 10
7068.6362476442582192
 20
190.3657803144552929
 30
0.0
 40
0.0022956174901345
 50
290.3708682153747986
 51
341.7474292187271203
  0
ARC
  5
31D38
  8
0
 10
7068.62822474184577
 20
190.3848570106563898
 30
0.0
 40
0.0229888490317943
 50
274.2800986684367217
 51
292.5662297004226957
  0
ARC
  5
31D39
  8
0
 10
7068.6246620990077645
 20
190.4087510904720091
 30
0.0
 40
0.0471154170803334
 50
257.5040039946575234
 51
276.4323673496722904
  0
ARC
  5
31D3A
  8
0
 10
7068.6205080648351213
 20
190.3815077191505907
 30
0.0
 40
0.0197046047580627
 50
234.5428288876078113
 51
252.1487207879980872
  0
ARC
  5
31D3B
  8
0
 10
7099.970399183463087
 20
242.8757475881014898
 30
0.0
 40
61.1625954055005678
 50
239.1277103491914886
 51
239.1526007485416869
  0
ARC
  5
31D3C
  8
0
 10
7068.6221637500102588
 20
190.4412048585768957
 30
0.0
 40
0.0717436542585537
 50
236.6597924153016095
 51
239.9788657396507006
  0
ARC
  5
31D3D
  8
0
 10
7068.5835349007356854
 20
190.3823507799374113
 30
0.0
 40
0.0013470075546667
 50
190.2220046670005047
 51
233.4527116143914043
  0
ARC
  5
31D3E
  8
0
 10
7068.5494892529077333
 20
190.3789739073802139
 30
0.0
 40
0.0328701341595285
 50
5.4778766392274703
 51
7.6785273327606074
  0
ARC
  5
31D3F
  8
0
 10
7068.6320196270944507
 20
190.3269154955274871
 30
0.0
 40
0.1270013402516816
 50
155.6043802771783078
 51
176.00303241294759
  0
ARC
  5
31D40
  8
0
 10
7068.5044370374716891
 20
190.3359475145038004
 30
0.0
 40
0.0009080790211772
 50
299.7867043384378007
 51
348.5954882600120186
  0
ARC
  5
31D41
  8
0
 10
7068.4948849247657563
 20
190.3594541221303871
 30
0.0
 40
0.0262735126612873
 50
270.4810329861016953
 51
292.3791601854039754
  0
ARC
  5
31D42
  8
0
 10
7068.4902542474183065
 20
190.3951050617085912
 30
0.0
 40
0.06211326590221
 50
261.4523339977438923
 51
274.4795570850574222
  0
ARC
  5
31D43
  8
0
 10
7068.4820454108521517
 20
190.3414185662157934
 30
0.0
 40
0.0078042155085316
 50
237.3861442538467088
 51
262.4664008312759051
  0
ARC
  5
31D44
  8
0
 10
7146.2200913097904049
 20
309.5286337102086804
 30
0.0
 40
142.3060682577041973
 50
236.8771466147960041
 51
236.8862391677864991
  0
ARC
  5
31D45
  8
0
 10
7068.4594269114295457
 20
190.3480316763944984
 30
0.0
 40
0.000985547589491
 50
196.716085257130203
 51
239.3616987940351066
  0
ARC
  5
31D46
  8
0
 10
7068.3423089591906319
 20
190.3355281681949123
 30
0.0
 40
0.1168149804699032
 50
6.0047076347971062
 51
20.210338531805121
  0
ARC
  5
31D47
  8
0
 10
7068.4976158771996779
 20
190.4130153453118055
 30
0.0
 40
0.042621756333259
 50
271.8192555125431227
 51
292.4972919737044776
  0
ARC
  5
31D48
  8
0
 10
7068.4880050293568274
 20
190.4980281720773974
 30
0.0
 40
0.1280832201549592
 50
268.2529245353069882
 51
274.9105383088547114
  0
ARC
  5
31D49
  8
0
 10
7068.4851688094577185
 20
190.4390683918408911
 30
0.0
 40
0.0690721685495705
 50
258.207117512327784
 51
269.1134578289850765
  0
ARC
  5
31D4A
  8
0
 10
7068.4731069589888648
 20
190.381585045371196
 30
0.0
 40
0.010337170509737
 50
236.7536315406246956
 51
258.5348643310531997
  0
ARC
  5
31D4B
  8
0
 10
7066.2921687977295733
 20
187.0458324956688898
 30
0.0
 40
3.9751033818929882
 50
56.8232429083298669
 51
56.9146396029342299
  0
ARC
  5
31D4C
  8
0
 10
7068.5772736713615814
 20
190.3405017119413003
 30
0.0
 40
0.2191234001694317
 50
171.810927703667403
 51
173.9446478909698044
  0
ARC
  5
31D4D
  8
0
 10
7068.3579841659666272
 20
190.3638945981996926
 30
0.0
 40
0.0014162157341993
 50
302.1802782029519108
 51
348.6904133149814129
  0
ARC
  5
31D4E
  8
0
 10
7068.348738772924662
 20
190.384018255803511
 30
0.0
 40
0.0235506654346074
 50
271.0003334699219977
 51
295.1254433308022271
  0
ARC
  5
31D4F
  8
0
 10
7068.3453253269253764
 20
190.4123652577299879
 30
0.0
 40
0.0520348238860149
 50
260.6340739976981808
 51
274.2150841029945809
  0
ARC
  5
31D50
  8
0
 10
7068.3390057492078995
 20
190.3749210016441111
 30
0.0
 40
0.0140620034436952
 50
243.6516585077912964
 51
261.2113738816565274
  0
ARC
  5
31D51
  8
0
 10
7068.5654207894285719
 20
190.6388814064515032
 30
0.0
 40
0.3614072018803367
 50
228.0014520794400141
 51
229.9279274935765045
  0
ARC
  5
31D52
  8
0
 10
7068.3250445228686658
 20
190.3310213726259974
 30
0.0
 40
0.1122090562428428
 50
161.2570764247116131
 51
175.7653266540177128
  0
ARC
  5
31D53
  8
0
 10
7068.2116453980579536
 20
190.339756839370807
 30
0.0
 40
0.0015625302786261
 50
291.5568009500602784
 51
343.2713913168882982
  0
ARC
  5
31D54
  8
0
 10
7068.2012994273563891
 20
190.3689935608954045
 30
0.0
 40
0.032574863517478
 50
269.7539177546887004
 51
289.5865423504546925
  0
ARC
  5
31D55
  8
0
 10
7068.1985662564693484
 20
190.3810256492708106
 30
0.0
 40
0.0446819692013769
 50
255.3911348052525057
 51
273.3272174530707161
  0
ARC
  5
31D56
  8
0
 10
7068.1881008397676851
 20
190.3407801104866905
 30
0.0
 40
0.0030980745884199
 50
216.1259489355367975
 51
254.9542732063434869
  0
ARC
  5
31D57
  8
0
 10
7069.1701506118588441
 20
190.9686891117144114
 30
0.0
 40
1.168721422420911
 50
211.7043276631524122
 51
212.6036400539680074
  0
ARC
  5
31D58
  8
0
 10
7068.063704383816912
 20
190.3445529982880942
 30
0.0
 40
0.1125703642364447
 50
5.0612521318774002
 51
11.0205341598579292
  0
ARC
  5
31D59
  8
0
 10
7068.1578456166425894
 20
190.2958741887723875
 30
0.0
 40
0.1671922086042822
 50
155.8255213317781909
 51
168.3237698650657137
  0
ARC
  5
31D5A
  8
0
 10
7068.0911503960533082
 20
190.3096572514699005
 30
0.0
 40
0.0990876913755128
 50
168.3237698650640937
 51
174.8003798900577976
  0
ARC
  5
31D5B
  8
0
 10
7067.9910737636701015
 20
190.3187642694529131
 30
0.0
 40
0.0014024580198951
 50
310.1104053620701961
 51
354.8003798899475782
  0
ARC
  5
31D5C
  8
0
 10
7067.9784400826556521
 20
190.3690712934705118
 30
0.0
 40
0.0531330692109502
 50
270.4861306803376806
 51
284.7605370231312918
  0
ENDSEC
  0
EOF
