  0
SECTION
  2
HEADER
  9
$ACADVER
  1
AC1009
  9
$INSBASE
 10
7056.5377576824057542
 20
186.1760444255315861
 30
0.0
  9
$EXTMIN
 10
7049.7424820918049591
 20
171.6778483862933911
 30
0.0
  9
$EXTMAX
 10
7056.54924994105113
 20
216.0899608768586972
 30
0.0
  9
$LIMMIN
 10
0.0
 20
0.0
  9
$LIMMAX
 10
11.6929133858000007
 20
8.2677165353999982
  9
$ORTHOMODE
 70
     0
  9
$REGENMODE
 70
     1
  9
$FILLMODE
 70
     1
  9
$QTEXTMODE
 70
     0
  9
$MIRRTEXT
 70
     0
  9
$DRAGMODE
 70
     2
  9
$LTSCALE
 40
0.6431102362
  9
$OSMODE
 70
  4095
  9
$ATTMODE
 70
     1
  9
$TEXTSIZE
 40
0.2
  9
$TRACEWID
 40
0.05
  9
$TEXTSTYLE
  7
STANDARD
  9
$CLAYER
  8
0
  9
$CELTYPE
  6
BYLAYER
  9
$CECOLOR
 62
   256
  9
$DIMSCALE
 40
1.0
  9
$DIMASZ
 40
0.1875
  9
$DIMEXO
 40
0.0625
  9
$DIMDLI
 40
0.4443307087
  9
$DIMRND
 40
0.0
  9
$DIMDLE
 40
0.0
  9
$DIMEXE
 40
0.125
  9
$DIMTP
 40
0.01
  9
$DIMTM
 40
0.01
  9
$DIMTXT
 40
2.0
  9
$DIMCEN
 40
0.1052362205
  9
$DIMTSZ
 40
0.0
  9
$DIMTOL
 70
     1
  9
$DIMLIM
 70
     0
  9
$DIMTIH
 70
     1
  9
$DIMTOH
 70
     1
  9
$DIMSE1
 70
     0
  9
$DIMSE2
 70
     0
  9
$DIMTAD
 70
     0
  9
$DIMZIN
 70
     0
  9
$DIMBLK
  1

  9
$DIMASO
 70
     1
  9
$DIMSHO
 70
     1
  9
$DIMPOST
  1
\X
  9
$DIMAPOST
  1

  9
$DIMALT
 70
     1
  9
$DIMALTD
 70
     2
  9
$DIMALTF
 40
25.3999999999999986
  9
$DIMLFAC
 40
1.0
  9
$DIMTOFL
 70
     0
  9
$DIMTVP
 40
0.0
  9
$DIMTIX
 70
     0
  9
$DIMSOXD
 70
     0
  9
$DIMSAH
 70
     0
  9
$DIMBLK1
  1

  9
$DIMBLK2
  1

  9
$DIMSTYLE
  2
STANDARD
  9
$DIMCLRD
 70
     0
  9
$DIMCLRE
 70
     0
  9
$DIMCLRT
 70
     0
  9
$DIMTFAC
 40
1.0
  9
$DIMGAP
 40
0.09
  9
$LUNITS
 70
     2
  9
$LUPREC
 70
     4
  9
$SKETCHINC
 40
0.1
  9
$FILLETRAD
 40
0.0197
  9
$AUNITS
 70
     0
  9
$AUPREC
 70
     0
  9
$MENU
  1
.
  9
$ELEVATION
 40
0.0
  9
$PELEVATION
 40
0.0
  9
$THICKNESS
 40
0.0
  9
$LIMCHECK
 70
     0
  9
$BLIPMODE
 70
     0
  9
$CHAMFERA
 40
0.0
  9
$CHAMFERB
 40
0.0
  9
$SKPOLY
 70
     0
  9
$TDCREATE
 40
2458060.468368056230247
  9
$TDUPDATE
 40
2460588.696284722071141
  9
$TDINDWG
 40
1.0183751157000001
  9
$TDUSRTIMER
 40
1.0183751157000001
  9
$USRTIMER
 70
     1
  9
$ANGBASE
 50
0.0
  9
$ANGDIR
 70
     0
  9
$PDMODE
 70
     0
  9
$PDSIZE
 40
0.3125
  9
$PLINEWID
 40
0.0
  9
$COORDS
 70
     2
  9
$SPLFRAME
 70
     0
  9
$SPLINETYPE
 70
     6
  9
$SPLINESEGS
 70
     8
  9
$ATTDIA
 70
     1
  9
$ATTREQ
 70
     1
  9
$HANDLING
 70
     1
  9
$HANDSEED
  5
347EE
  9
$SURFTAB1
 70
     6
  9
$SURFTAB2
 70
     6
  9
$SURFTYPE
 70
     6
  9
$SURFU
 70
     6
  9
$SURFV
 70
     6
  9
$UCSNAME
  2

  9
$UCSORG
 10
0.0
 20
0.0
 30
0.0
  9
$UCSXDIR
 10
1.0
 20
0.0
 30
0.0
  9
$UCSYDIR
 10
0.0
 20
1.0
 30
0.0
  9
$PUCSNAME
  2

  9
$PUCSORG
 10
0.0
 20
0.0
 30
0.0
  9
$PUCSXDIR
 10
1.0
 20
0.0
 30
0.0
  9
$PUCSYDIR
 10
0.0
 20
1.0
 30
0.0
  9
$USERI1
 70
     0
  9
$USERI2
 70
     0
  9
$USERI3
 70
     0
  9
$USERI4
 70
     0
  9
$USERI5
 70
     0
  9
$USERR1
 40
0.0
  9
$USERR2
 40
0.0
  9
$USERR3
 40
0.0
  9
$USERR4
 40
0.0
  9
$USERR5
 40
0.0
  9
$WORLDVIEW
 70
     1
  9
$SHADEDGE
 70
     3
  9
$SHADEDIF
 70
    70
  9
$TILEMODE
 70
     1
  9
$MAXACTVP
 70
    64
  9
$PLIMCHECK
 70
     0
  9
$PEXTMIN
 10
1.0000000000000000E+20
 20
1.0000000000000000E+20
 30
1.0000000000000000E+20
  9
$PEXTMAX
 10
-1.0000000000000000E+20
 20
-1.0000000000000000E+20
 30
-1.0000000000000000E+20
  9
$PLIMMIN
 10
0.0
 20
0.0
  9
$PLIMMAX
 10
12.0
 20
9.0
  9
$UNITMODE
 70
     0
  9
$VISRETAIN
 70
     1
  9
$PLINEGEN
 70
     0
  9
$PSLTSCALE
 70
     1
  0
ENDSEC
  0
SECTION
  2
TABLES
  0
TABLE
  2
VPORT
 70
     1
  0
VPORT
  2
*ACTIVE
 70
     0
 10
0.0
 20
0.0
 11
1.0
 21
1.0
 12
3141.7805095711159993
 22
61.304299529037003
 13
0.0
 23
0.0
 14
1.0
 24
1.0
 15
0.0
 25
0.0
 16
0.0
 26
0.0
 36
60.4960186965801583
 17
3911.3653564453120453
 27
132.5796051025390057
 37
0.0
 40
44.7270920117750208
 41
2.2426035502958581
 42
50.0
 43
0.0
 44
0.0
 50
0.0
 51
0.0
 71
     0
 72
   100
 73
     1
 74
     1
 75
     0
 76
     0
 77
     0
 78
     0
  0
ENDTAB
  0
TABLE
  2
LTYPE
 70
     2
  0
LTYPE
  2
CONTINUOUS
 70
     0
  3
Solid line
 72
    65
 73
     0
 40
0.0
  0
LTYPE
  2
PHANTOM2
 70
     0
  3
___ _ _ ___ _ _ ___ _ _ ___ _ _
 72
    65
 73
     6
 40
1.25
 49
0.625
 49
-0.125
 49
0.125
 49
-0.125
 49
0.125
 49
-0.125
  0
ENDTAB
  0
TABLE
  2
LAYER
 70
     2
  0
LAYER
  2
0
 70
     0
 62
   255
  6
CONTINUOUS
  0
LAYER
  2
DEFPOINTS
 70
     0
 62
     7
  6
CONTINUOUS
  0
ENDTAB
  0
TABLE
  2
STYLE
 70
     1
  0
STYLE
  2
STANDARD
 70
     0
 40
0.0
 41
0.8
 50
0.0
 71
     0
 42
0.2
  3
txt
  4

  0
ENDTAB
  0
TABLE
  2
VIEW
 70
     0
  0
ENDTAB
  0
TABLE
  2
UCS
 70
     0
  0
ENDTAB
  0
TABLE
  2
APPID
 70
    11
  0
APPID
  2
ACAD
 70
     0
  0
APPID
  2
ACAD_MLEADERVER
 70
     0
  0
APPID
  2
ACAD_EXEMPT_FROM_CAD_STANDARDS
 70
     0
  0
APPID
  2
ACAD_NAV_VCDISPLAY
 70
     0
  0
APPID
  2
ACAECLAYERSTANDARD
 70
     0
  0
APPID
  2
ACCMTRANSPARENCY
 70
     0
  0
APPID
  2
ACAD_DSTYLE_DIMJAG
 70
     0
  0
APPID
  2
ACAD_DSTYLE_DIMTALN
 70
     0
  0
APPID
  2
ACDBATTR
 70
     0
  0
APPID
  2
ACADANNOTATIVE
 70
     0
  0
APPID
  2
DCO15
 70
     0
  0
ENDTAB
  0
TABLE
  2
DIMSTYLE
 70
     1
  0
DIMSTYLE
  2
STANDARD
 70
     0
  3

  4

  5

  6

  7

 40
1.0
 41
0.1875
 42
0.0625
 43
0.38
 44
0.125
 45
0.0
 46
0.0
 47
0.01
 48
0.01
140
0.15625
141
0.09
142
0.0
143
25.3999999999999986
144
1.0
145
0.0
146
1.0
147
0.09
 71
     1
 72
     0
 73
     1
 74
     1
 75
     0
 76
     0
 77
     0
 78
     4
170
     0
171
     2
172
     0
173
     0
174
     0
175
     0
176
     0
177
     0
178
     0
  0
ENDTAB
  0
ENDSEC
  0
SECTION
  2
BLOCKS
  0
BLOCK
  8
0
  2
$MODEL_SPACE
 70
     0
 10
0.0
 20
0.0
 30
0.0
  3
$MODEL_SPACE
  1

  0
ENDBLK
  5
21
  8
0
  0
BLOCK
 67
     1
  8
0
  2
$PAPER_SPACE
 70
     0
 10
0.0
 20
0.0
 30
0.0
  3
$PAPER_SPACE
  1

  0
ENDBLK
  5
1D
 67
     1
  8
0
  0
BLOCK
  8
0
  2
_FILLED
 70
     0
 10
0.0
 20
0.0
 30
0.0
  3
_FILLED
  1

  0
SOLID
  5
2FD5F
  8
0
  6
BYBLOCK
 62
     0
 10
0.0
 20
0.0
 30
0.0
 11
-1.0
 21
0.1666666667
 31
0.0
 12
-1.0
 22
-0.1666666667
 32
0.0
 13
-1.0
 23
-0.1666666667
 33
0.0
  0
ENDBLK
  5
2FD60
  8
0
  6
BYBLOCK
 62
     0
  0
ENDSEC
  0
SECTION
  2
ENTITIES
  0
ATTDEF
  5
26A5B
  8
DEFPOINTS
 10
7056.5385832743813808
 20
186.1793009990925043
 30
0.0
 40
0.001
  1
K-36518T-4
  3

  2
MODELNUMBER
 70
     0
1001
ACDBATTR
1070
     0
1070
     1
  0
ATTDEF
  5
26A5C
  8
DEFPOINTS
 10
7056.5384574647241607
 20
186.1776341587134027
 30
0.0
 40
0.001
  1
FLUENCE
  3

  2
TRADENAME
 70
     0
1001
ACDBATTR
1070
     0
1070
     1
  0
ATTDEF
  5
26A5D
  8
DEFPOINTS
 10
7056.5385832743813808
 20
186.1759676657592024
 30
0.0
 40
0.001
  1
BATH/SHOWER FAUCET
  3

  2
PRODUCT
 70
     0
1001
ACDBATTR
1070
     0
1070
     1
  0
LINE
  5
34095
  8
0
 10
7056.5377576824057542
 20
184.8177917105315942
 30
0.0
 11
7056.5377576824057542
 21
187.5342972223315883
 31
0.0
  0
LINE
  5
34096
  8
0
 10
7056.5377576824057542
 20
204.8296906206464882
 30
0.0
 11
7056.5377576824057542
 21
207.0877147663074993
 31
0.0
  0
LINE
  5
34097
  8
0
 10
7051.0266615665750578
 20
187.5539972223315885
 30
0.0
 11
7054.4931670318974284
 21
187.5539972223315885
 31
0.0
  0
LINE
  5
34098
  8
0
 10
7055.090340784633554
 20
187.5539972223315885
 30
0.0
 11
7056.5180576824059244
 21
187.5539972223315885
 31
0.0
  0
LINE
  5
34099
  8
0
 10
7051.121524029408647
 20
184.7980917105315939
 30
0.0
 11
7054.5028681301282631
 21
184.7980917105315939
 31
0.0
  0
LINE
  5
3409A
  8
0
 10
7055.1013098096073008
 20
184.7980917105315939
 30
0.0
 11
7056.5180576824059244
 21
184.7980917105315939
 31
0.0
  0
ARC
  5
3409B
  8
0
 10
7056.5180576824059244
 20
184.8177917105315942
 30
0.0
 40
0.0197
 50
270.0
 51
0.0000000000032569
  0
ARC
  5
3409C
  8
0
 10
7056.5180576824059244
 20
187.5342972223315883
 30
0.0
 40
0.0197
 50
0.0
 51
90.0
  0
LINE
  5
3409D
  8
0
 10
7051.1018360301168286
 20
184.8171041904462868
 30
0.0
 11
7051.0069735672823299
 21
187.5336097022463093
 31
0.0
  0
ARC
  5
3409E
  8
0
 10
7051.121524029408647
 20
184.8177917105315942
 30
0.0
 40
0.0197
 50
182.0000000006874927
 51
270.0
  0
ARC
  5
3409F
  8
0
 10
7051.0266615665750578
 20
187.5342972223315883
 30
0.0
 40
0.0197
 50
90.0
 51
182.0000000006940013
  0
LINE
  5
340A0
  8
0
 10
7051.0121671312062972
 20
186.9891026115346051
 30
0.0
 11
7051.0121671312062972
 21
186.0177367699008926
 31
0.0
  0
ARC
  5
340A1
  8
0
 10
7051.1521746748057922
 20
186.0285729135316046
 30
0.0
 40
0.9842519685
 50
98.9810629633335566
 51
120.7725807415116037
  0
ARC
  5
340A2
  8
0
 10
7051.000367131206076
 20
186.9891026115346051
 30
0.0
 40
0.0118
 50
0.0000000000488533
 51
98.9810629632279131
  0
LINE
  5
340A3
  8
0
 10
7051.0126292236172958
 20
186.0166481484033909
 30
0.0
 11
7050.5355900899558037
 21
187.1404819202049055
 31
0.0
  0
LINE
  5
340A4
  8
0
 10
7051.022009650905602
 20
185.9705418752477897
 30
0.0
 11
7051.022009650905602
 21
185.2653590545669999
 31
0.0
  0
ARC
  5
340A5
  8
0
 10
7050.9040096509061186
 20
185.9705418752477897
 30
0.0
 40
0.118
 50
0.0
 51
22.9999999967424209
  0
LINE
  5
340A6
  8
0
 10
7051.0121671312062972
 20
186.8619328824316028
 30
0.0
 11
7051.0304401769199103
 21
186.8616139252314099
 31
0.0
  0
LINE
  5
340A7
  8
0
 10
7050.5249340710806791
 20
187.1476694956922131
 30
0.0
 11
7049.8026135290292586
 21
187.1602776476730128
 31
0.0
  0
ARC
  5
340A8
  8
0
 10
7049.8015820918071768
 20
187.101186648889211
 30
0.0
 40
0.0591
 50
88.9999999984086259
 51
180.0
  0
ARC
  5
340A9
  8
0
 10
7050.524728132684686
 20
187.1358712928893056
 30
0.0
 40
0.0118
 50
22.9999999967394189
 51
88.9999999984086259
  0
LINE
  5
340AA
  8
0
 10
7049.7424820918049591
 20
182.7375900959465014
 30
0.0
 11
7049.7424820918049591
 21
187.101186648889211
 31
0.0
  0
LINE
  5
340AB
  8
0
 10
7049.7999079630726555
 20
182.6523939842095103
 30
0.0
 11
7049.8424791484449088
 21
182.6531369722418106
 31
0.0
  0
ARC
  5
340AC
  8
0
 10
7049.8675337990625849
 20
182.7464892828199936
 30
0.0
 40
0.1253679584859717
 50
184.0705378912105061
 51
202.9201450564146967
  0
ARC
  5
340AD
  8
0
 10
7049.8645971269206711
 20
182.7460034113310883
 30
0.0
 40
0.1224758979034122
 50
203.2458236537133018
 51
219.5105000890924032
  0
ARC
  5
340AE
  8
0
 10
7049.8072155665267928
 20
182.6986840389313045
 30
0.0
 40
0.0481000518397103
 50
219.5105000890943074
 51
238.0668511630867954
  0
ARC
  5
340AF
  8
0
 10
7049.8032291535464537
 20
182.6962034216969073
 30
0.0
 40
0.0439351467407483
 50
240.7687209023602009
 51
265.6647033585329041
  0
LINE
  5
340B0
  8
0
 10
7049.8802748836296814
 20
182.8196387051258966
 30
0.0
 11
7049.8802748836296814
 21
185.152542584875988
 31
0.0
  0
ARC
  5
340B1
  8
0
 10
7049.2263333758828594
 20
182.828011887415613
 30
0.0
 40
0.6539951114003605
 50
350.6395945221631791
 51
359.2664148315187163
  0
ARC
  5
340B2
  8
0
 10
7049.6022068640877478
 20
182.766509211109792
 30
0.0
 40
0.2731237765286024
 50
340.7850326631789812
 51
350.5452214306586143
  0
ARC
  5
340B3
  8
0
 10
7049.7980478104682334
 20
182.6982528093546136
 30
0.0
 40
0.0657289534036919
 50
325.1994885500726014
 51
340.7850326631805729
  0
ARC
  5
340B4
  8
0
 10
7049.8345394288626267
 20
182.6728899907755022
 30
0.0
 40
0.0212889851389044
 50
291.8976453316230959
 51
325.1994885500772057
  0
LINE
  5
340B5
  8
0
 10
7051.0105781977290462
 20
185.2535648113424998
 30
0.0
 11
7050.5838392130808643
 21
185.2402300602940954
 31
0.0
  0
LINE
  5
340B6
  8
0
 10
7050.2804423376674094
 20
185.2307495067283867
 30
0.0
 11
7050.1204680480232128
 21
185.225750625905988
 31
0.0
  0
ARC
  5
340B7
  8
0
 10
7051.0102096509062903
 20
185.2653590545669999
 30
0.0
 40
0.0118
 50
271.7897976382284924
 51
0.0000000000162844
  0
ARC
  5
340B8
  8
0
 10
7050.4617275964028522
 20
184.2886517121145005
 30
0.0
 40
0.9591382493841139
 50
82.8698875704105262
 51
100.7097077061367969
  0
ARC
  5
340B9
  8
0
 10
7050.2798270518678692
 20
185.2504398958406
 30
0.0
 40
0.0197
 50
271.7897976382806746
 51
280.7097077061371806
  0
ARC
  5
340BA
  8
0
 10
7050.583223927283143
 20
185.2599204494061951
 30
0.0
 40
0.0197
 50
262.8698875704105262
 51
271.7897976382806746
  0
ARC
  5
340BB
  8
0
 10
7049.996159267117946
 20
185.046419869604307
 30
0.0
 40
0.1571344043583435
 50
116.776610016710805
 51
137.5176778797975885
  0
ARC
  5
340BC
  8
0
 10
7050.0552776766617171
 20
184.9199884196775088
 30
0.0
 40
0.2966716520336163
 50
99.8758299413223938
 51
115.9693258600617014
  0
ARC
  5
340BD
  8
0
 10
7050.1878139106120216
 20
184.1398991726838119
 30
0.0
 40
1.0879378859443141
 50
93.5490098437378634
 51
99.706061706266226
  0
LINE
  5
340BE
  8
0
 10
7051.022009650905602
 20
185.4903278522315873
 30
0.0
 11
7051.0782922350681474
 21
185.4913102684309933
 31
0.0
  0
LINE
  5
340BF
  8
0
 10
7051.0543807913991259
 20
186.1760444255315861
 30
0.0
 11
7054.4980175811570007
 21
186.1760444255315861
 31
0.0
  0
LINE
  5
340C0
  8
0
 10
7055.095825297283227
 20
186.1760444255315861
 30
0.0
 11
7056.5377576824057542
 21
186.1760444255315861
 31
0.0
  0
LINE
  5
340C1
  8
0
 10
7051.0547244983317796
 20
186.1662019467316043
 30
0.0
 11
7054.498052227791959
 21
186.1662019467316043
 31
0.0
  0
LINE
  5
340C2
  8
0
 10
7055.0958644722104509
 20
186.1662019467316043
 30
0.0
 11
7056.5377576824057542
 21
186.1662019467316043
 31
0.0
  0
LINE
  5
340C3
  8
0
 10
7056.3912594304047161
 20
186.1760444255315861
 30
0.0
 11
7056.3912594304047161
 21
186.1662019467316043
 31
0.0
  0
LINE
  5
340C4
  8
0
 10
7056.371571222755847
 20
186.1760444255315861
 30
0.0
 11
7056.371571222755847
 21
186.1662019467316043
 31
0.0
  0
LINE
  5
340C5
  8
0
 10
7056.3518862271557737
 20
186.1760444255315861
 30
0.0
 11
7056.3518862271557737
 21
186.1662019467316043
 31
0.0
  0
LINE
  5
340C6
  8
0
 10
7056.32351006830595
 20
186.1760444255315861
 30
0.0
 11
7056.32351006830595
 21
186.1662019467316043
 31
0.0
  0
LINE
  5
340C7
  8
0
 10
7056.0637390147730912
 20
186.1760444255315861
 30
0.0
 11
7056.0635672137068468
 21
186.1662019467316043
 31
0.0
  0
LINE
  5
340C8
  8
0
 10
7056.0064019163646662
 20
186.1760444255315861
 30
0.0
 11
7056.0065737174072638
 21
186.1662019467316043
 31
0.0
  0
LINE
  5
340C9
  8
0
 10
7051.5375314849570714
 20
186.1760444255315861
 30
0.0
 11
7051.5375314849570714
 21
186.1662019467316043
 31
0.0
  0
LINE
  5
340CA
  8
0
 10
7051.4803659469071135
 20
186.1760444255315861
 30
0.0
 11
7051.4803659469071135
 21
186.1662019467316043
 31
0.0
  0
LINE
  5
340CB
  8
0
 10
7051.1527618572572464
 20
186.1760444255315861
 30
0.0
 11
7051.1527618572572464
 21
186.1662019467316043
 31
0.0
  0
LINE
  5
340CC
  8
0
 10
7051.1724480790562666
 20
186.1760444255315861
 30
0.0
 11
7051.1724480790562666
 21
186.1662019467316043
 31
0.0
  0
LINE
  5
340CD
  8
0
 10
7051.1921319976063387
 20
186.1760444255315861
 30
0.0
 11
7051.1921319976063387
 21
186.1662019467316043
 31
0.0
  0
LINE
  5
340CE
  8
0
 10
7051.2205092335061636
 20
186.1760444255315861
 30
0.0
 11
7051.2205092335061636
 21
186.1662019467316043
 31
0.0
  0
LINE
  5
340CF
  8
0
 10
7055.1069510224533587
 20
183.3807688758315919
 30
0.0
 11
7055.5443203894010367
 21
183.3807688758315919
 31
0.0
  0
LINE
  5
340D0
  8
0
 10
7055.6125608320062383
 20
184.7980917105315939
 30
0.0
 11
7055.5640085246468516
 21
183.3997852600238048
 31
0.0
  0
ARC
  5
340D1
  8
0
 10
7055.5443203894010367
 20
183.4004688758315922
 30
0.0
 40
0.0197
 50
270.0
 51
358.0113621414774911
  0
LINE
  5
340D2
  8
0
 10
7054.429890337029974
 20
205.5297550160316007
 30
0.0
 11
7054.5293482415563631
 21
177.275573817481586
 31
0.0
  0
ARC
  5
340D3
  8
0
 10
7175.3411359619249197
 20
177.700844936268993
 30
0.0
 40
120.8125362192019026
 50
180.2016867730669105
 51
181.8184773903873008
  0
ARC
  5
340D4
  8
0
 10
7100.5458128154541555
 20
175.3261623037901131
 30
0.0
 40
45.97952557423352
 50
181.8184773903873008
 51
184.1435128861216981
  0
ARC
  5
340D5
  8
0
 10
7055.0392885407472932
 20
172.0294749966041081
 30
0.0
 40
0.3537444985531967
 50
184.1435128861216981
 51
263.7156833519351835
  0
ARC
  5
340D6
  8
0
 10
7055.0027742873071475
 20
171.9910759780235026
 30
0.0
 40
0.3132275917300993
 50
269.596215965546719
 51
343.9305847379017109
  0
ARC
  5
340D7
  8
0
 10
7035.9767159878419989
 20
173.9457531257085918
 30
0.0
 40
19.4345563548457712
 50
353.9706080404678801
 51
0.3004971551512854
  0
ARC
  5
340D8
  8
0
 10
6345.4461169395963225
 20
182.0531246417162947
 30
0.0
 40
710.0100206998729391
 50
359.3539698393531125
 51
0.1071371578172177
  0
LINE
  5
340D9
  8
0
 10
7055.0193515682831276
 20
205.3896364925722082
 30
0.0
 11
7055.1359111769561423
 21
176.1046937831816024
 31
0.0
  0
ARC
  5
340DA
  8
0
 10
7120.1916893952266037
 20
176.3636280801090095
 30
0.0
 40
65.0562935199580608
 50
180.2280468307276919
 51
181.9416257296273045
  0
ARC
  5
340DB
  8
0
 10
7076.6959127407462802
 20
174.2785669092087915
 30
0.0
 40
21.5234954365360096
 50
180.3171245227584052
 51
186.3330148494638081
  0
ARC
  5
340DC
  8
0
 10
7056.5886776543084125
 20
201.5931563598676064
 30
0.0
 40
5.4947943478640431
 50
90.5309645925288464
 51
91.6806615146011978
  0
ARC
  5
340DD
  8
0
 10
7056.3942382378390903
 20
207.0836314117916004
 30
0.0
 40
0.0333407012831087
 50
356.6351900869045721
 51
3.36248532384518
  0
ARC
  5
340DE
  8
0
 10
7054.2185183787505594
 20
256.2750316186489954
 30
0.0
 40
49.2429291934621318
 50
272.3418583180919086
 51
272.571111094703781
  0
ARC
  5
340DF
  8
0
 10
6956.9827808665177145
 20
207.0742048474008072
 30
0.0
 40
99.2478902064797239
 50
359.9994370179629755
 51
0.0016883823926415
  0
ARC
  5
340E0
  8
0
 10
7057.0421701850627869
 20
193.4955729097613073
 30
0.0
 40
13.6057785301221905
 50
93.4193624234590345
 51
97.167062138197025
  0
LINE
  5
340E1
  8
0
 10
7056.1495515060660182
 20
204.8388679698348085
 30
0.0
 11
7056.5377576824057542
 21
204.8296906206464882
 31
0.0
  0
ARC
  5
340E2
  8
0
 10
7056.1453075557346892
 20
200.6782395217668977
 30
0.0
 40
6.2612506309436702
 50
97.7092780755346411
 51
105.9277249801627931
  0
ARC
  5
340E3
  8
0
 10
7054.4429831953639223
 20
206.6433388639729003
 30
0.0
 40
0.058
 50
105.9277249801627931
 51
135.3958558085641073
  0
LINE
  5
340E4
  8
0
 10
7055.3274320111058842
 20
206.9754978136870136
 30
0.0
 11
7055.3274320111058842
 21
206.8886578665494937
 31
0.0
  0
ARC
  5
340E5
  8
0
 10
7055.3471320111057139
 20
206.9754978136870136
 30
0.0
 40
0.0197
 50
97.167062138196826
 51
179.9999999999901945
  0
ARC
  5
340E6
  8
0
 10
7055.2946592094540392
 20
206.9690303598750916
 30
0.0
 40
0.0867974320559225
 50
277.0961536303441903
 51
292.1837394747109897
  0
ARC
  5
340E7
  8
0
 10
7054.9618173241506156
 20
206.1316248921355054
 30
0.0
 40
0.7867249427384791
 50
135.3958558085629136
 51
233.8521615968697915
  0
ARC
  5
340E8
  8
0
 10
7054.5319637788197724
 20
205.543181206015106
 30
0.0
 40
0.058
 50
233.8521615968697915
 51
263.3262696605573865
  0
ARC
  5
340E9
  8
0
 10
7054.1363790321220222
 20
202.1623521493617943
 30
0.0
 40
3.3458937119321601
 50
60.8629468369106235
 51
83.3262696606092135
  0
ARC
  5
340EA
  8
0
 10
7053.7124795357149196
 20
201.6343616125747928
 30
0.0
 40
4.0150633402649492
 50
53.2249127027448523
 51
59.247639120615041
  0
ARC
  5
340EB
  8
0
 10
7056.1509222662662069
 20
204.8968517694383991
 30
0.0
 40
0.058
 50
233.2249127027025963
 51
268.6457571128237873
  0
ARC
  5
340EC
  8
0
 10
7056.2719422533364195
 20
193.3238606398195998
 30
0.0
 40
13.4723446573449799
 50
93.2760462034257785
 51
97.7561695783628153
  0
ARC
  5
340ED
  8
0
 10
7054.4615741521838572
 20
206.6154824341820131
 30
0.0
 40
0.058
 50
97.7561695783628153
 51
133.2701246947736138
  0
ARC
  5
340EE
  8
0
 10
7056.2819212494659951
 20
182.5134868796546925
 30
0.0
 40
24.2732334947776991
 50
89.3960994415824928
 51
91.841181322660816
  0
ARC
  5
340EF
  8
0
 10
7054.9436058511064402
 20
206.1034281486078044
 30
0.0
 40
0.7612454408967676
 50
133.2701246947736138
 51
195.7097466083376958
  0
LINE
  5
340F0
  8
0
 10
7054.5843558461965586
 20
206.8683376931315934
 30
0.0
 11
7055.2040615239457111
 21
206.8683376931315934
 31
0.0
  0
LINE
  5
340F1
  8
0
 10
7054.3724033517064527
 20
206.7357531866352076
 30
0.0
 11
7054.3724033517064527
 21
206.6527077114772908
 31
0.0
  0
ARC
  5
340F2
  8
0
 10
7054.962671112726639
 20
206.1206513007423098
 30
0.0
 40
0.8651152173489972
 50
124.4886209849447027
 51
131.8467208706915983
  0
ARC
  5
340F3
  8
0
 10
7054.5843558461965586
 20
206.6713376931313064
 30
0.0
 40
0.197
 50
90.0
 51
124.4886209849322967
  0
ARC
  5
340F4
  8
0
 10
7054.4118033517061122
 20
206.7357531866352076
 30
0.0
 40
0.0394
 50
131.8467208708435976
 51
179.9999999999315889
  0
ARC
  5
340F5
  8
0
 10
7054.9573648092491567
 20
206.1366799658397895
 30
0.0
 40
0.7033295713884145
 50
100.8480931471437998
 51
119.5683973885877975
  0
ARC
  5
340F6
  8
0
 10
7054.9646265406481689
 20
206.0987854756268973
 30
0.0
 40
0.741913572365628
 50
85.3941306104280642
 51
100.8480931471437998
  0
LINE
  5
340F7
  8
0
 10
7054.3225304622501426
 20
205.5487714002225914
 30
0.0
 11
7054.317991567028912
 21
205.6794915821544976
 31
0.0
  0
LINE
  5
340F8
  8
0
 10
7054.2881817948518801
 20
206.5380130184310872
 30
0.0
 11
7054.2739781548070823
 21
206.9470778506315867
 31
0.0
  0
LINE
  5
340F9
  8
0
 10
7054.3422185974941385
 20
205.5297550160316007
 30
0.0
 11
7054.4551726875806708
 21
205.5297550160316007
 31
0.0
  0
ARC
  5
340FA
  8
0
 10
7054.3422185974941385
 20
205.549455016031601
 30
0.0
 40
0.0197
 50
181.988637862077212
 51
270.0000000000521254
  0
LINE
  5
340FB
  8
0
 10
7054.2460296160061262
 20
206.9470778506315867
 30
0.0
 11
7055.2074596069160179
 21
206.9470778506315867
 31
0.0
  0
LINE
  5
340FC
  8
0
 10
7054.234229616005905
 20
208.3977702177689935
 30
0.0
 11
7054.234229616005905
 21
206.9588778506316089
 31
0.0
  0
ARC
  5
340FD
  8
0
 10
7037.3735678446901147
 20
208.0634303043977127
 30
0.0
 40
17.8798645709015709
 50
356.455879729001424
 51
1.6898107467144721
  0
ARC
  5
340FE
  8
0
 10
7055.2074596069160179
 20
206.9588778506316089
 30
0.0
 40
0.0118
 50
270.0
 51
356.4558797289884069
  0
ARC
  5
340FF
  8
0
 10
7035.2537033025500932
 20
208.0008915119296944
 30
0.0
 40
20.0006514007326608
 50
1.6898107467144721
 51
7.1002779721831768
  0
ARC
  5
34100
  8
0
 10
7037.1413647208783004
 20
208.2516652978281968
 30
0.0
 40
18.0964752602962697
 50
7.0511274195570941
 51
14.1327603647275808
  0
ARC
  5
34101
  8
0
 10
7040.9403297025401116
 20
209.2802134531698925
 30
0.0
 40
14.1615272408439505
 50
13.8502552310536604
 51
24.2365399056358086
  0
ARC
  5
34102
  8
0
 10
7046.0893831209659766
 20
211.6316697022917879
 30
0.0
 40
8.5010900264245883
 50
24.0310760279209994
 51
31.4818798286967514
  0
LINE
  5
34103
  8
0
 10
7053.2963036336032019
 20
216.0888350197926968
 30
0.0
 11
7052.7829030755437998
 21
215.9632299814853127
 31
0.0
  0
ARC
  5
34104
  8
0
 10
7042.3483746060883277
 20
208.1079278474873888
 30
0.0
 40
11.8893884584705898
 50
1.3969086747792621
 51
10.0525862235939698
  0
ARC
  5
34105
  8
0
 10
8363.4262435063137673
 20
563.5659859616945369
 30
0.0
 40
1355.994941197757953
 50
194.8554167409193099
 51
194.9076256735623076
  0
ARC
  5
34106
  8
0
 10
2147.8492481246830721
 20
-1091.1570272823139476
 30
0.0
 40
5076.0735935798893479
 50
14.8896842020538394
 51
14.9076256735623698
  0
ARC
  5
34107
  8
0
 10
6433.4549901760483408
 20
48.3283028595744213
 30
0.0
 40
641.5676014864982335
 50
14.7972665591375101
 51
14.8896842020538394
  0
ARC
  5
34108
  8
0
 10
7032.7074181404886986
 20
206.4440460723249942
 30
0.0
 40
21.8070511636311295
 50
12.4755376770157707
 51
15.2621231386195504
  0
ARC
  5
34109
  8
0
 10
7036.2451158687890711
 20
207.0753773207040922
 30
0.0
 40
18.2171020453818606
 50
10.1166266073014892
 51
12.9403942565113805
  0
ARC
  5
3410A
  8
0
 10
7045.1432661922226544
 20
208.5256489264913
 30
0.0
 40
9.2035481985886651
 50
3.637157672076591
 51
10.9586947906675292
  0
ARC
  5
3410B
  8
0
 10
7037.4825699242610426
 20
208.0140698765023899
 30
0.0
 40
16.8812855785231086
 50
359.9788342478451
 51
3.7205536707568831
  0
ARC
  5
3410C
  8
0
 10
6974.0304759203336289
 20
208.0027616001457034
 30
0.0
 40
80.3333785907185387
 50
359.2555643408609853
 51
0.0036175673867216
  0
ARC
  5
3410D
  8
0
 10
7054.3688729014265846
 20
206.9588778506316089
 30
0.0
 40
0.0118
 50
179.2555643408967967
 51
270.0
  0
ARC
  5
3410E
  8
0
 10
7054.2460296160061262
 20
206.9588778506316089
 30
0.0
 40
0.0118
 50
180.0000000000163141
 51
270.0
  0
LINE
  5
3410F
  8
0
 10
7055.1794899659053044
 20
206.9470778506315867
 30
0.0
 11
7055.1767559326062837
 21
206.8683376931315934
 31
0.0
  0
ARC
  5
34110
  8
0
 10
7053.3056430560291119
 20
216.0506608768587
 30
0.0
 40
0.0393
 50
31.4818798286981405
 51
103.7475487951644055
  0
ARC
  5
34111
  8
0
 10
7052.7922424979688003
 20
215.9250558385514864
 30
0.0
 40
0.0393
 50
103.7475487949501058
 51
194.8554167404984128
  0
ARC
  5
34112
  8
0
 10
10056.3837376968494937
 20
1010.5502774199469513
 30
0.0
 40
3106.9776348422042247
 50
194.8194618949306971
 51
194.8488319103391007
  0
ARC
  5
34113
  8
0
 10
7052.7664538147109852
 20
215.8687889889812084
 30
0.0
 40
0.012
 50
182.5147235623850008
 51
194.8194618916255934
  0
ARC
  5
34114
  8
0
 10
4331.7069848498986175
 20
-507.1953468130831766
 30
0.0
 40
2815.4775743142899955
 50
14.8212051717881099
 51
14.8488319103391309
  0
ARC
  5
34115
  8
0
 10
6957.9481132009550493
 20
187.7274148166173973
 30
0.0
 40
98.8509697045082447
 50
14.0312059993908704
 51
14.8212051717881099
  0
ARC
  5
34116
  8
0
 10
7043.8791282535121354
 20
209.2021414727946933
 30
0.0
 40
10.2772533270163198
 50
11.4472976056552103
 51
14.0312059993908704
  0
ARC
  5
34117
  8
0
 10
7199.8237389338573848
 20
242.768152514242388
 30
0.0
 40
149.2397055474822878
 50
192.1953927448747947
 51
192.4004738882258039
  0
ARC
  5
34118
  8
0
 10
7037.8604852711459898
 20
207.2754717136295142
 30
0.0
 40
16.5672511956494191
 50
11.6996803951718107
 51
11.9996925508672891
  0
ARC
  5
34119
  8
0
 10
7053.3037330921661123
 20
210.4761611418049938
 30
0.0
 40
0.7958157083384697
 50
352.7787277294434034
 51
11.51381327730161
  0
ARC
  5
3411A
  8
0
 10
7052.2241122150871888
 20
210.6546957865787135
 30
0.0
 40
1.889768950261421
 50
345.7117470916199977
 51
351.5231660330097156
  0
ARC
  5
3411B
  8
0
 10
7054.0670525142877523
 20
210.1853385731903927
 30
0.0
 40
0.012
 50
165.7117470916167861
 51
190.0525862235899126
  0
ARC
  5
3411C
  8
0
 10
7052.7676532863024477
 20
215.8372142708230967
 30
0.0
 40
0.0118481924925011
 50
130.2269844623801873
 51
185.2119120062573927
  0
ARC
  5
3411D
  8
0
 10
7231.7306445846606948
 20
226.4023364001400012
 30
0.0
 40
179.2864194109897085
 50
183.3786696228416133
 51
183.4889806092014055
  0
ARC
  5
3411E
  8
0
 10
7052.7435157806321513
 20
215.4889764100304035
 30
0.0
 40
0.0331154506337632
 50
334.7120225573034986
 51
4.5083378773376372
  0
ARC
  5
3411F
  8
0
 10
7052.7065815487603686
 20
215.5174262580480899
 30
0.0
 40
0.0792895615810176
 50
295.7530464236090211
 51
327.5056004156730864
  0
ARC
  5
34120
  8
0
 10
7052.6122530359607481
 20
215.6826891718226022
 30
0.0
 40
0.2694441134430549
 50
289.9135692437083094
 51
298.5512282556376817
  0
LINE
  5
34121
  8
0
 10
7052.7040263011058414
 20
215.429355798431601
 30
0.0
 11
7052.7221463235046031
 21
215.3286101496316007
 31
0.0
  0
LINE
  5
34122
  8
0
 10
7052.7221463235046031
 20
215.3286101496316007
 30
0.0
 11
7052.7278608083279323
 21
215.328849135834389
 31
0.0
  0
ARC
  5
34123
  8
0
 10
7020.6809057579012006
 20
215.2837994058253912
 30
0.0
 40
32.0898181827112907
 50
0.5925020597314257
 51
0.7316623073518138
  0
ARC
  5
34124
  8
0
 10
7032.9296550553799534
 20
213.6817185311313096
 30
0.0
 40
19.9402044334938111
 50
5.0447763170356312
 51
5.7906736254770372
  0
ARC
  5
34125
  8
0
 10
7052.5729262047989323
 20
215.4139570717628089
 30
0.0
 40
0.2207099402401625
 50
1.748876085484901
 51
5.5088670558564621
  0
ARC
  5
34126
  8
0
 10
7052.7678805212199222
 20
215.4199096370533084
 30
0.0
 40
0.0256647697670643
 50
325.2039906892254066
 51
1.748876085488156
  0
ARC
  5
34127
  8
0
 10
7052.7406818787512748
 20
215.4482272602446074
 30
0.0
 40
0.064623970990835
 50
298.4758488358135082
 51
318.3313882098677254
  0
ARC
  5
34128
  8
0
 10
7047.823454547293295
 20
223.3356593879161096
 30
0.0
 40
9.3591669784548586
 50
301.8241996523307193
 51
301.9165626605396255
  0
ARC
  5
34129
  8
0
 10
7052.6702390507489326
 20
215.5277539943564022
 30
0.0
 40
0.1692454688706266
 50
287.5121828321359772
 51
301.5045359275385977
  0
LINE
  5
3412A
  8
0
 10
7052.7211664648057194
 20
215.3663525469316085
 30
0.0
 11
7052.7387089493404346
 21
215.268075097166502
 31
0.0
  0
ARC
  5
3412B
  8
0
 10
7052.7482912356817906
 20
215.1011679698918044
 30
0.0
 40
0.1671819647769083
 50
79.3478050405398818
 51
93.2857947275745829
  0
ARC
  5
3412C
  8
0
 10
7052.7761268009717242
 20
215.228065631289013
 30
0.0
 40
0.0375288896129557
 50
43.5425889316734285
 51
85.3116292084135068
  0
ARC
  5
3412D
  8
0
 10
7052.7103592732064499
 20
215.2832230466495105
 30
0.0
 40
0.1064673073243612
 50
334.8131228195148879
 51
358.9802948089949837
  0
ARC
  5
3412E
  8
0
 10
7052.2484688694003125
 20
215.2914442765585932
 30
0.0
 40
0.5684308705498765
 50
358.9802948089949837
 51
7.3799658973123634
  0
ARC
  5
3412F
  8
0
 10
7052.6604345906180242
 20
215.3453206823820096
 30
0.0
 40
0.15295831750128
 50
7.1875857771564062
 51
29.5223547721936406
  0
ARC
  5
34130
  8
0
 10
7053.4875215992742596
 20
215.4407207233574866
 30
0.0
 40
0.6914426778378001
 50
174.1379570606098923
 51
182.1243792711657932
  0
ARC
  5
34131
  8
0
 10
7053.0178423037132234
 20
215.4889429045919087
 30
0.0
 40
0.2192943754558652
 50
163.9266766851741011
 51
174.1379570606067091
  0
ARC
  5
34132
  8
0
 10
7039.3772296016632026
 20
213.7236192676296866
 30
0.0
 40
13.5534641152326891
 50
7.093247141203018
 51
7.7429257173398689
  0
ARC
  5
34133
  8
0
 10
7049.4261678901066261
 20
214.9621948252627988
 30
0.0
 40
3.4285107610719319
 50
4.7403450878504589
 51
7.2903136992208166
  0
ARC
  5
34134
  8
0
 10
7052.7634029606460899
 20
215.2372571174176983
 30
0.0
 40
0.043264246922815
 50
1.6446066360836189
 51
22.6511870375598292
  0
ARC
  5
34135
  8
0
 10
7056.7480412639615679
 20
215.6070308590275033
 30
0.0
 40
3.958583814756548
 50
185.341797390400302
 51
185.8693225546429062
  0
ARC
  5
34136
  8
0
 10
7054.471018199307764
 20
215.4326564434209104
 30
0.0
 40
1.7189202225643361
 50
188.342184120470705
 51
191.4225564221646891
  0
ARC
  5
34137
  8
0
 10
7051.1986064012062343
 20
214.8625666825782901
 30
0.0
 40
1.604064845849422
 50
8.2318731365166702
 51
11.5328674061117002
  0
LINE
  5
34138
  8
0
 10
7052.7702854618746642
 20
215.1832674152587117
 30
0.0
 11
7052.7960314807060058
 21
215.1939977517315867
 31
0.0
  0
ARC
  5
34139
  8
0
 10
7052.6985194285744001
 20
215.3783417101479074
 30
0.0
 40
0.208545667218357
 50
297.8774070449828173
 51
309.3781801680423769
  0
ARC
  5
3413A
  8
0
 10
7052.8021865095815883
 20
215.2461548781517138
 30
0.0
 40
0.0407695442615079
 50
314.6303587799437764
 51
359.1188336199259084
  0
LINE
  5
3413B
  8
0
 10
7052.754465370955586
 20
215.8682624755894892
 30
0.0
 11
7052.7529568868667411
 21
215.9239924664177863
 31
0.0
  0
LINE
  5
3413C
  8
0
 10
7052.7914325363608441
 20
215.2623315329963134
 30
0.0
 11
7052.7967720436417949
 21
215.1943913936277966
 31
0.0
  0
LINE
  5
3413D
  8
0
 10
7052.8005789690587335
 20
215.1964759753005865
 30
0.0
 11
7052.8013648828191435
 21
215.255840742095188
 31
0.0
  0
ARC
  5
3413E
  8
0
 10
7052.7977017778903246
 20
214.9167548222924893
 30
0.0
 40
0.1758612810962847
 50
80.5019112416798208
 51
93.7682051111556802
  0
ARC
  5
3413F
  8
0
 10
7052.821244740520342
 20
215.0574708545630074
 30
0.0
 40
0.0331893748660229
 50
0.2646524502109816
 51
80.5019112416798208
  0
ARC
  5
34140
  8
0
 10
7061.0343939432978004
 20
215.9336009866200072
 30
0.0
 40
8.2267298474882757
 50
186.112404814525803
 51
187.2916413751572122
  0
ARC
  5
34141
  8
0
 10
7052.5558693229068012
 20
215.1209083300749967
 30
0.0
 40
0.312963351597987
 50
354.5444847513182935
 51
23.4652131342498684
  0
ARC
  5
34142
  8
0
 10
7052.8055669831328487
 20
215.0958210496081904
 30
0.0
 40
0.0620239032051423
 50
321.9869112205162764
 51
355.6846429247391939
  0
LINE
  5
34143
  8
0
 10
7052.7752902831571191
 20
215.1512429293032937
 30
0.0
 11
7052.7245393247058018
 21
215.1248474091316041
 31
0.0
  0
LINE
  5
34144
  8
0
 10
7052.7245393247058018
 20
215.1248474091316041
 30
0.0
 11
7052.7455875521072812
 21
215.0254450713316032
 31
0.0
  0
LINE
  5
34145
  8
0
 10
7052.7455875521072812
 20
215.0254450713316032
 30
0.0
 11
7052.7714010946419876
 21
215.0256525355028998
 31
0.0
  0
ARC
  5
34146
  8
0
 10
7052.6527636848768452
 20
215.2451967073963885
 30
0.0
 40
0.2495485492010898
 50
292.8821012251220282
 51
306.478963951288506
  0
ARC
  5
34147
  8
0
 10
7052.7723841889092
 20
215.099783398489194
 30
0.0
 40
0.0622727277531078
 50
297.4882309453503808
 51
322.2100799734914176
  0
ARC
  5
34148
  8
0
 10
7052.7912000539590736
 20
215.073502806730005
 30
0.0
 40
0.0326344071168881
 50
338.6554145359713743
 51
7.5830389183240587
  0
ARC
  5
34149
  8
0
 10
7049.3005866085750313
 20
214.7322410623233964
 30
0.0
 40
3.5398703197225991
 50
5.6022356891295404
 51
5.8151042373265414
  0
LINE
  5
3414A
  8
0
 10
7052.7497971844049971
 20
215.015285902131609
 30
0.0
 11
7052.7738426537061969
 21
214.9216723919315939
 31
0.0
  0
ARC
  5
3414B
  8
0
 10
7052.7939902814359812
 20
214.7649387171086062
 30
0.0
 40
0.1580233265271063
 50
81.2931612267193344
 51
97.3250240208107158
  0
ARC
  5
3414C
  8
0
 10
7052.8146647501525877
 20
214.9003735382923992
 30
0.0
 40
0.0210197063318072
 50
41.3227105234606498
 51
81.1139419025953856
  0
ARC
  5
3414D
  8
0
 10
7052.7823410638211499
 20
214.8874607541428929
 30
0.0
 40
0.0550667173075034
 50
3.7005379347251668
 51
29.1133265896561184
  0
ARC
  5
3414E
  8
0
 10
7055.8842171382993911
 20
215.1781752568309969
 30
0.0
 40
3.0604261139926399
 50
185.3839946461017973
 51
186.5804268176700873
  0
ARC
  5
3414F
  8
0
 10
7052.8347989381391017
 20
215.0737949826979047
 30
0.0
 40
0.0119446549278135
 50
115.6705850506498052
 51
160.3617881548892967
  0
ARC
  5
34150
  8
0
 10
7052.8302493037226668
 20
215.0823561541967024
 30
0.0
 40
0.0022913550553595
 50
24.1360836491081088
 51
105.8222638926384036
  0
ARC
  5
34151
  8
0
 10
7052.8040095763290083
 20
215.0728719394047914
 30
0.0
 40
0.0301866337731389
 50
355.3588669360188987
 51
20.1954933622263404
  0
ARC
  5
34152
  8
0
 10
7052.6804507823790118
 20
215.0736937575744889
 30
0.0
 40
0.1536811202789676
 50
349.5716620165703148
 51
358.7828836564011112
  0
ARC
  5
34153
  8
0
 10
7052.6299672574114084
 20
214.9551207261864079
 30
0.0
 40
0.2211102354619879
 50
358.5137261501188277
 51
24.2334454053451012
  0
ARC
  5
34154
  8
0
 10
7052.7619536376014366
 20
214.9390742495471045
 30
0.0
 40
0.0896444825604215
 50
327.2355205388740274
 51
6.6051194186990587
  0
ARC
  5
34155
  8
0
 10
7052.6327469825555454
 20
215.1015860570828124
 30
0.0
 40
0.2626768341825524
 50
293.6272832597719002
 51
313.4708713138895746
  0
ARC
  5
34156
  8
0
 10
7069.9436062939648764
 20
218.8997060624168114
 30
0.0
 40
17.6732504869878113
 50
193.210239867576405
 51
193.6833636657769091
  0
ARC
  5
34157
  8
0
 10
7052.7924469939371193
 20
214.5537681860982957
 30
0.0
 40
0.1664889736151419
 50
82.7163433436523121
 51
97.0680975420657859
  0
ARC
  5
34158
  8
0
 10
7052.8093434637494283
 20
214.6926337786271972
 30
0.0
 40
0.0266152065973665
 50
42.1977704263663966
 51
80.8959214552968859
  0
ARC
  5
34159
  8
0
 10
7052.7843384912503097
 20
214.6834264759148141
 30
0.0
 40
0.0522843991787043
 50
7.0085124299975297
 51
31.199726825456441
  0
ARC
  5
3415A
  8
0
 10
7043.4307606656848293
 20
213.7092542694369115
 30
0.0
 40
9.456446320690139
 50
4.6476305112054108
 51
5.951775464745638
  0
ARC
  5
3415B
  8
0
 10
7053.5647065796983952
 20
214.9546601370988981
 30
0.0
 40
0.7194742072482382
 50
186.0511212668475878
 51
192.4708460841355873
  0
ARC
  5
3415C
  8
0
 10
7052.3317237427572763
 20
214.7536134896508884
 30
0.0
 40
0.5324471336269382
 50
4.9217484648234384
 51
13.6002188861580304
  0
LINE
  5
3415D
  8
0
 10
7052.860086445604793
 20
214.8107690941315866
 30
0.0
 11
7052.859374979407221
 21
214.8134384513315922
 31
0.0
  0
LINE
  5
3415E
  8
0
 10
7052.859374979407221
 20
214.8134384513315922
 30
0.0
 11
7052.8515562785059956
 21
214.8673442280316124
 31
0.0
  0
LINE
  5
3415F
  8
0
 10
7052.8515562785059956
 20
214.8673442280316124
 30
0.0
 11
7052.8522677446062517
 21
214.8646748708316068
 31
0.0
  0
LINE
  5
34160
  8
0
 10
7052.8522677446062517
 20
214.8646748708316068
 30
0.0
 11
7052.860086445604793
 21
214.8107690941315866
 31
0.0
  0
ARC
  5
34161
  8
0
 10
7052.8036501934893749
 20
215.0202042735733983
 30
0.0
 40
0.1485567778542806
 50
287.8720408216086071
 51
301.9717681961234916
  0
ARC
  5
34162
  8
0
 10
7052.653149003098406
 20
215.266645141120506
 30
0.0
 40
0.4373144781651285
 50
301.6023965516723138
 51
305.3829357378916143
  0
ARC
  5
34163
  8
0
 10
7052.8760884629409702
 20
214.9527408960778132
 30
0.0
 40
0.0522977540986509
 50
305.3829357378916143
 51
323.9499616826507236
  0
ARC
  5
34164
  8
0
 10
7052.8972878780778046
 20
214.9373103143300057
 30
0.0
 40
0.0260771885973261
 50
323.9499616826494162
 51
1.4327786581343329
  0
ARC
  5
34165
  8
0
 10
7051.2297615482129913
 20
214.8267063745288965
 30
0.0
 40
1.6972457553251701
 50
3.7584844981151488
 51
4.8427310799420829
  0
ARC
  5
34166
  8
0
 10
7052.4847005964738855
 20
214.8979914485425127
 30
0.0
 40
0.4421491874855554
 50
9.3715868823473336
 51
29.6888186470702991
  0
ARC
  5
34167
  8
0
 10
7052.9247705704337932
 20
215.2310962064395028
 30
0.0
 40
0.0749241839898882
 50
150.4236984513997015
 51
182.2988795698225886
  0
ARC
  5
34168
  8
0
 10
7052.8705850863598243
 20
215.2621937595559984
 30
0.0
 40
0.0124535425013758
 50
72.9979904205934957
 51
151.8064811125333904
  0
ARC
  5
34169
  8
0
 10
7052.8661736860522069
 20
215.250157467154196
 30
0.0
 40
0.025263374722661
 50
52.2954959821608298
 51
71.4122204401558065
  0
ARC
  5
3416A
  8
0
 10
7047.1275075024441321
 20
214.3636341150449027
 30
0.0
 40
5.8250858151516063
 50
5.974960305681134
 51
8.9528680962002056
  0
ARC
  5
3416B
  8
0
 10
7052.8758443567521681
 20
214.6499712680418952
 30
0.0
 40
0.1499449651028878
 50
83.250227464604464
 51
95.2179644784332737
  0
ARC
  5
3416C
  8
0
 10
7052.8700699423334299
 20
214.6011818275065082
 30
0.0
 40
0.1990749291742854
 50
80.5245927168106164
 51
83.250227464604464
  0
ARC
  5
3416D
  8
0
 10
7052.8970841681430102
 20
214.7651001983188905
 30
0.0
 40
0.0329475529781395
 50
358.7755396726494155
 51
79.9345638256420017
  0
ARC
  5
3416E
  8
0
 10
7121.6582103906639531
 20
222.5722414122548116
 30
0.0
 40
69.1702683620152925
 50
186.4812828724350027
 51
186.6447382760908908
  0
ARC
  5
3416F
  8
0
 10
7052.6759501766273388
 20
214.8228868155364069
 30
0.0
 40
0.2728598034676193
 50
356.9770125556395897
 51
24.9444068558085483
  0
ARC
  5
34170
  8
0
 10
7052.7247253362329502
 20
214.8209542659757858
 30
0.0
 40
0.2240515213699523
 50
351.4925099438534062
 51
356.812740097679125
  0
ARC
  5
34171
  8
0
 10
7052.9166502603529807
 20
214.7910715130580002
 30
0.0
 40
0.0298402083300103
 50
296.6273024150614788
 51
353.7219380551740073
  0
LINE
  5
34172
  8
0
 10
7052.8134648915056459
 20
214.9109551136315872
 30
0.0
 11
7052.8128657164816104
 21
214.9218306852858973
 31
0.0
  0
ARC
  5
34173
  8
0
 10
7052.7337629766998361
 20
214.9943974447812138
 30
0.0
 40
0.200027336655888
 50
290.6287999741138037
 51
307.3728961749936843
  0
ARC
  5
34174
  8
0
 10
7054.4359604205619689
 20
215.0990594944655925
 30
0.0
 40
1.6576225219927749
 50
190.1411614502640077
 51
193.1462600552328013
  0
ARC
  5
34175
  8
0
 10
7051.1184706043413826
 20
214.415438676642907
 30
0.0
 40
1.7306862781483761
 50
10.2046076671308708
 51
13.0828138383672901
  0
ARC
  5
34176
  8
0
 10
7052.8315715297931092
 20
214.2084720911329896
 30
0.0
 40
0.5136750292607171
 50
86.6975058575772266
 51
91.0922461645525487
  0
ARC
  5
34177
  8
0
 10
7052.8596395549229783
 20
214.6948907928774872
 30
0.0
 40
0.0264471899069171
 50
35.8747914151631875
 51
86.6976237572449975
  0
ARC
  5
34178
  8
0
 10
7052.8335882380006296
 20
214.6843703893287909
 30
0.0
 40
0.054143063376838
 50
3.7034692854829081
 51
28.7218464131427211
  0
ARC
  5
34179
  8
0
 10
7060.6370520887003295
 20
215.5221946159711024
 30
0.0
 40
7.79421750793135
 50
186.1449633691728991
 51
187.3005414329846872
  0
ARC
  5
3417A
  8
0
 10
7052.8660151565463821
 20
214.5286690673594023
 30
0.0
 40
0.0401239031166259
 50
337.4760246910738033
 51
4.4072012463689587
  0
ARC
  5
3417B
  8
0
 10
7052.7277888594389879
 20
214.745933634423011
 30
0.0
 40
0.1777188270338138
 50
0.7377027212297107
 51
17.1517174244377095
  0
ARC
  5
3417C
  8
0
 10
7052.6321884000599312
 20
214.7447026778505972
 30
0.0
 40
0.273327211017592
 50
353.1024814712937996
 51
0.7377027212297107
  0
ARC
  5
3417D
  8
0
 10
7052.865527005167678
 20
214.7164758577810062
 30
0.0
 40
0.0382875164849688
 50
328.4048573465775007
 51
353.1024814712897069
  0
ARC
  5
3417E
  8
0
 10
7052.8810163273528815
 20
214.706740971907692
 30
0.0
 40
0.0199946974533173
 50
289.279878249163005
 51
328.9115756426839994
  0
ARC
  5
3417F
  8
0
 10
7064.2465283377459855
 20
215.5762722170030088
 30
0.0
 40
11.4522651472384407
 50
184.3247553290428016
 51
184.6957129726037863
  0
ARC
  5
34180
  8
0
 10
7052.801841647821675
 20
214.6362097983785873
 30
0.0
 40
0.0309648331036381
 50
336.6996059833858794
 51
4.6957129726005666
  0
ARC
  5
34181
  8
0
 10
7052.6202220749482876
 20
214.8803190708235888
 30
0.0
 40
0.3314271363519544
 50
301.1834655735826232
 51
309.3311530841032777
  0
ARC
  5
34182
  8
0
 10
7052.6853991151829177
 20
214.7425929280167054
 30
0.0
 40
0.1805242981824927
 50
293.6188541691010983
 51
306.1255729100088274
  0
ARC
  5
34183
  8
0
 10
7089.6101965505749831
 20
225.0372386634487896
 30
0.0
 40
38.3081866301187191
 50
195.8458363794254922
 51
195.9978044986129078
  0
ARC
  5
34184
  8
0
 10
7052.811257169439159
 20
214.3128789329331028
 30
0.0
 40
0.1685676420831801
 50
85.0902749908997436
 51
98.7550118859559234
  0
ARC
  5
34185
  8
0
 10
7052.8244384316822106
 20
214.4547796699665128
 30
0.0
 40
0.0260781666936917
 50
48.1935969757094469
 51
87.2618949092187677
  0
ARC
  5
34186
  8
0
 10
7052.8136159025852976
 20
214.4578897284021934
 30
0.0
 40
0.0325920173247417
 50
21.5733159654284492
 51
30.0662742777455989
  0
ARC
  5
34187
  8
0
 10
7052.7664057981373844
 20
214.6329584625958944
 30
0.0
 40
0.1812310920209539
 50
291.5994251153088044
 51
309.5287464731168257
  0
ARC
  5
34188
  8
0
 10
7050.3230824365000444
 20
213.8250788492437948
 30
0.0
 40
2.5901905282292339
 50
12.5109773513321407
 51
14.2908698986642602
  0
ARC
  5
34189
  8
0
 10
7052.8728903890223592
 20
214.2358263086624959
 30
0.0
 40
0.1518333165380157
 50
82.421638778625848
 51
97.9968084607473884
  0
ARC
  5
3418A
  8
0
 10
7052.8910950327290266
 20
214.3645933436777966
 30
0.0
 40
0.0218160833971846
 50
32.4340136998318869
 51
85.2160251047168771
  0
ARC
  5
3418B
  8
0
 10
7052.8645273633774195
 20
214.3509046235959943
 30
0.0
 40
0.0516514823254246
 50
4.031416818930885
 51
29.4425209698341703
  0
ARC
  5
3418C
  8
0
 10
7074.5874315595738153
 20
216.6549990507160999
 30
0.0
 40
21.7931380081832913
 50
186.0593773104191939
 51
186.4078398573035997
  0
ARC
  5
3418D
  8
0
 10
7052.9039645326020036
 20
214.2190706289659943
 30
0.0
 40
0.0267364828211166
 50
321.4908743396991895
 51
7.9701852338500752
  0
ARC
  5
3418E
  8
0
 10
7052.7956345528882593
 20
214.3271349649859872
 30
0.0
 40
0.179607678659763
 50
302.5483308021122184
 51
316.0241451123433194
  0
ARC
  5
3418F
  8
0
 10
7052.8014411422300327
 20
214.2947157660427138
 30
0.0
 40
0.1496831179777421
 50
291.7526401758364045
 51
307.3568299804088042
  0
ARC
  5
34190
  8
0
 10
7054.8462656346637232
 20
214.6942547048344068
 30
0.0
 40
2.0609637531672709
 50
195.148183090076401
 51
197.1793423426258869
  0
ARC
  5
34191
  8
0
 10
7052.9013117321746904
 20
213.9379647211073916
 30
0.0
 40
0.1495049532949553
 50
83.6732458930932239
 51
99.2608603680746455
  0
ARC
  5
34192
  8
0
 10
7052.9168522928121092
 20
214.0663566082112936
 30
0.0
 40
0.0202241310414915
 50
35.0797295112666916
 51
87.3511554655571558
  0
ARC
  5
34193
  8
0
 10
7052.8976381798893271
 20
214.0545282776866998
 30
0.0
 40
0.042767709572234
 50
4.4874473350657924
 51
33.2535434118053033
  0
ARC
  5
34194
  8
0
 10
7047.5088027908859658
 20
213.4382798569342867
 30
0.0
 40
5.4666978593845537
 50
5.0901994452377863
 51
6.5078781270941271
  0
ARC
  5
34195
  8
0
 10
7055.1225811310669087
 20
214.7705188067359927
 30
0.0
 40
2.265586392066937
 50
182.5522649071054957
 51
187.1721631931991112
  0
ARC
  5
34196
  8
0
 10
7052.9886008486582796
 20
214.675396820937209
 30
0.0
 40
0.1294871345671649
 50
159.7311373787919138
 51
182.5522649071087926
  0
ARC
  5
34197
  8
0
 10
7052.9252174324419684
 20
214.5658887298866944
 30
0.0
 40
0.0274721042511255
 50
325.9002836914318095
 51
5.1568648936834949
  0
ARC
  5
34198
  8
0
 10
7052.8633882169133358
 20
214.611881194997693
 30
0.0
 40
0.1045115843505935
 50
301.6009015466942174
 51
324.0244473062870156
  0
ARC
  5
34199
  8
0
 10
7052.8310403733521525
 20
214.6434495126366926
 30
0.0
 40
0.1487571225145832
 50
289.3250500927089206
 51
305.8452319989153239
  0
ARC
  5
3419A
  8
0
 10
7053.5437991054513986
 20
214.5975409424789007
 30
0.0
 40
0.6702218943236
 50
188.1027583288802987
 51
194.3596659199895953
  0
ARC
  5
3419B
  8
0
 10
7052.2116637402550623
 20
214.3330168179203952
 30
0.0
 40
0.6898921887930028
 50
8.1920421887040327
 51
14.2703820601710696
  0
LINE
  5
3419C
  8
0
 10
7052.8918924137060458
 20
214.4426516553315878
 30
0.0
 11
7052.8910939656052506
 21
214.4456473610316039
 31
0.0
  0
LINE
  5
3419D
  8
0
 10
7052.8910939656052506
 20
214.4456473610316039
 30
0.0
 11
7052.8828965616048663
 21
214.4917446279316096
 31
0.0
  0
LINE
  5
3419E
  8
0
 10
7052.8828965616048663
 20
214.4917446279316096
 30
0.0
 11
7052.8836950098047964
 21
214.4887489223316095
 31
0.0
  0
LINE
  5
3419F
  8
0
 10
7052.8836950098047964
 20
214.4887489223316095
 30
0.0
 11
7052.8918924137060458
 21
214.4426516553315878
 31
0.0
  0
ARC
  5
341A0
  8
0
 10
7052.9127107994036123
 20
214.2781731093953965
 30
0.0
 40
0.1542244572898004
 50
88.464876860392863
 51
96.7752029691649227
  0
ARC
  5
341A1
  8
0
 10
7052.9131915875213963
 20
214.2960777412754112
 30
0.0
 40
0.1363133713669116
 50
80.1893690255561609
 51
88.4652782639667947
  0
ARC
  5
341A2
  8
0
 10
7052.9268585625495689
 20
214.3998255614523885
 30
0.0
 40
0.0320319439794834
 50
359.5940417000803109
 51
72.6357605207521289
  0
ARC
  5
341A3
  8
0
 10
7067.2543534734295463
 20
215.869119581183412
 30
0.0
 40
14.3707959528676508
 50
185.8691794755158071
 51
186.4996127966171002
  0
ARC
  5
341A4
  8
0
 10
7052.9474423555420799
 20
214.2414624007801081
 30
0.0
 40
0.0284970118882022
 50
311.4322929696675146
 51
1.8769940840854591
  0
ARC
  5
341A5
  8
0
 10
7052.8181219878579213
 20
214.3739015487851134
 30
0.0
 40
0.2135707743372557
 50
304.0379223930111152
 51
313.9325717155558095
  0
ARC
  5
341A6
  8
0
 10
7052.8533004586915922
 20
214.3099429907011029
 30
0.0
 40
0.1410363777149617
 50
290.2980762188926747
 51
306.7400730990815987
  0
ARC
  5
341A7
  8
0
 10
7053.8078190119749706
 20
214.3559135172637866
 30
0.0
 40
0.9229681757068448
 50
191.135237295062808
 51
195.1700970707481986
  0
ARC
  5
341A8
  8
0
 10
7052.0202495650737546
 20
213.9382005616793094
 30
0.0
 40
0.9139073217194487
 50
11.1152272697747208
 51
15.1901070960299993
  0
ARC
  5
341A9
  8
0
 10
7052.9383472487588733
 20
213.9738744831253996
 30
0.0
 40
0.142121989365547
 50
86.2074824110123501
 51
98.6332988054205515
  0
ARC
  5
341AA
  8
0
 10
7052.9461826087008376
 20
214.0523751340242882
 30
0.0
 40
0.0633294501865416
 50
73.5088387325498758
 51
88.5838703430540306
  0
ARC
  5
341AB
  8
0
 10
7052.9590897224315995
 20
214.0974026893997006
 30
0.0
 40
0.0164952497175006
 50
33.1711553427404269
 51
72.099524344092643
  0
ARC
  5
341AC
  8
0
 10
7052.9493832801572353
 20
214.5531663971262901
 30
0.0
 40
0.0157511378937757
 50
29.001125474563981
 51
78.3994361200203542
  0
ARC
  5
341AD
  8
0
 10
7052.9156749974572449
 20
214.5344807253194972
 30
0.0
 40
0.0542920596970334
 50
14.7681313430470507
 51
29.001125474563981
  0
ARC
  5
341AE
  8
0
 10
7052.8413734453461075
 20
214.52199731240961
 30
0.0
 40
0.1295035045256912
 50
343.402293035618186
 51
11.7276639613584805
  0
ARC
  5
341AF
  8
0
 10
7052.9060934035769606
 20
214.6115403499825902
 30
0.0
 40
0.1397790426442189
 50
288.3161885076900717
 51
304.3621800276828253
  0
ARC
  5
341B0
  8
0
 10
7049.7080065072068464
 20
219.2887201881262911
 30
0.0
 40
5.8057980185165263
 50
304.3628948386368052
 51
304.686015746903422
  0
ARC
  5
341B1
  8
0
 10
7052.9840875715062793
 20
214.5496474667729103
 30
0.0
 40
0.0446943730534618
 50
308.586644850808284
 51
328.9415364568163227
  0
ARC
  5
341B2
  8
0
 10
7052.9883594481352702
 20
214.5440388739015134
 30
0.0
 40
0.0382299225601247
 50
332.8421655607351113
 51
0.2293514965563588
  0
ARC
  5
341B3
  8
0
 10
7049.4401932316286548
 20
214.2731599774313906
 30
0.0
 40
3.5966224955375901
 50
4.3217548641278984
 51
9.5062301777207914
  0
ARC
  5
341B4
  8
0
 10
7052.831331347856576
 20
214.7880417505051867
 30
0.0
 40
0.1750001944414028
 50
26.8786044042256087
 51
46.4512223209611292
  0
ARC
  5
341B5
  8
0
 10
7052.939265868183611
 20
214.8987803845901965
 30
0.0
 40
0.0204658752743222
 50
51.8732782362381712
 51
79.7542642338673033
  0
ARC
  5
341B6
  8
0
 10
7052.9429095326049719
 20
214.9100751945979084
 30
0.0
 40
0.0088447158086613
 50
90.0219790079152204
 51
172.8824459592763958
  0
ARC
  5
341B7
  8
0
 10
7054.0508941374955612
 20
214.5616892852262936
 30
0.0
 40
1.1039865755896701
 50
184.3036851270076966
 51
186.5729611121543883
  0
ARC
  5
341B8
  8
0
 10
7053.0306192941798145
 20
214.4441273630540081
 30
0.0
 40
0.0769609861083559
 50
186.5729611121543883
 51
202.7711690960967985
  0
ARC
  5
341B9
  8
0
 10
7051.7565026682186726
 20
214.3239031310529867
 30
0.0
 40
1.2065482155313421
 50
4.2986144768063674
 51
6.3183478372480808
  0
ARC
  5
341BA
  8
0
 10
7052.8758928927127272
 20
214.4479556075143876
 30
0.0
 40
0.0803052048422852
 50
6.2419018619024689
 51
22.6204422289879084
  0
ARC
  5
341BB
  8
0
 10
7052.9762615543950233
 20
214.2692043977640992
 30
0.0
 40
0.1460826768543644
 50
88.9340827104323353
 51
96.2946662424559463
  0
ARC
  5
341BC
  8
0
 10
7052.9763732245310166
 20
214.2752062606600987
 30
0.0
 40
0.1400797751858133
 50
80.0026564402113962
 51
88.9340827104323353
  0
ARC
  5
341BD
  8
0
 10
7052.9955848845329456
 20
214.3841905459293002
 30
0.0
 40
0.0294151362281605
 50
358.6894164483683767
 51
80.0026564402115241
  0
ARC
  5
341BE
  8
0
 10
7119.0675167753297501
 20
220.8288092467940089
 30
0.0
 40
66.3562869514198042
 50
185.5740182788022139
 51
185.7404824925372111
  0
ARC
  5
341BF
  8
0
 10
7053.0205502714179602
 20
214.187832167267004
 30
0.0
 40
0.0237583871999385
 50
306.0512422242936736
 51
9.2928272810362333
  0
ARC
  5
341C0
  8
0
 10
7052.8566087348199289
 20
214.389359588257804
 30
0.0
 40
0.2835156276231116
 50
293.594266482705109
 51
308.8704578104371876
  0
ARC
  5
341C1
  8
0
 10
7054.5862288830903708
 20
214.3141928858997005
 30
0.0
 40
1.626654957463054
 50
186.5179115654003112
 51
187.607623757599697
  0
ARC
  5
341C2
  8
0
 10
7053.1850700724489798
 20
214.1386636829128918
 30
0.0
 40
0.2148998401978294
 50
190.6785987056667864
 51
194.8077045585141889
  0
ARC
  5
341C3
  8
0
 10
7053.0414931655668624
 20
214.098597909409591
 30
0.0
 40
0.0658830233315613
 50
193.0329919228740039
 51
201.7483601238583049
  0
ARC
  5
341C4
  8
0
 10
7051.5319498056423981
 20
213.9103224939792938
 30
0.0
 40
1.4575900293897861
 50
6.4548942701097989
 51
7.67776344441313
  0
ARC
  5
341C5
  8
0
 10
7052.7953606157925606
 20
214.0709094736577072
 30
0.0
 40
0.1843034805403426
 50
10.6779614330577299
 51
18.55090148210828
  0
LINE
  5
341C6
  8
0
 10
7052.9571503795050376
 20
214.4256611237316008
 30
0.0
 11
7052.9562029202415943
 21
214.4289082018019883
 31
0.0
  0
LINE
  5
341C7
  8
0
 10
7052.9562029202415943
 20
214.4289082018019883
 30
0.0
 11
7052.9525412508073714
 21
214.4675248736315893
 31
0.0
  0
LINE
  5
341C8
  8
0
 10
7052.9525412508073714
 20
214.4675248736315893
 30
0.0
 11
7052.9534126153048419
 21
214.4642555921315932
 31
0.0
  0
LINE
  5
341C9
  8
0
 10
7052.9534126153048419
 20
214.4642555921315932
 30
0.0
 11
7052.9571503795050376
 21
214.4256611237316008
 31
0.0
  0
ARC
  5
341CA
  8
0
 10
7052.8064905056198768
 20
214.4565163756116988
 30
0.0
 40
0.2329869481232492
 50
8.9610601353866333
 51
19.8417853901347101
  0
ARC
  5
341CB
  8
0
 10
7052.9210474291758146
 20
214.4336839628502958
 30
0.0
 40
0.1298296654622487
 50
349.1672492615398937
 51
27.090063248711381
  0
ARC
  5
341CC
  8
0
 10
7052.946878043569086
 20
214.4262145528990118
 30
0.0
 40
0.1030854065944784
 50
341.8025469485701251
 51
350.5466931597603093
  0
ARC
  5
341CD
  8
0
 10
7053.028318545600996
 20
214.3977412075215909
 30
0.0
 40
0.016903481359666
 50
303.1975340193088755
 51
347.2885083169173868
  0
ARC
  5
341CE
  8
0
 10
7053.0312010266234211
 20
214.3966414483323888
 30
0.0
 40
0.0145182329142887
 50
244.6815783917272995
 51
296.0362763996421904
  0
ARC
  5
341CF
  8
0
 10
7052.9272973711522354
 20
214.2036460208832125
 30
0.0
 40
0.0193886644542517
 50
359.1557613575548089
 51
80.6637736523613285
  0
ARC
  5
341D0
  8
0
 10
7052.999957949952659
 20
213.9439105955819969
 30
0.0
 40
0.131750464055425
 50
85.0206930185690624
 51
98.5810499668569662
  0
ARC
  5
341D1
  8
0
 10
7052.9991121834063961
 20
213.9356224953316996
 30
0.0
 40
0.1400807492193137
 50
78.4986402870677153
 51
84.9703013071033126
  0
ARC
  5
341D2
  8
0
 10
7053.0217242387252554
 20
214.0467507989633873
 30
0.0
 40
0.0266752603141404
 50
59.9642734458173265
 51
78.4986402870677153
  0
ARC
  5
341D3
  8
0
 10
7053.0234147423097966
 20
214.0563003066907868
 30
0.0
 40
0.0178723532707097
 50
7.6631096741107676
 51
49.2704113040317679
  0
ARC
  5
341D4
  8
0
 10
7052.7541686550339364
 20
214.0201224603636945
 30
0.0
 40
0.2895381257412302
 50
2.6880377194920571
 51
7.6534717546741549
  0
ARC
  5
341D5
  8
0
 10
7019.1396739827341662
 20
210.7300354036287899
 30
0.0
 40
34.0642928189978775
 50
5.341669433141039
 51
5.565478789735387
  0
ARC
  5
341D6
  8
0
 10
7053.0387555533297927
 20
213.9002964616460076
 30
0.0
 40
0.0173045790763565
 50
324.0592937559080724
 51
3.1298992644115802
  0
ARC
  5
341D7
  8
0
 10
7052.9708909668715933
 20
213.9609579815121094
 30
0.0
 40
0.1082530814912507
 50
294.680943107121891
 51
319.1415164254336219
  0
ARC
  5
341D8
  8
0
 10
7052.9368351696448372
 20
213.9651124165469867
 30
0.0
 40
0.1295835856622684
 50
289.7901081961946943
 51
307.708167724538896
  0
ARC
  5
341D9
  8
0
 10
7055.0467422296478617
 20
214.1947116903878907
 30
0.0
 40
2.0957257354144039
 50
189.6562363339691046
 51
190.2448149370574981
  0
ARC
  5
341DA
  8
0
 10
7053.3867717231696588
 20
213.916154854544601
 30
0.0
 40
0.4132178471529774
 50
193.1741871522748113
 51
196.709239734223587
  0
ARC
  5
341DB
  8
0
 10
7052.361198890968808
 20
213.6958403493264882
 30
0.0
 40
0.6379304610179199
 50
9.1558843445534031
 51
11.2789466438764503
  0
ARC
  5
341DC
  8
0
 10
7052.6365164832577648
 20
213.7380577493977114
 30
0.0
 40
0.3598883454691788
 50
13.2608265681244397
 51
16.9838885492476486
  0
LINE
  5
341DD
  8
0
 10
7052.977530274705714
 20
214.0854427642316011
 30
0.0
 11
7052.9766005891060558
 21
214.0889308613315904
 31
0.0
  0
LINE
  5
341DE
  8
0
 10
7052.9766005891060558
 20
214.0889308613315904
 30
0.0
 11
7052.9728672449045916
 21
214.1182793771316142
 31
0.0
  0
LINE
  5
341DF
  8
0
 10
7052.9728672449045916
 20
214.1182793771316142
 30
0.0
 11
7052.9737969305060687
 21
214.1147912800315964
 31
0.0
  0
LINE
  5
341E0
  8
0
 10
7052.9737969305060687
 20
214.1147912800315964
 30
0.0
 11
7052.977530274705714
 21
214.0854427642316011
 31
0.0
  0
ARC
  5
341E1
  8
0
 10
7052.9513702499507417
 20
214.2099133698079072
 30
0.0
 40
0.0419552693053457
 50
10.85197693310133
 51
54.4340300522997893
  0
ARC
  5
341E2
  8
0
 10
7052.877630905553815
 20
214.1957774972850075
 30
0.0
 40
0.1170373164532017
 50
348.7483264217618171
 51
10.8519769331045293
  0
ARC
  5
341E3
  8
0
 10
7052.9037981314450008
 20
214.1032176278692987
 30
0.0
 40
0.1127607997403842
 50
23.9211574199862085
 51
38.1944677873913392
  0
ARC
  5
341E4
  8
0
 10
7053.0965199068959919
 20
214.0737142365713055
 30
0.0
 40
0.0418316394535559
 50
339.8505693616676808
 51
7.1822522846560313
  0
ARC
  5
341E5
  8
0
 10
7053.1085744254341989
 20
214.0768612171295899
 30
0.0
 40
0.0323882507361141
 50
291.6682208983477835
 51
327.1753024965394729
  0
ARC
  5
341E6
  8
0
 10
7053.182909394775379
 20
213.9264621307407026
 30
0.0
 40
0.1355092405920512
 50
117.4070906741222018
 51
128.3235042964720094
  0
ARC
  5
341E7
  8
0
 10
7053.0215066770615522
 20
214.1353173870882074
 30
0.0
 40
0.1284607400591134
 50
288.7206463586563245
 51
307.0355888683163244
  0
ARC
  5
341E8
  8
0
 10
7053.6641556954364205
 20
213.9715192804374055
 30
0.0
 40
0.6028930637922513
 50
175.9925759755932972
 51
178.0489295829862897
  0
ARC
  5
341E9
  8
0
 10
7053.1616886755864471
 20
214.0047296429567041
 30
0.0
 40
0.1008771599034966
 50
187.2234677599572876
 51
202.1798919537039865
  0
ARC
  5
341EA
  8
0
 10
7052.6868105549037864
 20
213.9959800621095951
 30
0.0
 40
0.3825916919413609
 50
355.6028416366082183
 51
358.9623976177448981
  0
ARC
  5
341EB
  8
0
 10
7052.9697558344596473
 20
213.9755106515904117
 30
0.0
 40
0.1005001159083677
 50
7.7434875590210588
 51
22.3042292508158511
  0
ARC
  5
341EC
  8
0
 10
7053.0876227738872331
 20
213.8387563361073944
 30
0.0
 40
0.12934563953484
 50
80.6337851830677863
 51
98.6022040276302221
  0
ARC
  5
341ED
  8
0
 10
7053.0934593301926725
 20
213.8747408259299903
 30
0.0
 40
0.0928910698001988
 50
69.5733018765413647
 51
80.5736332882722763
  0
ARC
  5
341EE
  8
0
 10
7053.1029001060933297
 20
213.9464382530092905
 30
0.0
 40
0.0276358063764788
 50
354.2614920521049839
 51
33.7474343429935075
  0
ARC
  5
341EF
  8
0
 10
7059.8829576785292375
 20
214.3942888814052878
 30
0.0
 40
6.767578809894319
 50
183.8178188099126089
 51
185.1988018708591994
  0
ARC
  5
341F0
  8
0
 10
7053.0981688046385898
 20
213.7727424874721009
 30
0.0
 40
0.0458125032408856
 50
341.5090057318919889
 51
10.4688839684325199
  0
ARC
  5
341F1
  8
0
 10
7053.5922337680058263
 20
213.019892649794798
 30
0.0
 40
0.8649698595939648
 50
121.3968935380970038
 51
124.4605392639529953
  0
ARC
  5
341F2
  8
0
 10
7052.9805590892810869
 20
213.9111992751622893
 30
0.0
 40
0.2160358818421856
 50
293.4697720091340898
 51
304.4605392639530237
  0
ARC
  5
341F3
  8
0
 10
7048.5325758092749311
 20
212.5743656444381884
 30
0.0
 40
4.6748190704123891
 50
13.6411774139833408
 51
14.0976523861576499
  0
ARC
  5
341F4
  8
0
 10
7053.0917486446223847
 20
213.4645730592465895
 30
0.0
 40
0.2129235055174274
 50
79.2377088441288038
 51
94.3694795590272406
  0
ARC
  5
341F5
  8
0
 10
7053.0264305171976957
 20
214.4512220030358947
 30
0.0
 40
0.042818577532026
 50
22.0186444174232001
 51
76.2144195258352823
  0
ARC
  5
341F6
  8
0
 10
7052.3357885184714178
 20
214.0269491716838104
 30
0.0
 40
0.8528069499122302
 50
23.9940373801442313
 51
31.0860863146468702
  0
ARC
  5
341F7
  8
0
 10
7050.3269905088018277
 20
213.9493722153881947
 30
0.0
 40
2.8200244651404112
 50
2.1089590208837139
 51
8.6548764706158998
  0
ARC
  5
341F8
  8
0
 10
7053.1410892630656235
 20
214.0787526418729101
 30
0.0
 40
0.0030719327446509
 50
118.5300972838198987
 51
176.4234459353176874
  0
ARC
  5
341F9
  8
0
 10
7053.1299224112026423
 20
214.0745582621393908
 30
0.0
 40
0.0118995868036038
 50
8.9505002863600183
 51
35.4004126168475111
  0
ARC
  5
341FA
  8
0
 10
7052.9684345846008
 20
214.0491252542020106
 30
0.0
 40
0.1753778912783555
 50
2.7812235824751981
 51
8.9501271705270238
  0
ARC
  5
341FB
  8
0
 10
7052.9089701346629226
 20
213.9767410109880075
 30
0.0
 40
0.2481890034390471
 50
8.6035483789766598
 51
19.0223595006236508
  0
ARC
  5
341FC
  8
0
 10
7053.0073406499050179
 20
213.9497862986540042
 30
0.0
 40
0.1603844247884394
 50
7.2124395876185847
 51
23.5505723887043317
  0
ARC
  5
341FD
  8
0
 10
7053.1139564092281944
 20
213.9772954205915028
 30
0.0
 40
0.0530148299286674
 50
329.1423073577482796
 51
352.0056327536034928
  0
ARC
  5
341FE
  8
0
 10
7053.112606160478208
 20
213.9748828863968129
 30
0.0
 40
0.0530086236653446
 50
317.6332965960813794
 51
332.1307488076943741
  0
ARC
  5
341FF
  8
0
 10
7053.1449617403541197
 20
213.9507479483959003
 30
0.0
 40
0.0134391475723027
 50
241.2695546251372889
 51
300.4446168796023926
  0
ARC
  5
34200
  8
0
 10
7053.1528656064911047
 20
213.9729952514161937
 30
0.0
 40
0.0369391011652256
 50
232.5369652264639058
 51
247.1167786881663915
  0
ARC
  5
34201
  8
0
 10
7052.1247291361587486
 20
214.0032866890173864
 30
0.0
 40
1.00906735172155
 50
3.507746632414491
 51
23.7202927778556294
  0
ARC
  5
34202
  8
0
 10
7053.0384763829597432
 20
214.1143893814229102
 30
0.0
 40
0.1056690441555814
 50
319.6298459706143831
 51
340.4010019714957025
  0
ARC
  5
34203
  8
0
 10
7053.0150744098982614
 20
214.1545594963008909
 30
0.0
 40
0.0470489005913667
 50
8.6180285898904092
 51
52.0675853034826872
  0
ARC
  5
34204
  8
0
 10
7052.8963052626786521
 20
214.1349927443056913
 30
0.0
 40
0.1674162303139355
 50
352.71648182161249
 51
9.1480540400929922
  0
ARC
  5
34205
  8
0
 10
7051.9573485382416038
 20
213.4947876863261058
 30
0.0
 40
1.2665741948434901
 50
25.2784986262646107
 51
29.2554490406652583
  0
ARC
  5
34206
  8
0
 10
7053.0573054142041656
 20
214.0679733672884879
 30
0.0
 40
0.0235125266113021
 50
229.9066629650089908
 51
265.8975643334198935
  0
ARC
  5
34207
  8
0
 10
7053.0563482965708317
 20
214.0546288424378929
 30
0.0
 40
0.0101337218197686
 50
265.8975643334197798
 51
342.1801742626669807
  0
ARC
  5
34208
  8
0
 10
7053.0032543158577027
 20
214.0806542923617997
 30
0.0
 40
0.0691726725496963
 50
335.0977652955738222
 51
1.704688414555946
  0
ARC
  5
34209
  8
0
 10
7052.9709315748368681
 20
214.0671022771066134
 30
0.0
 40
0.1026585135288376
 50
8.7460504084296211
 51
27.0373200277068193
  0
ARC
  5
3420A
  8
0
 10
7052.2925406805270541
 20
213.4485700304178977
 30
0.0
 40
1.0339517196330761
 50
21.260885194312511
 51
33.6709785707629905
  0
ARC
  5
3420B
  8
0
 10
7050.5811376695528452
 20
213.506503937148608
 30
0.0
 40
2.6936996909393471
 50
2.190432377943456
 51
6.7581851418597401
  0
ARC
  5
3420C
  8
0
 10
7052.9364358303391782
 20
213.5953003236508891
 30
0.0
 40
0.3367311065394576
 50
351.898622002557488
 51
2.409967210655068
  0
ARC
  5
3420D
  8
0
 10
7052.0786018379067173
 20
213.4908347083969886
 30
0.0
 40
1.1743536271206081
 50
4.4376942399477688
 51
23.0195429208040601
  0
LINE
  5
3420E
  8
0
 10
7053.065491842306983
 20
213.9779464121315868
 30
0.0
 11
7053.0645199614073135
 21
213.9815928218316117
 31
0.0
  0
LINE
  5
3420F
  8
0
 10
7053.0645199614073135
 20
213.9815928218316117
 30
0.0
 11
7053.0655345488057719
 21
214.0023568940316068
 31
0.0
  0
LINE
  5
34210
  8
0
 10
7053.0655345488057719
 20
214.0023568940316068
 30
0.0
 11
7053.0665064297072604
 21
213.9987104842317081
 31
0.0
  0
LINE
  5
34211
  8
0
 10
7053.0665064297072604
 20
213.9987104842317081
 30
0.0
 11
7053.065491842306983
 21
213.9779464121315868
 31
0.0
  0
ARC
  5
34212
  8
0
 10
7052.8652244767527009
 20
214.0360682754767083
 30
0.0
 40
0.1434777298630455
 50
291.100585023490396
 51
308.6392605846186257
  0
ARC
  5
34213
  8
0
 10
7052.757811784182195
 20
214.2347376766340972
 30
0.0
 40
0.3679246323563911
 50
302.3738979572328276
 51
307.6758760264403918
  0
ARC
  5
34214
  8
0
 10
7052.9599569476667966
 20
213.9704830479759039
 30
0.0
 40
0.0352548924399915
 50
310.1416530456737064
 51
332.6382165981427192
  0
ARC
  5
34215
  8
0
 10
7051.2941237711320355
 20
213.8612666691325046
 30
0.0
 40
1.699690731252576
 50
3.1369905991571398
 51
7.196955551997795
  0
ARC
  5
34216
  8
0
 10
7052.9474214169413244
 20
214.0806298485807986
 30
0.0
 40
0.0236554918134465
 50
252.372090764125403
 51
288.4842472086975818
  0
ARC
  5
34217
  8
0
 10
7052.9481464114232949
 20
214.0730299529386969
 30
0.0
 40
0.0163089678217911
 50
294.5448565052968775
 51
351.8004699289868995
  0
ARC
  5
34218
  8
0
 10
7052.8405032163273063
 20
214.0913795245631945
 30
0.0
 40
0.1255002591983686
 50
350.5175649196555128
 51
9.9734073034507311
  0
ARC
  5
34219
  8
0
 10
7052.9690688089904143
 20
213.9281828532596137
 30
0.0
 40
0.0424279864973389
 50
3.365130343238337
 51
59.4035012744173727
  0
ARC
  5
3421A
  8
0
 10
7052.9056438539173541
 20
213.9244534512733082
 30
0.0
 40
0.1059624918093116
 50
344.2927542941882848
 51
3.365130343238337
  0
ARC
  5
3421B
  8
0
 10
7052.7908597431187445
 20
213.7719055995189876
 30
0.0
 40
0.2496786613759197
 50
22.0579250004760183
 51
29.7412203176166692
  0
LINE
  5
3421C
  8
0
 10
7052.9168773683049949
 20
213.9022107476316137
 30
0.0
 11
7052.9327781425072317
 21
213.8483321869316001
 31
0.0
  0
ARC
  5
3421D
  8
0
 10
7052.9554220521331445
 20
213.7226358189867028
 30
0.0
 40
0.1277197070061658
 50
75.1731195640951171
 51
100.2121696503423038
  0
ARC
  5
3421E
  8
0
 10
7053.0114613977084446
 20
213.6951209368698983
 30
0.0
 40
0.1042549180344341
 50
70.884558785348645
 51
101.3176658883891008
  0
ARC
  5
3421F
  8
0
 10
7053.0302611511870055
 20
213.7784632014347892
 30
0.0
 40
0.0215706403143143
 50
1.92390251226218
 51
44.6680035740623467
  0
ARC
  5
34220
  8
0
 10
7045.463421197743628
 20
213.1608763485382951
 30
0.0
 40
7.6135470919870176
 50
3.677975651169139
 51
4.6582321972857423
  0
ARC
  5
34221
  8
0
 10
7052.9412358105973908
 20
213.6448022264301869
 30
0.0
 40
0.1201345546098737
 50
351.3511312319434978
 51
2.1339570247751012
  0
ARC
  5
34222
  8
0
 10
7053.0425927428868818
 20
213.6294870722653059
 30
0.0
 40
0.0176274218801106
 50
327.7576234605521108
 51
351.0231077494341889
  0
ARC
  5
34223
  8
0
 10
7053.0542473540463106
 20
213.6227940818513957
 30
0.0
 40
0.004236000204552
 50
211.6099133950546047
 51
320.2040614077022269
  0
ARC
  5
34224
  8
0
 10
7066.5849057630593961
 20
221.8680934476822983
 30
0.0
 40
15.8492250285607206
 50
211.0780898340302087
 51
211.3573207251760948
  0
ARC
  5
34225
  8
0
 10
7053.0064445013058503
 20
213.6832156380995116
 30
0.0
 40
0.0053837471255683
 50
39.3709788173315687
 51
94.3534697170894958
  0
ARC
  5
34226
  8
0
 10
7053.0073549042726881
 20
213.6844744470097908
 30
0.0
 40
0.0043159213275998
 50
107.7961309045892051
 51
154.5527553074045102
  0
ARC
  5
34227
  8
0
 10
7053.0294981747492784
 20
213.6741882924158915
 30
0.0
 40
0.0287315251484819
 50
155.0040665176335892
 51
177.9290973859700102
  0
ARC
  5
34228
  8
0
 10
7053.7815611053301836
 20
213.6664493118379085
 30
0.0
 40
0.780825024260312
 50
179.3559264405197951
 51
185.3261383369182909
  0
ARC
  5
34229
  8
0
 10
7052.6176001192397962
 20
213.5590417266367069
 30
0.0
 40
0.3880821593197012
 50
356.7851894818120968
 51
5.1636430692780104
  0
ARC
  5
3422A
  8
0
 10
7053.0045813438946425
 20
213.5313126739351901
 30
0.0
 40
0.0059856706212511
 50
42.4185901041429005
 51
85.3023685682725556
  0
ARC
  5
3422B
  8
0
 10
7052.7170353173105468
 20
213.3315295808862118
 30
0.0
 40
0.3560707133066934
 50
25.1957338483633784
 51
34.9188939141843093
  0
ARC
  5
3422C
  8
0
 10
7053.0967211055713051
 20
213.514135445595997
 30
0.0
 40
0.0653278215179431
 50
208.3509814046527993
 51
221.1745156606405942
  0
ARC
  5
3422D
  8
0
 10
7053.0521132674821274
 20
213.4744820806841972
 30
0.0
 40
0.0056655105405746
 50
216.3183050363174971
 51
271.3385390165997819
  0
ARC
  5
3422E
  8
0
 10
7053.0505559286220887
 20
213.4734180082733133
 30
0.0
 40
0.0049004121947505
 50
290.1698597741835215
 51
332.1283711229589244
  0
ARC
  5
3422F
  8
0
 10
7053.0178347996788943
 20
213.4863111825598025
 30
0.0
 40
0.0400435632406118
 50
337.716543834493109
 51
359.6633503112503831
  0
ARC
  5
34230
  8
0
 10
7027.4420022755621176
 20
212.5473224033100053
 30
0.0
 40
25.6330710302597211
 50
2.0987982288846099
 51
2.3408566367816839
  0
ARC
  5
34231
  8
0
 10
7053.1549809149737484
 20
213.5967348735890141
 30
0.0
 40
0.1013273693327898
 50
170.5848698687518947
 51
181.3842864274261046
  0
ARC
  5
34232
  8
0
 10
7053.0731660601832118
 20
213.6104970723239944
 30
0.0
 40
0.0183643472148449
 50
148.5351566505588892
 51
171.1870428256601997
  0
ARC
  5
34233
  8
0
 10
7053.0603710608602341
 20
213.6184426229172004
 30
0.0
 40
0.0032398022023598
 50
97.9267204881011963
 51
135.6998032831700982
  0
ARC
  5
34234
  8
0
 10
7053.0601907090722307
 20
213.6175364737331961
 30
0.0
 40
0.0041236125510458
 50
56.8207172659445376
 51
93.7046177203640553
  0
ARC
  5
34235
  8
0
 10
7053.0420050974898913
 20
213.5957066455804068
 30
0.0
 40
0.0325118989482607
 50
28.1137537802885404
 51
51.0410295289078491
  0
ARC
  5
34236
  8
0
 10
7051.5729451313036407
 20
212.8589562683334009
 30
0.0
 40
1.6759544351868629
 50
23.5208771409857711
 51
26.6629855433927396
  0
ARC
  5
34237
  8
0
 10
7053.348444062246017
 20
213.639598098032792
 30
0.0
 40
0.2636663083582095
 50
205.0878779498293909
 51
210.9647386082748142
  0
ARC
  5
34238
  8
0
 10
7053.1716296844169847
 20
213.5329876645600962
 30
0.0
 40
0.0572003295688071
 50
210.5200867334993973
 51
224.1534030813195955
  0
ARC
  5
34239
  8
0
 10
7053.1385483658114026
 20
213.5008678503587021
 30
0.0
 40
0.0110911537471114
 50
224.1462027540950999
 51
252.1631374413479989
  0
ARC
  5
3423A
  8
0
 10
7053.1362013611333168
 20
213.4939873777763921
 30
0.0
 40
0.0038245997431492
 50
254.0607730652247938
 51
312.4034825768937935
  0
ARC
  5
3423B
  8
0
 10
7053.1213152640821136
 20
213.503435279211601
 30
0.0
 40
0.0213456409241692
 50
324.9059539791841189
 51
357.0743276870306886
  0
ARC
  5
3423C
  8
0
 10
7052.3656108207824218
 20
213.5158180406722863
 30
0.0
 40
0.7771390463174641
 50
359.0066875964453175
 51
7.5134577878475284
  0
ARC
  5
3423D
  8
0
 10
7053.9021479169632585
 20
213.6857426130735007
 30
0.0
 40
0.7691096762148771
 50
181.7259446490369044
 51
185.0952982627293011
  0
ARC
  5
3423E
  8
0
 10
7053.1013393017246926
 20
213.6629351069755103
 30
0.0
 40
0.03204985608129
 50
359.3614147728638955
 51
19.723463557997011
  0
ARC
  5
3423F
  8
0
 10
7053.020030635870171
 20
213.8599813381281081
 30
0.0
 40
0.054759919888368
 50
12.4953525427805392
 51
48.8918522487808218
  0
ARC
  5
34240
  8
0
 10
7052.9673450783757289
 20
213.8476859106187931
 30
0.0
 40
0.1088594698586542
 50
347.8516903067941826
 51
12.8138473851243102
  0
ARC
  5
34241
  8
0
 10
7049.8954986258913777
 20
212.3216762353310969
 30
0.0
 40
3.5157788459344661
 50
23.7868579724984883
 51
25.3109102959832697
  0
ARC
  5
34242
  8
0
 10
7053.0850479614937285
 20
213.8246873430452126
 30
0.0
 40
0.0563415396660176
 50
233.85958917385841
 51
251.6809800550682041
  0
ARC
  5
34243
  8
0
 10
7053.0729297284342465
 20
213.7884837399242883
 30
0.0
 40
0.0181642694088311
 50
252.0753588495819031
 51
272.1806460411322064
  0
ARC
  5
34244
  8
0
 10
7053.0733092224745633
 20
213.7785174698732931
 30
0.0
 40
0.008190776818065
 50
272.1806460411320927
 51
324.6892010100993957
  0
ARC
  5
34245
  8
0
 10
7053.0502791253584292
 20
213.7948302051607072
 30
0.0
 40
0.0364129437402741
 50
324.6892010100993957
 51
3.923695890959952
  0
ARC
  5
34246
  8
0
 10
7053.1779792270808684
 20
213.7307314114746077
 30
0.0
 40
0.059387692126882
 50
139.882172029747295
 51
166.342529094889386
  0
ARC
  5
34247
  8
0
 10
7053.1129027508150102
 20
213.7976957895178032
 30
0.0
 40
0.0347865512643201
 50
304.4163918855796283
 51
330.8303338356818131
  0
ARC
  5
34248
  8
0
 10
7052.9176025482101977
 20
214.37239434022041
 30
0.0
 40
0.0178361409864759
 50
264.9889064693904857
 51
330.9453677207947067
  0
ARC
  5
34249
  8
0
 10
7052.883552131182114
 20
214.3876329993130128
 30
0.0
 40
0.0550960102865792
 50
334.2910240943982103
 51
0.3767736401037924
  0
ARC
  5
3424A
  8
0
 10
7052.7705019379982332
 20
214.4003348099502091
 30
0.0
 40
0.1685971782706785
 50
355.8028106031250104
 51
10.2727570114577205
  0
ARC
  5
3424B
  8
0
 10
7053.6085372454654134
 20
214.5105535398172947
 30
0.0
 40
0.7547364208649979
 50
172.784297296036101
 51
180.5763397058481985
  0
ARC
  5
3424C
  8
0
 10
7053.5830395531211252
 20
214.5824065769120068
 30
0.0
 40
0.7236253428603324
 50
175.9985795612815025
 51
178.1828802136797947
  0
ARC
  5
3424D
  8
0
 10
7052.6781159559432126
 20
214.998661695368213
 30
0.0
 40
0.1957242466590851
 50
291.1120908110934238
 51
319.6161966747814063
  0
ARC
  5
3424E
  8
0
 10
7049.9675692461050858
 20
215.1121773233898864
 30
0.0
 40
2.8697149260742569
 50
355.1960987578437994
 51
356.0451654739281935
  0
ARC
  5
3424F
  8
0
 10
7052.6777281997210594
 20
214.8043020132759864
 30
0.0
 40
0.1630375416663834
 50
7.1517941498639583
 51
24.0529780555328401
  0
ARC
  5
34250
  8
0
 10
7061.8578025475799222
 20
215.1400498814467994
 30
0.0
 40
9.0378800757078839
 50
184.7686932195240956
 51
186.2050312298543986
  0
ARC
  5
34251
  8
0
 10
7059.2886148891557241
 20
214.8652251934028072
 30
0.0
 40
6.4543595449511946
 50
186.9328592189627898
 51
192.6322814653408102
  0
ARC
  5
34252
  8
0
 10
7045.7353419447090346
 20
213.5429906818729933
 30
0.0
 40
7.1780184290656273
 50
5.019960850389368
 51
6.755579319437877
  0
ARC
  5
34253
  8
0
 10
7053.2256283942197115
 20
214.2281814163671072
 30
0.0
 40
0.3437977150752392
 50
171.212802673218107
 51
183.0695302812571867
  0
ARC
  5
34254
  8
0
 10
7052.7016527472578673
 20
214.3112337070820956
 30
0.0
 40
0.1867263338839839
 50
350.5891857324619991
 51
358.8999622646763896
  0
ARC
  5
34255
  8
0
 10
7052.2329414998794164
 20
214.3202337316039916
 30
0.0
 40
0.6555239809153615
 50
358.8999622646763896
 51
2.0424529562159952
  0
ARC
  5
34256
  8
0
 10
7053.1525880204753776
 20
214.3530307509350905
 30
0.0
 40
0.2647071679391361
 50
175.642974544601401
 51
182.0424529562160103
  0
ARC
  5
34257
  8
0
 10
7052.9504464904239285
 20
214.3684321893886988
 30
0.0
 40
0.0619797586469874
 50
162.9987641802271128
 51
175.642974544601401
  0
ARC
  5
34258
  8
0
 10
7055.3902837890545925
 20
214.5077843382370872
 30
0.0
 40
2.5082225997541179
 50
184.0738304047916074
 51
187.4340550135044907
  0
ARC
  5
34259
  8
0
 10
7052.9626357057850328
 20
214.4149411118478099
 30
0.0
 40
0.0159293204088677
 50
256.4533522983123248
 51
1.1793329744289249
  0
ARC
  5
3425A
  8
0
 10
7052.267419475011593
 20
214.4775557473311949
 30
0.0
 40
0.7571171711230554
 50
14.8202684713148507
 51
25.9113020657319915
  0
ARC
  5
3425B
  8
0
 10
7052.2919524596909469
 20
214.4840469267616072
 30
0.0
 40
0.7317399619054258
 50
3.344007222587333
 51
14.8202684713148507
  0
ARC
  5
3425C
  8
0
 10
7096.0588932537275468
 20
219.4641599119719046
 30
0.0
 40
43.5064567988928772
 50
187.100012165324614
 51
187.2137342444835895
  0
ARC
  5
3425D
  8
0
 10
7054.2881537477123857
 20
214.1579065543054128
 30
0.0
 40
1.4001660732419681
 50
182.9017835994009999
 51
186.4338893209283867
  0
ARC
  5
3425E
  8
0
 10
7036.4073517950473615
 20
211.9780319015511907
 30
0.0
 40
16.6215559243107798
 50
6.716925478977994
 51
7.2905209464842304
  0
ARC
  5
3425F
  8
0
 10
7053.9191482093920058
 20
213.9721445035362137
 30
0.0
 40
1.0055716987226351
 50
176.1457707227500009
 51
182.8493459531179894
  0
ARC
  5
34260
  8
0
 10
7053.2826508000916874
 20
214.0672417105984096
 30
0.0
 40
0.3678297433263192
 50
176.9504813173969922
 51
184.2882864726130947
  0
ARC
  5
34261
  8
0
 10
7057.0630848582886756
 20
214.4303016248040024
 30
0.0
 40
4.1660635174565899
 50
185.4207970569781025
 51
187.2022833357576133
  0
ARC
  5
34262
  8
0
 10
7050.9456388645176048
 20
213.6366414278926129
 30
0.0
 40
2.002193904417529
 50
5.1167123246912851
 51
6.0870491460277476
  0
ARC
  5
34263
  8
0
 10
7053.0277263009429589
 20
213.8228809938007942
 30
0.0
 40
0.0882065634206128
 50
162.21755429461831
 51
184.9912284636039885
  0
ARC
  5
34264
  8
0
 10
7049.7297754407409229
 20
213.4684514327373108
 30
0.0
 40
3.2479966821831132
 50
3.8026480421279412
 51
6.7525382074214173
  0
ARC
  5
34265
  8
0
 10
7052.9869413373298812
 20
213.6820587732657941
 30
0.0
 40
0.0164189384581749
 50
147.3138999614635054
 51
173.7065660109113026
  0
ARC
  5
34266
  8
0
 10
7052.9762454308583983
 20
213.6884320490038931
 30
0.0
 40
0.0039963278541576
 50
42.9959580659259331
 51
141.3941801444250927
  0
ARC
  5
34267
  8
0
 10
7052.8195919235267866
 20
213.5085848079388029
 30
0.0
 40
0.2424816758148213
 50
44.2884866170862566
 51
48.845110691836048
  0
ARC
  5
34268
  8
0
 10
7052.9968737645504007
 20
213.6806016488530986
 30
0.0
 40
0.0045840869460714
 50
216.0672263372703981
 51
339.781371051341182
  0
ARC
  5
34269
  8
0
 10
7052.2987947940537197
 20
213.7000397249113917
 30
0.0
 40
0.7046249354458941
 50
358.8531819608485876
 51
8.0161917067758317
  0
ARC
  5
3426A
  8
0
 10
7052.9943194524130377
 20
213.6937800496201874
 30
0.0
 40
0.022833509118636
 50
32.0417173596557632
 51
66.9341545498289463
  0
ARC
  5
3426B
  8
0
 10
7052.9631875086415675
 20
213.7032188435929925
 30
0.0
 40
0.0505578703949883
 50
340.4181977402445796
 51
3.0331642715632321
  0
ARC
  5
3426C
  8
0
 10
7053.0682922113601308
 20
213.707638612224514
 30
0.0
 40
0.0983248326365838
 50
346.8849298164901143
 51
34.0412209684233176
  0
ARC
  5
3426D
  8
0
 10
7058.1992664787303511
 20
215.9435453314042093
 30
0.0
 40
5.5184170517900082
 50
204.1555128068654881
 51
205.6581892008304067
  0
ARC
  5
3426E
  8
0
 10
7053.1705846280628975
 20
213.6975904475721109
 30
0.0
 40
0.0508334080656718
 50
222.9697972551643943
 51
246.9321663954108033
  0
ARC
  5
3426F
  8
0
 10
7053.1550943164493219
 20
213.6612173493194859
 30
0.0
 40
0.0112992199447009
 50
246.9321663954121107
 51
307.6942845523602728
  0
ARC
  5
34270
  8
0
 10
7053.141592992616097
 20
213.6786896229627928
 30
0.0
 40
0.0333801187372185
 50
307.6942845523602728
 51
338.3007597442323231
  0
ARC
  5
34271
  8
0
 10
7054.775021320999258
 20
213.8757786774100964
 30
0.0
 40
1.8265354937854861
 50
191.1859591297186114
 51
193.3081918243919972
  0
ARC
  5
34272
  8
0
 10
7054.1305248781791306
 20
213.7481339052150986
 30
0.0
 40
1.1695204289435881
 50
188.4334500053913075
 51
191.176579509517012
  0
ARC
  5
34273
  8
0
 10
7053.3270206053930451
 20
213.6290033508271051
 30
0.0
 40
0.3572327918500367
 50
183.3584394622670004
 51
188.4334500053913075
  0
ARC
  5
34274
  8
0
 10
7053.0298487074296645
 20
213.6115643975456067
 30
0.0
 40
0.0595496481728787
 50
172.7880516557617057
 51
183.3584394622637888
  0
ARC
  5
34275
  8
0
 10
7052.976407388367079
 20
213.6183269288648034
 30
0.0
 40
0.0056821587823822
 50
144.1534745847376087
 51
172.7880516557488022
  0
ARC
  5
34276
  8
0
 10
7052.9728111116428408
 20
213.6207941034732016
 30
0.0
 40
0.0013264968626243
 50
47.9445909545042568
 51
139.5625583288893097
  0
ARC
  5
34277
  8
0
 10
7052.7947412614275891
 20
213.5185311456972954
 30
0.0
 40
0.2066064720151091
 50
14.5842641922934906
 51
29.9822749282483301
  0
ARC
  5
34278
  8
0
 10
7051.3374574608551484
 20
213.0679994720923105
 30
0.0
 40
1.7317574644219109
 50
13.1461432706623604
 51
16.8699268512647507
  0
ARC
  5
34279
  8
0
 10
7054.3261590997326493
 20
213.7740204638658099
 30
0.0
 40
1.3652289408011939
 50
189.4119654900979128
 51
193.4843056232224967
  0
ARC
  5
3427A
  8
0
 10
7053.398787902067852
 20
213.6202961733696952
 30
0.0
 40
0.4252031455444046
 50
184.4723970174817111
 51
189.4119654900979128
  0
ARC
  5
3427B
  8
0
 10
7053.0350895832652895
 20
213.5918487898900082
 30
0.0
 40
0.0603939889621096
 50
173.0388221117835883
 51
184.4723970174817111
  0
ARC
  5
3427C
  8
0
 10
7052.9801072010332064
 20
213.5985619644229985
 30
0.0
 40
0.0050032941807345
 50
146.265429511587314
 51
173.0388221117908074
  0
ARC
  5
3427D
  8
0
 10
7052.9769273780293588
 20
213.600685415823591
 30
0.0
 40
0.0011796414536772
 50
55.4669049571947923
 51
146.2654295116109893
  0
ARC
  5
3427E
  8
0
 10
7052.9628572425262973
 20
213.5865012714365889
 30
0.0
 40
0.0211408623233775
 50
22.1302264744338792
 51
45.7993128854985727
  0
ARC
  5
3427F
  8
0
 10
7052.070827224468303
 20
213.2541359344029956
 30
0.0
 40
0.9730689264267683
 50
12.2930030020142098
 51
20.471931602622071
  0
ARC
  5
34280
  8
0
 10
7053.0840859018271658
 20
213.5806697065754918
 30
0.0
 40
0.0020585658534716
 50
92.5582281797526605
 51
151.6337907498339916
  0
ARC
  5
34281
  8
0
 10
7053.1151742675692731
 20
213.5688941567447898
 30
0.0
 40
0.0352852373945498
 50
158.8111868230051869
 51
183.2154363127797012
  0
ARC
  5
34282
  8
0
 10
7053.2832188217926159
 20
213.5741582421480871
 30
0.0
 40
0.2034032497939251
 50
182.0407516932652072
 51
193.8351880350359124
  0
ARC
  5
34283
  8
0
 10
7056.252799289781251
 20
214.2768187347381001
 30
0.0
 40
3.2549752195728319
 50
193.3451163297945925
 51
194.1744729499332038
  0
ARC
  5
34284
  8
0
 10
7053.0366928813346021
 20
213.4566035151800065
 30
0.0
 40
0.0365565605379755
 50
26.6637680409539612
 51
54.6072680316845904
  0
ARC
  5
34285
  8
0
 10
7052.8267132913906607
 20
213.4118387419603948
 30
0.0
 40
0.3073397957555288
 50
9.4405175217089052
 51
19.454206646032091
  0
ARC
  5
34286
  8
0
 10
7053.0679476573050124
 20
213.4434406196693033
 30
0.0
 40
0.1042240009511929
 50
29.5581649612462094
 51
44.1345981679872992
  0
ARC
  5
34287
  8
0
 10
7053.2409342123537499
 20
213.5187228044250958
 30
0.0
 40
0.0623949230120742
 50
184.4469041850996973
 51
197.0703243634069963
  0
ARC
  5
34288
  8
0
 10
7053.1897401805672416
 20
213.4819313152399047
 30
0.0
 40
0.033798305259224
 50
97.987443819787984
 51
109.0168658670456949
  0
ARC
  5
34289
  8
0
 10
7053.1126440893467588
 20
213.4835883430573915
 30
0.0
 40
0.0790809403730505
 50
13.7657737616550193
 51
23.7213469978023213
  0
ARC
  5
3428A
  8
0
 10
7053.1134745838753588
 20
213.6738200399340997
 30
0.0
 40
0.1727342197874461
 50
292.195165336637217
 51
311.7214296930732758
  0
ARC
  5
3428B
  8
0
 10
7053.192772293694361
 20
213.5367876632384991
 30
0.0
 40
0.0365681665396574
 50
12.80606914631473
 51
28.1909856820811804
  0
ARC
  5
3428C
  8
0
 10
7053.2920821671095837
 20
213.5346703444151046
 30
0.0
 40
0.0697241747494291
 50
146.6245612222539023
 51
163.9619937251661099
  0
ARC
  5
3428D
  8
0
 10
7053.2502719318554227
 20
213.5622134067845934
 30
0.0
 40
0.0196570592259049
 50
120.5909503102874964
 51
146.6245612222539023
  0
ARC
  5
3428E
  8
0
 10
7053.4597151135467357
 20
212.8127534081301064
 30
0.0
 40
0.7971807085205675
 50
104.5688214950990016
 51
105.9786158694764993
  0
ARC
  5
3428F
  8
0
 10
7053.2586533683643211
 20
213.5797827655308083
 30
0.0
 40
0.0045507219540196
 50
15.2444875186779605
 51
83.2264502911232569
  0
ARC
  5
34290
  8
0
 10
7053.1496676102269703
 20
213.5405824136553008
 30
0.0
 40
0.1203582472133228
 50
3.460114568473037
 51
19.6113946472019407
  0
ARC
  5
34291
  8
0
 10
7053.0409415479880408
 20
213.4655831972866054
 30
0.0
 40
0.2432003107786985
 50
13.8621909427670502
 51
19.7704846307616009
  0
LINE
  5
34292
  8
0
 10
7053.3391583068869295
 20
216.0711844720576948
 30
0.0
 11
7054.6510319650069505
 21
211.1989613855315895
 31
0.0
  0
ARC
  5
34293
  8
0
 10
7044.6416811678100203
 20
208.8485371257677912
 30
0.0
 40
10.2816145416074001
 50
8.7336385603151747
 51
13.2149319466639508
  0
ARC
  5
34294
  8
0
 10
7059.5569001490111987
 20
215.0377111132497134
 30
0.0
 40
6.7547619311114886
 50
193.5623071514255003
 51
199.198942633978703
  0
ARC
  5
34295
  8
0
 10
7054.5509712286320791
 20
213.8149532405859929
 30
0.0
 40
1.5945189090716061
 50
193.0344466799053009
 51
197.0555120277321066
  0
ARC
  5
34296
  8
0
 10
7053.490104247392992
 20
213.4894894089370041
 30
0.0
 40
0.4848498333576674
 50
197.0555120277321066
 51
202.3335147811552019
  0
ARC
  5
34297
  8
0
 10
7053.1007411268474243
 20
213.3295338261972915
 30
0.0
 40
0.0639110871127844
 50
202.3335147811552019
 51
212.8304690301432913
  0
ARC
  5
34298
  8
0
 10
7053.0527602743186435
 20
213.2985761517383878
 30
0.0
 40
0.00680995036987
 50
212.8304690301550011
 51
242.7214989938707106
  0
ARC
  5
34299
  8
0
 10
7053.0497221984733187
 20
213.2944430870250869
 30
0.0
 40
0.0019213411577532
 50
267.5230957656564215
 51
356.1776480259514983
  0
ARC
  5
3429A
  8
0
 10
7052.7345084357421001
 20
213.2973240040859935
 30
0.0
 40
0.3171451046080852
 50
359.4563826818720145
 51
12.2787084311099193
  0
ARC
  5
3429B
  8
0
 10
7051.2472073392336824
 20
213.0347832298959929
 30
0.0
 40
1.8272351972920671
 50
10.4043430594824908
 51
13.51676937892978
  0
ARC
  5
3429C
  8
0
 10
7051.7044039365937351
 20
213.1375689742683051
 30
0.0
 40
1.3563837137773951
 50
9.5027194293286481
 51
13.80875208229949
  0
ARC
  5
3429D
  8
0
 10
7052.6368034897268444
 20
213.2936446423152859
 30
0.0
 40
0.4110115432348199
 50
3.6985930725428191
 51
9.5027194293286481
  0
ARC
  5
3429E
  8
0
 10
7053.0281040989166286
 20
213.3189392688614134
 30
0.0
 40
0.01889423312881
 50
343.0315493675303173
 51
3.6985930725460689
  0
ARC
  5
3429F
  8
0
 10
7053.0446009875613527
 20
213.3139055951147043
 30
0.0
 40
0.0016464736701662
 50
214.2601539335319103
 51
343.031549367506102
  0
ARC
  5
342A0
  8
0
 10
7053.1929726153630327
 20
213.3986801861177867
 30
0.0
 40
0.1725240304308491
 50
195.8474186401653867
 51
209.7852762468650951
  0
ARC
  5
342A1
  8
0
 10
7054.3334076027040282
 20
213.7644007940305073
 30
0.0
 40
1.3700790435597521
 50
193.0224191050047011
 51
197.5369310700938001
  0
ARC
  5
342A2
  8
0
 10
7053.0355017818383203
 20
213.3926192995106135
 30
0.0
 40
0.0088052308831304
 50
308.1168969905128847
 51
350.4371330128967088
  0
ARC
  5
342A3
  8
0
 10
7052.8790544441926613
 20
213.41897610437141
 30
0.0
 40
0.167457210443785
 50
350.4371330128967088
 51
0.5685911322812394
  0
ARC
  5
342A4
  8
0
 10
7053.4942272339721967
 20
213.4250811487370072
 30
0.0
 40
0.4477458721646464
 50
176.1458727966978017
 51
180.568591132281199
  0
ARC
  5
342A5
  8
0
 10
7053.0884658253889938
 20
213.4524168290546129
 30
0.0
 40
0.041064719277859
 50
159.9281977171588949
 51
176.1458727966978017
  0
ARC
  5
342A6
  8
0
 10
7053.053449894946425
 20
213.4652409556454131
 30
0.0
 40
0.0037744367923249
 50
108.6062559778901004
 51
160.3509908116949134
  0
ARC
  5
342A7
  8
0
 10
7053.0529608777651447
 20
213.4643940481543893
 30
0.0
 40
0.0044992460363917
 50
54.8504717282960499
 51
95.8538858607899584
  0
ARC
  5
342A8
  8
0
 10
7053.0285734480030442
 20
213.4366953580247923
 30
0.0
 40
0.0413804837396912
 50
26.731802471294511
 51
49.3117724020531725
  0
ARC
  5
342A9
  8
0
 10
7049.361988128165649
 20
211.6875334077166997
 30
0.0
 40
4.1038106657653159
 50
24.0546907498365314
 51
25.5160801319333999
  0
ARC
  5
342AA
  8
0
 10
7053.2473230775885895
 20
213.4297890838633975
 30
0.0
 40
0.1544381260986448
 50
206.7480639159589089
 51
213.1239499607384005
  0
ARC
  5
342AB
  8
0
 10
7053.1414694133318335
 20
213.3597855768821034
 30
0.0
 40
0.0275442795216389
 50
211.4943461399610101
 51
227.9802027917102976
  0
ARC
  5
342AC
  8
0
 10
7053.1308749968666234
 20
213.3480274581525862
 30
0.0
 40
0.0117172451729925
 50
227.9802027917102976
 51
245.0237374150538017
  0
ARC
  5
342AD
  8
0
 10
7053.1272735273150829
 20
213.3402957203504116
 30
0.0
 40
0.0031878634610234
 50
245.0237374150578091
 51
302.0635732561127043
  0
ARC
  5
342AE
  8
0
 10
7053.1198697302443179
 20
213.3465506672403933
 30
0.0
 40
0.012765524490404
 50
315.4429722415774222
 51
355.7526237592726943
  0
ARC
  5
342AF
  8
0
 10
7052.9096596003337254
 20
213.3682587218630999
 30
0.0
 40
0.2240885765776746
 50
354.1979584940054906
 51
4.3165238647034512
  0
ARC
  5
342B0
  8
0
 10
7054.9151510811043408
 20
213.5003500153227947
 30
0.0
 40
1.7857598235077961
 50
181.3440770586144026
 51
183.6995424889842923
  0
ARC
  5
342B1
  8
0
 10
7053.2514266452981246
 20
213.4600989129945106
 30
0.0
 40
0.1215550700432984
 50
170.128446461796301
 51
180.7713641658507981
  0
ARC
  5
342B2
  8
0
 10
7053.1511363086583515
 20
213.477641280614705
 30
0.0
 40
0.0197423122187799
 50
146.8239807387745941
 51
170.3863675863973981
  0
ARC
  5
342B3
  8
0
 10
7053.1388317216078576
 20
213.4853387748511011
 30
0.0
 40
0.0052393437368115
 50
110.4926570627183935
 51
143.6457835581005043
  0
ARC
  5
342B4
  8
0
 10
7053.1367082830338404
 20
213.4815192836753965
 30
0.0
 40
0.0089139212529164
 50
37.3774581166951521
 51
83.5920401379015772
  0
ARC
  5
342B5
  8
0
 10
7053.0764142677808195
 20
213.4302380903465064
 30
0.0
 40
0.0880554774064473
 50
26.895193228504759
 51
40.0777962648396766
  0
ARC
  5
342B6
  8
0
 10
7042.6892271482793149
 20
208.7474105474481973
 30
0.0
 40
11.4819325958492993
 50
23.5593624659390208
 51
24.2872992502553195
  0
ARC
  5
342B7
  8
0
 10
7053.1966319610573919
 20
213.3271616485370998
 30
0.0
 40
0.0199156611000585
 50
356.6368894829789156
 51
28.7060146812229
  0
ARC
  5
342B8
  8
0
 10
7053.1790674462899915
 20
213.3508733440615117
 30
0.0
 40
0.0449578598468249
 50
306.0702572778636181
 51
326.3988964734822957
  0
ARC
  5
342B9
  8
0
 10
7053.1261260131495874
 20
213.4157607518615123
 30
0.0
 40
0.1286585932078248
 50
289.2660429881091773
 51
308.1139295984713158
  0
ARC
  5
342BA
  8
0
 10
7053.3135686448868
 20
213.3192766373556992
 30
0.0
 40
0.1471253718726989
 50
189.7711645802610008
 51
200.3333056240803955
  0
ARC
  5
342BB
  8
0
 10
7048.5542694562864199
 20
209.8969796594344075
 30
0.0
 40
5.7202806564223021
 50
35.9991880148415575
 51
36.1099824636580919
  0
ARC
  5
342BC
  8
0
 10
7053.0356322642355735
 20
213.234323751179204
 30
0.0
 40
0.1485880792873726
 50
9.6418810314921473
 51
20.1925818026261013
  0
ARC
  5
342BD
  8
0
 10
7052.9266518786844244
 20
213.1063765254384066
 30
0.0
 40
0.3063430642607268
 50
35.8089109217884527
 51
37.8405151370763591
  0
LINE
  5
342BE
  8
0
 10
7053.1726300995060228
 20
213.2793433353315891
 30
0.0
 11
7053.1790421613068247
 21
213.2706271988315905
 31
0.0
  0
LINE
  5
342BF
  8
0
 10
7053.1790421613068247
 20
213.2706271988315905
 30
0.0
 11
7053.178044718705678
 21
213.2743695144316121
 31
0.0
  0
LINE
  5
342C0
  8
0
 10
7053.178044718705678
 20
213.2743695144316121
 30
0.0
 11
7053.1716326569048761
 21
213.2830856509316959
 31
0.0
  0
LINE
  5
342C1
  8
0
 10
7053.1716326569048761
 20
213.2830856509316959
 30
0.0
 11
7053.1726300995060228
 21
213.2793433353315891
 31
0.0
  0
LINE
  5
342C2
  8
0
 10
7053.1726300995060228
 20
213.2793433353315891
 30
0.0
 11
7053.1742525575746185
 21
213.279524329695704
 31
0.0
  0
ARC
  5
342C3
  8
0
 10
7053.0290838962118869
 20
213.4717975076945891
 30
0.0
 40
0.0402961489806765
 50
335.308266686355978
 51
1.722011468702825
  0
ARC
  5
342C4
  8
0
 10
7054.8375105470822746
 20
213.8770868063973865
 30
0.0
 40
1.7853617139283959
 50
192.8588287596211899
 51
194.5678830945728066
  0
ARC
  5
342C5
  8
0
 10
7053.2810174110645676
 20
213.472582260618907
 30
0.0
 40
0.1771655784948628
 50
194.567883094569595
 51
203.3256061820071068
  0
ARC
  5
342C6
  8
0
 10
7053.1930650790600339
 20
213.4346573958119109
 30
0.0
 40
0.0813850581587908
 50
203.3256061820048899
 51
214.9014314658703881
  0
ARC
  5
342C7
  8
0
 10
7053.1395217394356223
 20
213.3973030559579058
 30
0.0
 40
0.016099256302399
 50
214.9014314658716955
 51
233.1683540672862023
  0
ARC
  5
342C8
  8
0
 10
7053.1311912799874335
 20
213.3860919991755054
 30
0.0
 40
0.002132753943085
 50
231.745943024335503
 51
334.1239337529614204
  0
ARC
  5
342C9
  8
0
 10
7053.0746727563400782
 20
213.4948270283134946
 30
0.0
 40
0.0839347108680995
 50
342.9085010479295192
 51
0.0191179217659717
  0
ARC
  5
342CA
  8
0
 10
7053.2533275836703979
 20
213.5178543232943866
 30
0.0
 40
0.0741421171205601
 50
193.6309893909833022
 51
204.1658307962912033
  0
ARC
  5
342CB
  8
0
 10
7053.1775341926841065
 20
213.5364301272931016
 30
0.0
 40
0.049601960058755
 50
279.4555881418996819
 51
286.8188997496084198
  0
ARC
  5
342CC
  8
0
 10
7053.1436304420858505
 20
213.4871731688056968
 30
0.0
 40
0.0482886558493103
 50
2.108657095154582
 51
18.3880924391652485
  0
LINE
  5
342CD
  8
0
 10
7053.1817897762048233
 20
213.5025405523315953
 30
0.0
 11
7053.1827959413067219
 21
213.4987655112315963
 31
0.0
  0
LINE
  5
342CE
  8
0
 10
7053.1827959413067219
 20
213.4987655112315963
 30
0.0
 11
7053.1889104301053521
 21
213.5003952114315098
 31
0.0
  0
LINE
  5
342CF
  8
0
 10
7053.1889104301053521
 20
213.5003952114315098
 30
0.0
 11
7053.187904265006182
 21
213.5041702525315941
 31
0.0
  0
LINE
  5
342D0
  8
0
 10
7053.187904265006182
 20
213.5041702525315941
 30
0.0
 11
7053.1817897762048233
 21
213.5025405523317943
 31
0.0
  0
ARC
  5
342D1
  8
0
 10
7053.2078018391321166
 20
213.3233577660471951
 30
0.0
 40
0.1656279158964629
 50
83.586294403401908
 51
97.6745293373417667
  0
ARC
  5
342D2
  8
0
 10
7053.2047719602696816
 20
213.3001935554042063
 30
0.0
 40
0.1889860787046129
 50
77.9306219466184729
 51
83.4579546481842414
  0
ARC
  5
342D3
  8
0
 10
7054.9050749930565871
 20
213.5226880049264935
 30
0.0
 40
1.661214329728782
 50
181.2999089277033136
 51
185.5319191578691118
  0
ARC
  5
342D4
  8
0
 10
7053.2924192431810297
 20
213.5221580839400985
 30
0.0
 40
0.0664442430942416
 50
223.8637339156705934
 51
242.1542891030694022
  0
ARC
  5
342D5
  8
0
 10
7053.2699339675427836
 20
213.4795933106329073
 30
0.0
 40
0.0183054069306915
 50
242.1542891030678959
 51
276.3966563679937281
  0
ARC
  5
342D6
  8
0
 10
7090.5290082637893647
 20
73.6981113618460171
 30
0.0
 40
144.6439214760459038
 50
104.9193218577258051
 51
104.9263742082835051
  0
ARC
  5
342D7
  8
0
 10
7053.2783554535108124
 20
213.4727482241399912
 30
0.0
 40
0.0127600067930727
 50
328.0010739142641114
 51
24.8352797213423386
  0
ARC
  5
342D8
  8
0
 10
7053.4683795722903596
 20
213.5530238762140982
 30
0.0
 40
0.1935323619811668
 50
188.6697757135825952
 51
202.7741510169707055
  0
ARC
  5
342D9
  8
0
 10
7053.096838748088885
 20
213.734961604247502
 30
0.0
 40
0.2311764135256426
 50
304.6964165188448987
 51
314.5457578271572174
  0
ARC
  5
342DA
  8
0
 10
7053.2047338558140837
 20
213.5779704613333081
 30
0.0
 40
0.0548230612677424
 50
351.8562475512903234
 51
6.6316221591588329
  0
ARC
  5
342DB
  8
0
 10
7053.2287463646780452
 20
213.4369394378489062
 30
0.0
 40
0.0505057000252752
 50
29.2589606450694184
 51
72.162533347635744
  0
ARC
  5
342DC
  8
0
 10
7052.6866437125354423
 20
213.3261947611613891
 30
0.0
 40
0.5661221207695305
 50
0.4896759066177698
 51
3.6815998889592021
  0
ARC
  5
342DD
  8
0
 10
7053.1852931144376271
 20
213.2697840085473047
 30
0.0
 40
0.0911110427660064
 50
346.6628986450692196
 51
42.2406479657396474
  0
ARC
  5
342DE
  8
0
 10
7061.9532011791279729
 20
217.0672837087454923
 30
0.0
 40
9.4821162680937281
 50
203.7475326343630968
 51
204.8121561849887939
  0
ARC
  5
342DF
  8
0
 10
7053.2375286135047645
 20
213.0377260362629102
 30
0.0
 40
0.1199816306846126
 50
19.7327836966171795
 51
24.8586982494321198
  0
ARC
  5
342E0
  8
0
 10
7053.338818344253923
 20
213.0729417190572974
 30
0.0
 40
0.0127931311987353
 50
342.7503005391382089
 51
24.4456638308757412
  0
ARC
  5
342E1
  8
0
 10
7053.2576540904055946
 20
213.1558064742127101
 30
0.0
 40
0.1273964995371852
 50
291.2460777233487192
 51
317.138709303308076
  0
ARC
  5
342E2
  8
0
 10
7053.4035173642278096
 20
213.0505595849847111
 30
0.0
 40
0.1006066901503648
 50
187.7062668728771087
 51
202.926423079614608
  0
ARC
  5
342E3
  8
0
 10
7053.847367941804805
 20
213.3475694109349945
 30
0.0
 40
0.6331461432832145
 50
212.0730919044623022
 51
213.9960707537817939
  0
ARC
  5
342E4
  8
0
 10
7053.226909298569808
 20
212.9812838626880875
 30
0.0
 40
0.0963172582033929
 50
7.3193122353136673
 51
22.6847323507226513
  0
ARC
  5
342E5
  8
0
 10
7052.4510921118162514
 20
212.484450653278401
 30
0.0
 40
1.0162730640716611
 50
31.6971014813487209
 51
32.871668833028771
  0
ARC
  5
342E6
  8
0
 10
7053.2029844643193428
 20
213.1278841026966973
 30
0.0
 40
0.1329734543706767
 50
82.5871860969692335
 51
99.0268147262338232
  0
ARC
  5
342E7
  8
0
 10
7053.1991268616220623
 20
212.9695212309052863
 30
0.0
 40
0.2909847156730988
 50
79.1973352102315431
 51
85.8587750982424041
  0
ARC
  5
342E8
  8
0
 10
7053.2430724853402353
 20
213.2112779058062131
 30
0.0
 40
0.0453265041529698
 50
40.6818227798772227
 51
76.4850414790695794
  0
ARC
  5
342E9
  8
0
 10
7053.2756020933711625
 20
213.3163863957003912
 30
0.0
 40
0.0647786845847584
 50
144.3057155440270947
 51
161.6990341475543005
  0
ARC
  5
342EA
  8
0
 10
7053.238240015080919
 20
213.3431309462947922
 30
0.0
 40
0.0188311660955543
 50
126.3578820936366043
 51
144.0655927240819096
  0
ARC
  5
342EB
  8
0
 10
7053.2322818575248675
 20
213.3512248445325952
 30
0.0
 40
0.0087807516691192
 50
84.4228850206201145
 51
126.3578820936341032
  0
ARC
  5
342EC
  8
0
 10
7053.2298269730526954
 20
213.3260846043536105
 30
0.0
 40
0.0340405642975229
 50
55.4563288861257817
 51
84.4228850206201145
  0
ARC
  5
342ED
  8
0
 10
7053.1461611109152727
 20
213.3101645858295967
 30
0.0
 40
0.1119589718142702
 50
18.3273657350851096
 51
23.1185698717987087
  0
ARC
  5
342EE
  8
0
 10
7053.3472037119754532
 20
212.8673793401584078
 30
0.0
 40
0.1285820630958746
 50
82.568544954795442
 51
101.1032327821794041
  0
ARC
  5
342EF
  8
0
 10
7053.3829069967378018
 20
213.1406445035599972
 30
0.0
 40
0.1470056310139862
 50
262.545443493838377
 51
271.6858486746324957
  0
ARC
  5
342F0
  8
0
 10
7053.4574783846119317
 20
213.0982234309007026
 30
0.0
 40
0.1259333385883253
 50
236.0956849006138896
 51
246.1737261851756955
  0
ARC
  5
342F1
  8
0
 10
7053.3546617076899565
 20
212.894256211998993
 30
0.0
 40
0.1028479172085587
 50
51.9183604857792318
 51
59.6648781743123209
  0
ARC
  5
342F2
  8
0
 10
7053.4342731419037591
 20
212.9939842070365046
 30
0.0
 40
0.0247811742371394
 50
229.2488851443856959
 51
237.2228115724055897
  0
ARC
  5
342F3
  8
0
 10
7053.4217589743302597
 20
212.9741750216533092
 30
0.0
 40
0.0013662121942436
 50
228.6999276969631012
 51
307.4105847704602184
  0
ARC
  5
342F4
  8
0
 10
7053.4184663562473361
 20
212.9746592984178903
 30
0.0
 40
0.0044112618809444
 50
339.1584151260785234
 51
15.2563300588903292
  0
ARC
  5
342F5
  8
0
 10
7053.3172277428975576
 20
212.9471095895623023
 30
0.0
 40
0.1093314369738624
 50
15.2244165447620201
 51
26.2530452016191482
  0
ARC
  5
342F6
  8
0
 10
7053.1911729880230268
 20
212.9594857988768126
 30
0.0
 40
0.2269792409804122
 50
9.1221043109310092
 51
20.4224313220901408
  0
ARC
  5
342F7
  8
0
 10
7053.2906421491588844
 20
213.0318237234060064
 30
0.0
 40
0.1134512331994608
 50
3.4686027127823231
 51
29.7345439366524786
  0
ARC
  5
342F8
  8
0
 10
7053.3546623819693195
 20
213.0528286242141007
 30
0.0
 40
0.0493294275513638
 50
45.6338297754543021
 51
85.4842393219086887
  0
ARC
  5
342F9
  8
0
 10
7053.3691210403721925
 20
213.0814038107332919
 30
0.0
 40
0.0231566798954401
 50
117.1719575319206967
 51
165.027397571952207
  0
LINE
  5
342FA
  8
0
 10
7053.3079993349056167
 20
213.0222357816315935
 30
0.0
 11
7053.3192137251071472
 21
213.0047311098315959
 31
0.0
  0
LINE
  5
342FB
  8
0
 10
7053.3192137251071472
 20
213.0047311098315959
 30
0.0
 11
7053.3182418442047492
 21
213.0083775196316083
 31
0.0
  0
LINE
  5
342FC
  8
0
 10
7053.3182418442047492
 20
213.0083775196316083
 30
0.0
 11
7053.3070274540068567
 21
213.0258821913315899
 31
0.0
  0
LINE
  5
342FD
  8
0
 10
7053.3070274540068567
 20
213.0258821913315899
 30
0.0
 11
7053.3079993349056167
 21
213.0222357816315935
 31
0.0
  0
LINE
  5
342FE
  8
0
 10
7053.3079993349056167
 20
213.0222357816315935
 30
0.0
 11
7053.3092390492101913
 21
213.0224300867322995
 31
0.0
  0
ARC
  5
342FF
  8
0
 10
7051.7732565479564073
 20
212.6092043897691894
 30
0.0
 40
1.7543647817107879
 50
21.58381900773648
 51
30.79046876181906
  0
ARC
  5
34300
  8
0
 10
7051.8483233061897408
 20
213.1030881750548076
 30
0.0
 40
1.5636374503712911
 50
359.149430380436911
 51
5.5593540473212144
  0
ARC
  5
34301
  8
0
 10
7053.30501326470403
 20
213.0790109291309875
 30
0.0
 40
0.1067787048353198
 50
337.812819806919606
 51
0.4644320752217686
  0
ARC
  5
34302
  8
0
 10
7052.1556595776819449
 20
212.9718107039786048
 30
0.0
 40
1.226744921527787
 50
5.8722639840464002
 51
23.6251973170035612
  0
LINE
  5
34303
  8
0
 10
7053.1486656117431266
 20
213.148132787559291
 30
0.0
 11
7053.1510726243059253
 21
213.138214325331603
 31
0.0
  0
LINE
  5
34304
  8
0
 10
7053.1510726243059253
 20
213.138214325331603
 30
0.0
 11
7053.1564133298061279
 21
213.1200841126315879
 31
0.0
  0
LINE
  5
34305
  8
0
 10
7053.1564133298061279
 20
213.1200841126315879
 30
0.0
 11
7053.1625447608057584
 21
213.103285568731593
 31
0.0
  0
LINE
  5
34306
  8
0
 10
7053.1625447608057584
 20
213.103285568731593
 30
0.0
 11
7053.1601843385788015
 21
213.1132377945884002
 31
0.0
  0
LINE
  5
34307
  8
0
 10
7053.1601843385788015
 20
213.1132377945884002
 30
0.0
 11
7053.1554073276411145
 21
213.1296783314496111
 31
0.0
  0
LINE
  5
34308
  8
0
 10
7053.1554073276411145
 20
213.1296783314496111
 30
0.0
 11
7053.1486656117431266
 21
213.148132787559291
 31
0.0
  0
ARC
  5
34309
  8
0
 10
7051.8364661712876114
 20
212.7753704738310887
 30
0.0
 40
1.3502747759063589
 50
22.2669565277208612
 51
26.8719357913840113
  0
ARC
  5
3430A
  8
0
 10
7053.3501259480162844
 20
213.4045842626753995
 30
0.0
 40
0.2890641780839619
 50
203.9981092449777975
 51
208.7648591768731023
  0
ARC
  5
3430B
  8
0
 10
7053.1490259610382054
 20
213.2941891712677034
 30
0.0
 40
0.059655632102354
 50
208.7648591768694928
 51
219.5799254776069063
  0
ARC
  5
3430C
  8
0
 10
7053.1459751438878811
 20
213.3006177498573095
 30
0.0
 40
0.0617865775160949
 50
225.9904670349174864
 51
230.0514085482548978
  0
ARC
  5
3430D
  8
0
 10
7053.1096819869662795
 20
213.2583501403155992
 30
0.0
 40
0.0061177609174334
 50
236.4619501055348962
 51
264.3120123063794722
  0
ARC
  5
3430E
  8
0
 10
7053.1090509034238494
 20
213.2554633685290923
 30
0.0
 40
0.003200963194785
 50
270.4429347931202869
 51
316.1725671635009007
  0
ARC
  5
3430F
  8
0
 10
7053.105037024090052
 20
213.2591194470423943
 30
0.0
 40
0.0086296519077634
 50
317.1151785227826849
 51
340.5474866534424905
  0
ARC
  5
34310
  8
0
 10
7052.9570511310630536
 20
213.288365612847997
 30
0.0
 40
0.159392824176012
 50
348.3744284465620922
 51
2.1291841141564949
  0
ARC
  5
34311
  8
0
 10
7053.4932169845360477
 20
213.2949613447644879
 30
0.0
 40
0.3768836766225335
 50
176.0907142810690971
 51
180.1024429047776039
  0
ARC
  5
34312
  8
0
 10
7053.1840513603237923
 20
213.3162386546212872
 30
0.0
 40
0.0669869505729139
 50
167.0352739879901947
 51
176.2188628723039017
  0
ARC
  5
34313
  8
0
 10
7053.136126467901704
 20
213.3271794164643893
 30
0.0
 40
0.0178293971799576
 50
152.2299421505726116
 51
166.7456013968740933
  0
ARC
  5
34314
  8
0
 10
7053.1249268000556185
 20
213.3332036404146095
 30
0.0
 40
0.0051140540009384
 50
117.8534123330920949
 51
153.4869067961128053
  0
ARC
  5
34315
  8
0
 10
7053.123932223709744
 20
213.3342990327776079
 30
0.0
 40
0.0036991975224725
 50
69.7805017764991504
 51
112.1508017637353021
  0
ARC
  5
34316
  8
0
 10
7053.083834724722692
 20
213.2919354021200036
 30
0.0
 40
0.0622174853931602
 50
23.0411460940275994
 51
46.6752947848385205
  0
ARC
  5
34317
  8
0
 10
7052.4737835470396021
 20
212.9877291021695953
 30
0.0
 40
0.7438053610397458
 50
22.095137364908549
 51
26.2140212180731602
  0
ARC
  5
34318
  8
0
 10
7055.4956946935008091
 20
214.2178990111183907
 30
0.0
 40
2.5189033156191898
 50
202.1667484785932061
 51
203.9658820522469114
  0
ARC
  5
34319
  8
0
 10
7053.158838257683783
 20
213.1813552458775121
 30
0.0
 40
0.0375782960747823
 50
357.0858588275743841
 51
20.8646180418788703
  0
ARC
  5
3431A
  8
0
 10
7053.1457332634063278
 20
213.2208809084739016
 30
0.0
 40
0.0654280107583061
 50
306.0979170451888081
 51
320.7053509802864824
  0
ARC
  5
3431B
  8
0
 10
7053.1039472307729739
 20
213.2700826182237108
 30
0.0
 40
0.1298903183291751
 50
290.1377293602151894
 51
308.2049357628557118
  0
ARC
  5
3431C
  8
0
 10
7052.9899489673716744
 20
213.3211471253947877
 30
0.0
 40
0.1273838939763398
 50
0.4657962214608237
 51
14.5433913042970708
  0
ARC
  5
3431D
  8
0
 10
7053.1852103068422366
 20
212.9740605595632132
 30
0.0
 40
0.1311976751762625
 50
94.0743887723271968
 51
99.9482573672009948
  0
ARC
  5
3431E
  8
0
 10
7053.185200335286936
 20
212.9742005473459017
 30
0.0
 40
0.131057332697988
 50
82.2392393034445348
 51
94.0743887723271968
  0
ARC
  5
3431F
  8
0
 10
7053.2647954527556067
 20
213.7945146078801884
 30
0.0
 40
0.6932260572610937
 50
264.8772895665754277
 51
267.0613281079620833
  0
ARC
  5
34320
  8
0
 10
7053.2290552068307079
 20
213.0639651719405947
 30
0.0
 40
0.0382355097882601
 50
50.5843626952499434
 51
89.6993783710975663
  0
ARC
  5
34321
  8
0
 10
7067.0999919982386928
 20
218.927865156587302
 30
0.0
 40
15.0256362324634498
 50
202.8483735779095127
 51
203.4307417496683001
  0
ARC
  5
34322
  8
0
 10
7053.2897408413000448
 20
212.9393559213926039
 30
0.0
 40
0.0273007580059639
 50
341.345657343758603
 51
30.1482027108024297
  0
ARC
  5
34323
  8
0
 10
7053.2816747430106261
 20
212.9534492504477896
 30
0.0
 40
0.0408954202916047
 50
307.5170176845085166
 51
326.0721835901017016
  0
ARC
  5
34324
  8
0
 10
7053.2215255426335716
 20
213.0268072225269975
 30
0.0
 40
0.1357455389506829
 50
291.4498972505618895
 51
308.7976810490022217
  0
ARC
  5
34325
  8
0
 10
7053.3811549883375847
 20
212.9192671678688953
 30
0.0
 40
0.111584720415204
 50
189.7013523261985881
 51
197.5130736463283938
  0
ARC
  5
34326
  8
0
 10
7053.4006363458856868
 20
212.9205858138093106
 30
0.0
 40
0.1306410776876745
 50
195.4930780736453073
 51
204.9416143994797039
  0
ARC
  5
34327
  8
0
 10
7053.937853443115273
 20
213.1323241953926981
 30
0.0
 40
0.7078887879103294
 50
202.1440407953828924
 51
203.742650315665486
  0
ARC
  5
34328
  8
0
 10
7053.2256734120537658
 20
212.8380721262799966
 30
0.0
 40
0.0648655430256285
 50
8.1853798681482086
 51
15.7141476434788299
  0
ARC
  5
34329
  8
0
 10
7053.1293270290589135
 20
212.8151356737633932
 30
0.0
 40
0.1638722311994288
 50
14.3101885235101403
 51
21.9761221283085391
  0
ARC
  5
3432A
  8
0
 10
7052.0440603765273408
 20
212.3686554685158967
 30
0.0
 40
1.337388576919035
 50
22.3150111395894193
 51
23.4311496073290897
  0
LINE
  5
3432B
  8
0
 10
7053.2866817795047609
 20
212.8584590868316013
 30
0.0
 11
7053.2752969206057969
 21
212.8858327111315987
 31
0.0
  0
LINE
  5
3432C
  8
0
 10
7053.2752969206057969
 20
212.8858327111315987
 30
0.0
 11
7053.2743675737046942
 21
212.8893195371315983
 31
0.0
  0
LINE
  5
3432D
  8
0
 10
7053.2743675737046942
 20
212.8893195371315983
 30
0.0
 11
7053.2857524326063867
 21
212.8619459128316009
 31
0.0
  0
LINE
  5
3432E
  8
0
 10
7053.2857524326063867
 20
212.8619459128316009
 30
0.0
 11
7053.2866817795047609
 21
212.8584590868316013
 31
0.0
  0
LINE
  5
3432F
  8
0
 10
7053.2752969206057969
 20
212.8858327111315987
 30
0.0
 11
7053.2757827579443983
 21
212.8859168843632119
 31
0.0
  0
ARC
  5
34330
  8
0
 10
7053.3176787507100016
 20
212.6913130744671037
 30
0.0
 40
0.1584522576193451
 50
96.8239925853062857
 51
100.1049046741739943
  0
ARC
  5
34331
  8
0
 10
7053.3163350366376108
 20
212.7025418041442038
 30
0.0
 40
0.1471434142801937
 50
84.5102047041614952
 51
96.8239925853062857
  0
ARC
  5
34332
  8
0
 10
7053.2676035633403444
 20
212.1954995490943077
 30
0.0
 40
0.6565220601772809
 50
81.4274472678447552
 51
84.5102047041614952
  0
ARC
  5
34333
  8
0
 10
7053.3570101145278386
 20
212.8120982808999884
 30
0.0
 40
0.0336677299925654
 50
44.548523518618147
 51
75.4543008829766961
  0
ARC
  5
34334
  8
0
 10
7026.9643252297573781
 20
201.0292995877481985
 30
0.0
 40
28.9349681512682118
 50
23.68455087726581
 51
24.0813202500326398
  0
ARC
  5
34335
  8
0
 10
7053.3730767619590551
 20
212.6110469546437116
 30
0.0
 40
0.0982274241946564
 50
15.7148332618717408
 51
24.9624533285935293
  0
ARC
  5
34336
  8
0
 10
7053.4510629720844008
 20
212.6330177942166983
 30
0.0
 40
0.0172054359534019
 50
310.5698747206504891
 51
15.6246976335177408
  0
ARC
  5
34337
  8
0
 10
7053.3666024737431144
 20
212.7221457399778899
 30
0.0
 40
0.1399761709111793
 50
293.1621279676023164
 51
313.104729215331588
  0
ARC
  5
34338
  8
0
 10
7053.45494291786963
 20
212.5958767217113916
 30
0.0
 40
0.0333712029978426
 50
184.1662600414082078
 51
197.8376868118077994
  0
ARC
  5
34339
  8
0
 10
7053.5473546522589459
 20
212.6183577870324939
 30
0.0
 40
0.128412872822423
 50
194.7542517535684112
 51
204.479946178853794
  0
ARC
  5
3433A
  8
0
 10
7054.5640375053417301
 20
213.0675292137165115
 30
0.0
 40
1.2398906401125021
 50
203.9025886189641881
 51
205.5525515531375902
  0
ARC
  5
3433B
  8
0
 10
7053.3839828918007697
 20
212.5252022814470934
 30
0.0
 40
0.0618954168464774
 50
6.9728436562399301
 51
18.5793191892133898
  0
ARC
  5
3433C
  8
0
 10
7053.2896386190977864
 20
212.4982955950750068
 30
0.0
 40
0.1599606022527523
 50
16.9474487307920185
 51
27.0832969975096596
  0
ARC
  5
3433D
  8
0
 10
7053.0264448559955781
 20
212.395808720356797
 30
0.0
 40
0.4418799675678918
 50
23.3749810120124799
 51
26.5692299086893016
  0
ARC
  5
3433E
  8
0
 10
7053.4731656264675621
 20
212.3953589419706134
 30
0.0
 40
0.1401315076282458
 50
92.3110596331226816
 51
101.4196408776902985
  0
ARC
  5
3433F
  8
0
 10
7053.4734426813702157
 20
212.385749214233897
 30
0.0
 40
0.1497446321488751
 50
84.7640999039015952
 51
92.2687110853497643
  0
ARC
  5
34340
  8
0
 10
7053.5083031388512609
 20
212.7661602205783993
 30
0.0
 40
0.2322603223264945
 50
264.764099903901581
 51
270.5709712039666215
  0
ARC
  5
34341
  8
0
 10
7053.5115817854657507
 20
212.4371657041828882
 30
0.0
 40
0.0967505305977559
 50
80.3183372038455161
 51
90.5709712039665362
  0
ARC
  5
34342
  8
0
 10
7053.5188620306844314
 20
212.5125589895349947
 30
0.0
 40
0.0219089703876543
 50
27.6912675608778187
 51
65.7722505003841889
  0
ARC
  5
34343
  8
0
 10
7053.6490086722424167
 20
212.6000624565398027
 30
0.0
 40
0.1350689771209811
 50
214.9222718334362128
 51
219.3771438312664088
  0
ARC
  5
34344
  8
0
 10
7053.5487986771831856
 20
212.5181232254859083
 30
0.0
 40
0.0056289273246366
 50
221.7954222942001081
 51
231.0649899527801097
  0
ARC
  5
34345
  8
0
 10
7053.5457467785809058
 20
212.5143212455508888
 30
0.0
 40
0.0007537479673894
 50
229.8971134152052969
 51
255.8175978122563947
  0
ARC
  5
34346
  8
0
 10
7053.545549806105555
 20
212.5137659506521004
 30
0.0
 40
0.0001759096555468
 50
274.0085337861104904
 51
343.0025881643712751
  0
ARC
  5
34347
  8
0
 10
7053.4800533866127807
 20
212.4919937579697091
 30
0.0
 40
0.0691638448058814
 50
18.3033538639205915
 51
29.1602939674719508
  0
ARC
  5
34348
  8
0
 10
7053.3607014615799926
 20
212.4992893361977906
 30
0.0
 40
0.1816789916742299
 50
8.3568405333310487
 51
20.6561921750163293
  0
ARC
  5
34349
  8
0
 10
7053.3795442082828231
 20
212.5513234624189067
 30
0.0
 40
0.1516367633016699
 50
4.5597288657687614
 51
28.3661047589616011
  0
ARC
  5
3434A
  8
0
 10
7053.3315665046166032
 20
212.4919094234506076
 30
0.0
 40
0.2240304711145362
 50
35.9290384134499874
 51
42.2521429520128109
  0
ARC
  5
3434B
  8
0
 10
7053.426481325430359
 20
212.580094353093898
 30
0.0
 40
0.0944913084188406
 50
41.3706645892923106
 51
54.4683893105739969
  0
ARC
  5
3434C
  8
0
 10
7053.4742479048672976
 20
212.6444710616034968
 30
0.0
 40
0.0144162946424645
 50
60.2791452239875909
 51
96.9105364877859756
  0
ARC
  5
3434D
  8
0
 10
7053.4754612593123966
 20
212.6423579218808868
 30
0.0
 40
0.0166871531085528
 50
100.1751414957609967
 51
142.8561499484711987
  0
LINE
  5
3434E
  8
0
 10
7053.4260043747062809
 20
212.579122169331697
 30
0.0
 11
7053.441971116507375
 21
212.5437871013315885
 31
0.0
  0
LINE
  5
3434F
  8
0
 10
7053.441971116507375
 20
212.5437871013315885
 30
0.0
 11
7053.4410997519062221
 21
212.5470563828316131
 31
0.0
  0
LINE
  5
34350
  8
0
 10
7053.4410997519062221
 20
212.5470563828316131
 30
0.0
 11
7053.4251330102069915
 21
212.5823914508316079
 31
0.0
  0
LINE
  5
34351
  8
0
 10
7053.4251330102069915
 20
212.5823914508316079
 30
0.0
 11
7053.4260043747062809
 21
212.579122169331697
 31
0.0
  0
LINE
  5
34352
  8
0
 10
7053.4260043747062809
 20
212.579122169331697
 30
0.0
 11
7053.4265508019061599
 21
212.5792538184313116
 31
0.0
  0
ARC
  5
34353
  8
0
 10
7053.246039572059999
 20
213.1701396541737097
 30
0.0
 40
0.0574395619966566
 50
137.2030387255840083
 51
154.8785210231920928
  0
ARC
  5
34354
  8
0
 10
7053.2184520410846744
 20
213.1956832703434088
 30
0.0
 40
0.0198423786942009
 50
118.8295048418934954
 51
137.2030387255828998
  0
ARC
  5
34355
  8
0
 10
7053.2133259174315754
 20
213.2049962913881984
 30
0.0
 40
0.0092117858283108
 50
62.9412581085673608
 51
118.8295048419426934
  0
ARC
  5
34356
  8
0
 10
7053.1988471443683011
 20
213.1766519763864949
 30
0.0
 40
0.0410399975657747
 50
41.1948947640309697
 51
62.9412581085673608
  0
ARC
  5
34357
  8
0
 10
7053.2065155059553945
 20
213.1858813011841107
 30
0.0
 40
0.029252514563835
 50
356.6347722194137191
 51
37.482065891193507
  0
ARC
  5
34358
  8
0
 10
7053.028556447840856
 20
213.174719772475612
 30
0.0
 40
0.2073763018868501
 50
357.2533295252907806
 51
2.6102834795489991
  0
ARC
  5
34359
  8
0
 10
7053.1750532618780198
 20
213.1065321421826866
 30
0.0
 40
0.0840859076248752
 50
1.064590549534087
 51
43.8478398276471211
  0
ARC
  5
3435A
  8
0
 10
7053.2147931430736207
 20
213.1079000417541067
 30
0.0
 40
0.0443319381132514
 50
335.3065159726415914
 51
0.2512201319422653
  0
ARC
  5
3435B
  8
0
 10
7055.8500483745083329
 20
213.3565335805834877
 30
0.0
 40
2.620175311412857
 50
182.1403439624899931
 51
183.5897195591743127
  0
ARC
  5
3435C
  8
0
 10
7053.0952499035793153
 20
213.249639279609795
 30
0.0
 40
0.0103430085285342
 50
49.1398357912335015
 51
71.5025139917161709
  0
ARC
  5
3435D
  8
0
 10
7053.0976772285748666
 20
213.256305940434288
 30
0.0
 40
0.0032560280628193
 50
74.7920846686556331
 51
143.7475406922634136
  0
ARC
  5
3435E
  8
0
 10
7053.115102729481805
 20
213.2435278844328934
 30
0.0
 40
0.0248645170667913
 50
143.7475406922654031
 51
166.9415756077463868
  0
ARC
  5
3435F
  8
0
 10
7053.0374077365786434
 20
213.261548654736913
 30
0.0
 40
0.0548929909463269
 50
335.0711218027457221
 51
346.9415756077432889
  0
ARC
  5
34360
  8
0
 10
7053.080192919835099
 20
213.2408952564769891
 30
0.0
 40
0.0074214313101089
 50
294.9591827164474012
 51
340.4485209204427747
  0
ARC
  5
34361
  8
0
 10
7053.0826585750528466
 20
213.2394798952809083
 30
0.0
 40
0.0053545505971908
 50
222.5123253485079999
 51
277.1447991475967001
  0
ARC
  5
34362
  8
0
 10
7053.094828909059288
 20
213.2536052576213876
 30
0.0
 40
0.0239709710266187
 50
216.2027859368135978
 51
227.7498086000506134
  0
ARC
  5
34363
  8
0
 10
7048.5960298761756349
 20
211.3805645237389115
 30
0.0
 40
4.8498423404876867
 50
20.5670059719411285
 51
22.5374474902819983
  0
ARC
  5
34364
  8
0
 10
7052.5245026754309947
 20
212.9343607343664928
 30
0.0
 40
0.6631131970584507
 50
18.9160149007891185
 51
28.806709268860601
  0
LINE
  5
34365
  8
0
 10
7052.984629179305557
 20
213.8282501116316041
 30
0.0
 11
7052.9836498675058465
 21
213.8319244016315963
 31
0.0
  0
LINE
  5
34366
  8
0
 10
7052.9836498675058465
 20
213.8319244016315963
 30
0.0
 11
7052.9870884571073475
 21
213.8122601225315975
 31
0.0
  0
LINE
  5
34367
  8
0
 10
7052.9870884571073475
 20
213.8122601225315975
 30
0.0
 11
7052.9880677689061486
 21
213.8085858326315929
 31
0.0
  0
LINE
  5
34368
  8
0
 10
7052.9880677689061486
 20
213.8085858326315929
 30
0.0
 11
7052.984629179305557
 21
213.8282501116316041
 31
0.0
  0
LINE
  5
34369
  8
0
 10
7052.9870884571073475
 20
213.8122601225315975
 30
0.0
 11
7052.9874033667583717
 21
213.8123853524126048
 31
0.0
  0
LINE
  5
3436A
  8
0
 10
7053.1526953306056384
 20
213.1332533277316088
 30
0.0
 11
7053.1594928348049507
 21
213.1145127020315897
 31
0.0
  0
LINE
  5
3436B
  8
0
 10
7053.1594928348049507
 20
213.1145127020315897
 30
0.0
 11
7053.1585134259057668
 21
213.1181873566316085
 31
0.0
  0
LINE
  5
3436C
  8
0
 10
7053.1585134259057668
 20
213.1181873566316085
 30
0.0
 11
7053.1517159216045911
 21
213.1369279822316116
 31
0.0
  0
LINE
  5
3436D
  8
0
 10
7053.1517159216045911
 20
213.1369279822316116
 30
0.0
 11
7053.1526953306056384
 21
213.1332533277316088
 31
0.0
  0
LINE
  5
3436E
  8
0
 10
7053.1526953306056384
 20
213.1332533277316088
 30
0.0
 11
7053.1530313862604089
 21
213.1333012643250981
 31
0.0
  0
ARC
  5
3436F
  8
0
 10
7053.1027055941176513
 20
213.1590434341605089
 30
0.0
 40
0.0816646836863831
 50
302.7087395365230122
 51
317.0669442982184023
  0
ARC
  5
34370
  8
0
 10
7053.0533003306300088
 20
213.235974226554589
 30
0.0
 40
0.1730934913935724
 50
291.5954165330160777
 51
302.7087395365230122
  0
ARC
  5
34371
  8
0
 10
7053.7849086511469068
 20
213.2053558160444027
 30
0.0
 40
0.6804973517373547
 50
191.0411676899122995
 51
195.7686350484601121
  0
ARC
  5
34372
  8
0
 10
7053.1525452132673308
 20
212.8722632927351128
 30
0.0
 40
0.1498673793745305
 50
83.1127196739393526
 51
98.6441665431338635
  0
ARC
  5
34373
  8
0
 10
7053.0928000754529421
 20
212.2737986227911904
 30
0.0
 40
0.751281140132293
 50
81.4153956847593179
 51
84.0623837885276259
  0
ARC
  5
34374
  8
0
 10
7053.1996275354540558
 20
212.9894782545821954
 30
0.0
 40
0.0276994543987011
 50
32.1708798187534697
 51
78.9352794615168136
  0
ARC
  5
34375
  8
0
 10
7062.7573471435071042
 20
216.8302143807111122
 30
0.0
 40
10.2732927334962305
 50
201.8649905268416944
 51
202.5602481973903934
  0
ARC
  5
34376
  8
0
 10
7053.2446614668870097
 20
212.8765292802468991
 30
0.0
 40
0.0283423380145621
 50
314.642154725753187
 51
25.6934341119377088
  0
ARC
  5
34377
  8
0
 10
7053.1786378299530043
 20
212.961984951027091
 30
0.0
 40
0.136166949454391
 50
290.8628884379087935
 51
309.1335907949228954
  0
ARC
  5
34378
  8
0
 10
7054.2972170486818868
 20
213.1217932018768977
 30
0.0
 40
1.107916805297813
 50
195.0159280464148992
 51
198.3760813997492107
  0
ARC
  5
34379
  8
0
 10
7052.3107367650991364
 20
212.5259715390093049
 30
0.0
 40
0.9670163095289616
 50
14.7710437880268408
 51
18.6209656581330094
  0
ARC
  5
3437A
  8
0
 10
7053.2691803467278078
 20
212.6340398663286066
 30
0.0
 40
0.1404399687124921
 50
83.1222475337701781
 51
99.5850545638699032
  0
ARC
  5
3437B
  8
0
 10
7053.2762026535765472
 20
212.6083095353677095
 30
0.0
 40
0.165449912821178
 50
73.395796436232942
 51
86.6057814463370335
  0
ARC
  5
3437C
  8
0
 10
7053.3178618620895577
 20
212.7426507158629931
 30
0.0
 40
0.0248533824832741
 50
24.03014777198592
 51
76.9319808209064746
  0
ARC
  5
3437D
  8
0
 10
7061.3695637052569509
 20
215.9592551888221976
 30
0.0
 40
8.6456011178483294
 50
201.7699222591282933
 51
202.8149445525658052
  0
ARC
  5
3437E
  8
0
 10
7053.2106405769718549
 20
212.8472733383528066
 30
0.0
 40
0.1160194689412584
 50
346.9718242954324978
 51
1.012662327128476
  0
ARC
  5
3437F
  8
0
 10
7053.2455501534686846
 20
212.7545401178225859
 30
0.0
 40
0.1026451704998976
 50
15.5863815582846801
 51
40.4385311720365905
  0
ARC
  5
34380
  8
0
 10
7053.3098320196659188
 20
212.7711022640592944
 30
0.0
 40
0.036301044075112
 50
328.5579543420578261
 51
17.6684537430477988
  0
ARC
  5
34381
  8
0
 10
7052.8841516549500739
 20
213.1068636746855987
 30
0.0
 40
0.3245768456226158
 50
353.6722044260621942
 51
358.8970605937934124
  0
ARC
  5
34382
  8
0
 10
7053.1590189397511494
 20
213.0186039274362884
 30
0.0
 40
0.0709446067273913
 50
14.0823927206410708
 51
47.7158286080695717
  0
ARC
  5
34383
  8
0
 10
7053.1920222090857351
 20
213.0247914236989004
 30
0.0
 40
0.0374826087832838
 50
326.2335173889139242
 51
17.184991411958201
  0
ARC
  5
34384
  8
0
 10
7051.3496596766608491
 20
212.4205474358900858
 30
0.0
 40
1.8862399706714781
 50
20.3218833596244686
 51
21.3875918813678112
  0
ARC
  5
34385
  8
0
 10
7053.1735123056732846
 20
213.1337964701945964
 30
0.0
 40
0.0721235949135738
 50
200.6068887594701096
 51
229.3046377498619961
  0
ARC
  5
34386
  8
0
 10
7053.3380509025573701
 20
212.9413783229468038
 30
0.0
 40
0.0272187863862078
 50
124.1128041170731962
 51
154.836215815385799
  0
ARC
  5
34387
  8
0
 10
7053.3289870053731647
 20
212.9547592009755022
 30
0.0
 40
0.0110570374407741
 50
48.5947587758943129
 51
124.1128041170731962
  0
ARC
  5
34388
  8
0
 10
7053.2945320289136362
 20
212.903907849076802
 30
0.0
 40
0.0724061495226124
 50
30.7974072775215113
 51
54.7703225611004783
  0
ARC
  5
34389
  8
0
 10
7053.2702876667299279
 20
212.904085266380207
 30
0.0
 40
0.0939845976150757
 50
1.710608921607192
 51
23.1140345337649293
  0
ARC
  5
3438A
  8
0
 10
7053.2666640464249213
 20
212.8282937310250134
 30
0.0
 40
0.1252864461208619
 50
23.1511780456524505
 51
38.8540858246913174
  0
ARC
  5
3438B
  8
0
 10
7053.3280859944115946
 20
212.8502926711732073
 30
0.0
 40
0.0602893446711706
 50
338.7228804779308007
 51
26.8802950840416699
  0
ARC
  5
3438C
  8
0
 10
7050.2134829834621996
 20
212.9301351839432925
 30
0.0
 40
3.1518346985263901
 50
359.5547645250948108
 51
1.1751654113863561
  0
ARC
  5
3438D
  8
0
 10
7038.3114498427839862
 20
207.9279310124923938
 30
0.0
 40
15.6545070414546803
 50
18.2896999683310284
 51
18.6178742427706716
  0
ARC
  5
3438E
  8
0
 10
7054.3773733242232993
 20
213.3558135424700026
 30
0.0
 40
1.3036297777478449
 50
199.2643815323048102
 51
203.1972995928998102
  0
ARC
  5
3438F
  8
0
 10
7039.4892142018607046
 20
208.2202331832110929
 30
0.0
 40
14.4546723338898904
 50
18.6582383178906284
 51
19.3155736110858101
  0
ARC
  5
34390
  8
0
 10
7053.4587216780682866
 20
213.1209084588884934
 30
0.0
 40
0.3495317141400369
 50
199.9900891451746929
 51
212.8185645827676069
  0
ARC
  5
34391
  8
0
 10
7052.7992434109373789
 20
212.7037606806889869
 30
0.0
 40
0.4308284614653644
 50
20.5555079049606988
 51
31.9065978682354299
  0
ARC
  5
34392
  8
0
 10
7057.7106330885599164
 20
214.6245178773345117
 30
0.0
 40
4.8453331028732052
 50
199.3203690288979999
 51
200.8298307149987068
  0
ARC
  5
34393
  8
0
 10
7046.1717583358349657
 20
210.2324391361472919
 30
0.0
 40
7.5314307579786126
 50
20.7195629550319182
 51
21.7343310654740911
  0
ARC
  5
34394
  8
0
 10
7053.1916772366239456
 20
212.8821907288414081
 30
0.0
 40
0.0285538403878165
 50
306.2441217781756109
 51
31.2784130254060884
  0
ARC
  5
34395
  8
0
 10
7053.1200354210177466
 20
212.9796526515634127
 30
0.0
 40
0.1495140462125627
 50
290.5452913265942811
 51
306.3044358180512177
  0
ARC
  5
34396
  8
0
 10
7054.9300556311081891
 20
213.229420344820511
 30
0.0
 40
1.8002497666726409
 50
192.5041252664155991
 51
194.8290225115702015
  0
ARC
  5
34397
  8
0
 10
7053.2107474767635722
 20
212.620575131642795
 30
0.0
 40
0.1495764493460866
 50
82.5476315743676849
 51
98.0639243619690149
  0
ARC
  5
34398
  8
0
 10
7053.213456391602449
 20
212.4845083218640127
 30
0.0
 40
0.2848692152180635
 50
80.2605859508936845
 51
86.640924830740417
  0
ARC
  5
34399
  8
0
 10
7053.2566748558956533
 20
212.7365682288167932
 30
0.0
 40
0.0291310429292475
 50
19.5053748677570304
 51
80.1725689009740847
  0
ARC
  5
3439A
  8
0
 10
7066.261325106824188
 20
217.7324212860769137
 30
0.0
 40
13.9021200898401904
 50
201.0178892717850943
 51
201.5553771366178921
  0
ARC
  5
3439B
  8
0
 10
7053.3000808350589068
 20
212.6094938302508979
 30
0.0
 40
0.0349205360079675
 50
315.1701106975813786
 51
25.9561607257829507
  0
ARC
  5
3439C
  8
0
 10
7053.2200970150652211
 20
212.7278304008073917
 30
0.0
 40
0.1772252919005862
 50
293.0035715163016903
 51
306.2317801106711954
  0
ARC
  5
3439D
  8
0
 10
7051.3430660528501903
 20
211.9481790667691996
 30
0.0
 40
2.0416010289554358
 50
15.3196047122122199
 51
17.5764544363458413
  0
ARC
  5
3439E
  8
0
 10
7053.3368262590411177
 20
212.318557965528413
 30
0.0
 40
0.1708141064599975
 50
84.5224565054852093
 51
98.3153089780953025
  0
ARC
  5
3439F
  8
0
 10
7053.3347305840561603
 20
212.2967037708212956
 30
0.0
 40
0.192768552022008
 50
76.092432488550898
 51
84.5224565054852093
  0
ARC
  5
343A0
  8
0
 10
7054.6158660221453829
 20
213.220303833002788
 30
0.0
 40
1.452043093215897
 50
198.1289181652194031
 51
204.3255447953559099
  0
ARC
  5
343A1
  8
0
 10
7053.4351833827668088
 20
212.6865713406141083
 30
0.0
 40
0.1563263539705065
 50
204.3255447953559099
 51
222.3657810406677982
  0
ARC
  5
343A2
  8
0
 10
7044.0156021370330564
 20
209.2436338043349906
 30
0.0
 40
9.8486008612492846
 50
19.4614988144382011
 51
20.9818938254849598
  0
ARC
  5
343A3
  8
0
 10
7053.9695755877282863
 20
213.1425040274270089
 30
0.0
 40
0.8510636779882247
 50
209.6072207840958868
 51
212.3275359086779872
  0
ARC
  5
343A4
  8
0
 10
7051.7361131895113431
 20
211.5249335884095103
 30
0.0
 40
1.909041373717614
 50
36.3775011219461106
 51
37.5115821598657107
  0
ARC
  5
343A5
  8
0
 10
7049.6409400022621412
 20
210.3404426716082014
 30
0.0
 40
4.3081496966096173
 50
32.1967444481687721
 51
32.5312517474347374
  0
ARC
  5
343A6
  8
0
 10
7053.7490243031452337
 20
212.6877660501066885
 30
0.0
 40
0.4565412118722814
 50
189.8923523734682135
 51
194.507790544184104
  0
ARC
  5
343A7
  8
0
 10
7058.674087808076365
 20
214.613316651241405
 30
0.0
 40
5.782054502248859
 50
198.5986005460318893
 51
201.6325851470394923
  0
ARC
  5
343A8
  8
0
 10
7053.2887222827221194
 20
212.4775559346051921
 30
0.0
 40
0.0113586265032951
 50
327.0490305082965961
 51
21.6325851470470916
  0
ARC
  5
343A9
  8
0
 10
7053.2523601870752827
 20
212.5011255407194142
 30
0.0
 40
0.0546913893080074
 50
307.510634078924511
 51
327.0490305082965961
  0
ARC
  5
343AA
  8
0
 10
7053.2082682869304335
 20
212.5585651468911976
 30
0.0
 40
0.1271027421162939
 50
288.7955730017424116
 51
307.510634078924511
  0
ARC
  5
343AB
  8
0
 10
7092.5336190481093581
 20
222.1223925888361066
 30
0.0
 40
40.4604353298045822
 50
193.8481029086458136
 51
193.9921361700841089
  0
ARC
  5
343AC
  8
0
 10
7053.293859630031875
 20
212.1693681259392861
 30
0.0
 40
0.1713390538983416
 50
82.7724606598475958
 51
96.7609056428944143
  0
ARC
  5
343AD
  8
0
 10
7053.3138581784678536
 20
212.1632389352834025
 30
0.0
 40
0.1761137318935128
 50
74.2168990982557659
 51
89.4932428442337908
  0
ARC
  5
343AE
  8
0
 10
7053.8415972747679916
 20
212.5673347857346869
 30
0.0
 40
0.5341261894881267
 50
206.0568719204927959
 51
210.183193947155786
  0
ARC
  5
343AF
  8
0
 10
7053.2851789878650379
 20
212.4488636013456926
 30
0.0
 40
0.0453869887622761
 50
40.8918582843675509
 51
77.8409479476917028
  0
ARC
  5
343B0
  8
0
 10
7054.0992215136639061
 20
212.7547290623259073
 30
0.0
 40
0.827190077212257
 50
198.8025618611754055
 51
204.0995622268391116
  0
ARC
  5
343B1
  8
0
 10
7049.6144438923211055
 20
211.0464397618295038
 30
0.0
 40
3.9735270911859111
 50
18.6513723840837109
 51
20.1765928230064517
  0
ARC
  5
343B2
  8
0
 10
7053.3487954673164495
 20
212.3070030993264083
 30
0.0
 40
0.0321566718498418
 50
305.1799957907256271
 51
18.5052479171325892
  0
ARC
  5
343B3
  8
0
 10
7053.2445345196383641
 20
212.4462992289419958
 30
0.0
 40
0.206139185902728
 50
294.9307321761770027
 51
306.559367477765079
  0
ARC
  5
343B4
  8
0
 10
7038.5301578534181317
 20
207.8912099933046989
 30
0.0
 40
15.4323805827608993
 50
16.0737730950034816
 51
16.4424126191212387
  0
ARC
  5
343B5
  8
0
 10
7053.3848977300349361
 20
211.9967988957299951
 30
0.0
 40
0.1692078085789578
 50
85.007647388858814
 51
98.7268484164197133
  0
ARC
  5
343B6
  8
0
 10
7052.6629321748860093
 20
211.8919128805711978
 30
0.0
 40
0.8267518392221433
 50
14.6239721025311802
 51
18.0756143756555083
  0
LINE
  5
343B7
  8
0
 10
7053.3437363873936192
 20
212.2174394681339038
 30
0.0
 11
7053.3357735912895805
 21
212.213887765383987
 31
0.0
  0
LINE
  5
343B8
  8
0
 10
7053.3357735912895805
 20
212.213887765383987
 30
0.0
 11
7053.3643735445048151
 21
212.1156007596316044
 31
0.0
  0
ARC
  5
343B9
  8
0
 10
7053.3900938163169485
 20
211.9487439425923014
 30
0.0
 40
0.1688275148621048
 50
85.0336894534480336
 51
98.762931083851683
  0
ARC
  5
343BA
  8
0
 10
7053.4006746650657078
 20
211.813797940861491
 30
0.0
 40
0.3031665468137621
 50
82.3397631208628411
 51
89.2374844446242292
  0
ARC
  5
343BB
  8
0
 10
7053.4325100658115844
 20
212.0760606883098944
 30
0.0
 40
0.0391492473732098
 50
65.7091882023937188
 51
77.3458944830599933
  0
ARC
  5
343BC
  8
0
 10
7054.3346158256781564
 20
212.4921647687075961
 30
0.0
 40
0.9642187113463545
 50
203.2371519789024887
 51
204.2895486430493861
  0
ARC
  5
343BD
  8
0
 10
7053.3594656837467483
 20
212.5868111757467886
 30
0.0
 40
0.0455644757742769
 50
358.2634264016722909
 51
26.1201200622191614
  0
ARC
  5
343BE
  8
0
 10
7053.3841434987389221
 20
212.586062988537094
 30
0.0
 40
0.0208753215384329
 50
304.1304799597133979
 51
358.2634264016788279
  0
ARC
  5
343BF
  8
0
 10
7053.3022257293805524
 20
212.6847214351627997
 30
0.0
 40
0.1490246412551396
 50
292.8090755490723041
 51
308.9239708657340771
  0
ARC
  5
343C0
  8
0
 10
7053.5017112402238126
 20
212.5763711906147932
 30
0.0
 40
0.1446553830444129
 50
191.5732855398530887
 51
197.8942448898968962
  0
ARC
  5
343C1
  8
0
 10
7055.5262414061098752
 20
213.2694588612181121
 30
0.0
 40
2.284516093382758
 50
198.8348019068943984
 51
200.1181474999249872
  0
ARC
  5
343C2
  8
0
 10
7053.4283745900957001
 20
212.4990348095506079
 30
0.0
 40
0.0496911385168904
 50
197.9952939730341086
 51
205.0615324414634131
  0
ARC
  5
343C3
  8
0
 10
7053.2044718001943693
 20
212.4396424038201019
 30
0.0
 40
0.1829530937528546
 50
12.0978557208122695
 51
18.8679344752170408
  0
ARC
  5
343C4
  8
0
 10
7050.7612703499116833
 20
211.5778256405529874
 30
0.0
 40
2.7736902248362871
 50
19.3927619734348795
 51
20.45937908911759
  0
LINE
  5
343C5
  8
0
 10
7053.3641585598061283
 20
212.5332253138315934
 30
0.0
 11
7053.3800017417061099
 21
212.4891244621315991
 31
0.0
  0
LINE
  5
343C6
  8
0
 10
7053.3800017417061099
 20
212.4891244621315991
 30
0.0
 11
7053.379203696606055
 21
212.4921186557315878
 31
0.0
  0
LINE
  5
343C7
  8
0
 10
7053.379203696606055
 20
212.4921186557315878
 30
0.0
 11
7053.3633605147060734
 21
212.5362195074316105
 31
0.0
  0
LINE
  5
343C8
  8
0
 10
7053.3633605147060734
 20
212.5362195074316105
 30
0.0
 11
7053.3641585598061283
 21
212.5332253138315934
 31
0.0
  0
ARC
  5
343C9
  8
0
 10
7053.4070101175593663
 20
212.3564437876777902
 30
0.0
 40
0.1238215439150217
 50
86.4748809517684265
 51
101.0104412966222043
  0
ARC
  5
343CA
  8
0
 10
7053.3798973874918374
 20
211.5492009832302074
 30
0.0
 40
0.9314775990444699
 50
86.013476745328532
 51
87.8634842734905703
  0
ARC
  5
343CB
  8
0
 10
7053.4426383102809268
 20
212.432751909702688
 30
0.0
 40
0.0457174178287357
 50
52.9501911081577035
 51
87.4712226917042699
  0
ARC
  5
343CC
  8
0
 10
7053.4488778544318848
 20
212.4453468740188953
 30
0.0
 40
0.0320123145416363
 50
21.7811300206315615
 51
48.2759004744575506
  0
ARC
  5
343CD
  8
0
 10
7082.7069185956106594
 20
224.5997503180022932
 30
0.0
 40
31.6502012796552101
 50
202.5598094607888981
 51
202.9186446880038091
  0
ARC
  5
343CE
  8
0
 10
7053.5235066574341545
 20
212.2572826411443998
 30
0.0
 40
0.0360475837237503
 50
318.5826249706454973
 51
28.3716147618617001
  0
ARC
  5
343CF
  8
0
 10
7053.4526284079620382
 20
212.3475210174318875
 30
0.0
 40
0.1503394694204589
 50
294.5837292756992269
 51
310.6369832832643851
  0
ARC
  5
343D0
  8
0
 10
7053.6254145631319261
 20
212.2329155172467949
 30
0.0
 40
0.1124361505864786
 50
191.3389306158906038
 51
199.7935523097401074
  0
ARC
  5
343D1
  8
0
 10
7057.3278805428908527
 20
213.6568379326334082
 30
0.0
 40
4.0792491527652226
 50
201.0018767725782993
 51
201.8278288006906109
  0
ARC
  5
343D2
  8
0
 10
7053.5647035614638298
 20
212.1482396073407983
 30
0.0
 40
0.0249765136423259
 50
199.0278640387278131
 51
211.2253939752486929
  0
ARC
  5
343D3
  8
0
 10
7053.4063221679089111
 20
212.1060005649005973
 30
0.0
 40
0.1401188783216287
 50
12.0663573146530894
 51
21.2583183355580907
  0
ARC
  5
343D4
  8
0
 10
7051.1308955539825547
 20
211.219913519760496
 30
0.0
 40
2.581986297640952
 50
21.2757251772049685
 51
22.5675643771089582
  0
LINE
  5
343D5
  8
0
 10
7053.519595983407271
 20
212.1970404576316014
 30
0.0
 11
7053.5396436618057123
 21
212.1463940813316071
 31
0.0
  0
LINE
  5
343D6
  8
0
 10
7053.5396436618057123
 20
212.1463940813316071
 30
0.0
 11
7053.5389321957063657
 21
212.1490634385316127
 31
0.0
  0
LINE
  5
343D7
  8
0
 10
7053.5389321957063657
 20
212.1490634385316127
 30
0.0
 11
7053.518884517206061
 21
212.199709814831607
 31
0.0
  0
LINE
  5
343D8
  8
0
 10
7053.518884517206061
 20
212.199709814831607
 30
0.0
 11
7053.519595983407271
 21
212.1970404576316014
 31
0.0
  0
LINE
  5
343D9
  8
0
 10
7053.519595983407271
 20
212.1970404576316014
 30
0.0
 11
7053.519901199524611
 21
212.1971413740378125
 31
0.0
  0
ARC
  5
343DA
  8
0
 10
7053.4118701286733994
 20
212.5959313259918133
 30
0.0
 40
0.0157412319426376
 50
84.2922248069466207
 51
136.5841899126413921
  0
ARC
  5
343DB
  8
0
 10
7053.4088089901779313
 20
212.5875744705959107
 30
0.0
 40
0.0244615750974808
 50
36.8943879598196034
 51
79.0973597267992403
  0
ARC
  5
343DC
  8
0
 10
7053.2898323930494371
 20
212.478496326790804
 30
0.0
 40
0.1857703093998366
 50
40.154371463630639
 51
41.7758052936926418
  0
ARC
  5
343DD
  8
0
 10
7053.4336879979200603
 20
212.5427727346132087
 30
0.0
 40
0.0345401323129704
 50
326.5913417776714027
 51
347.6290653933136809
  0
ARC
  5
343DE
  8
0
 10
7053.3484778340271077
 20
212.4359048343139023
 30
0.0
 40
0.1439562961117008
 50
25.8142386866503486
 51
37.6078509335396589
  0
ARC
  5
343DF
  8
0
 10
7053.420881689304224
 20
212.4689869848783985
 30
0.0
 40
0.0643955180931912
 50
2.3873333959009471
 51
27.3694475820658099
  0
ARC
  5
343E0
  8
0
 10
7053.4672998325677327
 20
212.4708600285376008
 30
0.0
 40
0.0179397491795734
 50
309.4392924418309008
 51
2.5857295266391498
  0
ARC
  5
343E1
  8
0
 10
7053.2342468762899443
 20
212.880408651705693
 30
0.0
 40
0.0229677589318916
 50
101.0015966517158006
 51
138.9080121008252888
  0
ARC
  5
343E2
  8
0
 10
7053.2321326451201458
 20
212.8891048502223953
 30
0.0
 40
0.0140340698846654
 50
55.0641304670875869
 51
99.3036935092738844
  0
ARC
  5
343E3
  8
0
 10
7053.2221546556738758
 20
212.8763828843050021
 30
0.0
 40
0.0301906981383737
 50
35.3101005546494733
 51
53.3662273246487189
  0
ARC
  5
343E4
  8
0
 10
7053.1336439369251821
 20
212.8136903735903047
 30
0.0
 40
0.1386549698275164
 50
18.2557870430989695
 51
35.3101005546494733
  0
ARC
  5
343E5
  8
0
 10
7053.2701051984140577
 20
212.7633279199708909
 30
0.0
 40
0.0222201808498227
 50
309.3437143121349777
 51
26.3239596892074204
  0
ARC
  5
343E6
  8
0
 10
7052.4823047249301453
 20
212.5542739189534984
 30
0.0
 40
1.018877966245928
 50
4.9730418986075406
 51
24.8862697418975891
  0
ARC
  5
343E7
  8
0
 10
7051.8945177465429879
 20
212.1449007226839001
 30
0.0
 40
1.7434600572995009
 50
22.6649677929210114
 51
29.3092767636168112
  0
ARC
  5
343E8
  8
0
 10
7063.732911389376568
 20
217.0885053333111046
 30
0.0
 40
11.0856782843392896
 50
202.6649677929187874
 51
203.2880889831878903
  0
ARC
  5
343E9
  8
0
 10
7052.9194587849096933
 20
212.6642834076378108
 30
0.0
 40
0.6323001341839324
 50
353.6694467870535732
 51
3.7585399100179391
  0
ARC
  5
343EA
  8
0
 10
7053.4261971865398664
 20
212.6126753913125924
 30
0.0
 40
0.1230464850310045
 50
343.3577446693361139
 51
351.5354481890316265
  0
ARC
  5
343EB
  8
0
 10
7053.5257274563709871
 20
212.5810195214984049
 30
0.0
 40
0.0187085073019255
 50
285.8434151602565976
 51
348.9554366738112208
  0
ARC
  5
343EC
  8
0
 10
7053.3429235215153312
 20
212.6064964574609917
 30
0.0
 40
0.0215436101729571
 50
95.3521551478611542
 51
122.0544793689582974
  0
ARC
  5
343ED
  8
0
 10
7053.3426905124169934
 20
212.6089836020211123
 30
0.0
 40
0.0190455746844198
 50
52.4396471856688606
 51
95.3521551478611542
  0
ARC
  5
343EE
  8
0
 10
7053.3250956473093538
 20
212.5861034699599941
 30
0.0
 40
0.0479086951202574
 50
36.9882093570678805
 51
52.4396471856688606
  0
ARC
  5
343EF
  8
0
 10
7053.226860931586998
 20
212.5121099915589866
 30
0.0
 40
0.1708928169365768
 50
17.6935744864901707
 51
36.9882093570678805
  0
ARC
  5
343F0
  8
0
 10
7054.4222463765845532
 20
212.8210207801357114
 30
0.0
 40
1.1255492403811189
 50
197.1522403243874066
 51
204.8461337029166032
  0
ARC
  5
343F1
  8
0
 10
7053.5945698429250115
 20
212.4377715104278934
 30
0.0
 40
0.2134481236711649
 50
204.8461337029166032
 51
215.9102657682975064
  0
ARC
  5
343F2
  8
0
 10
7053.5216792033270394
 20
212.3849875810427079
 30
0.0
 40
0.1234526318822249
 50
215.9102657682975064
 51
227.6520638649847967
  0
ARC
  5
343F3
  8
0
 10
7053.4564862377483223
 20
212.3134617557170998
 30
0.0
 40
0.0266741918791849
 50
227.6520638649841999
 51
250.8653043582729083
  0
ARC
  5
343F4
  8
0
 10
7053.4591318141574448
 20
212.3210867883666992
 30
0.0
 40
0.0347451396210571
 50
250.8653043582729083
 51
263.3646716480135979
  0
ARC
  5
343F5
  8
0
 10
7053.451130296237352
 20
212.2523031770641921
 30
0.0
 40
0.0345023113997091
 50
67.942918308067263
 51
83.3646716480137542
  0
ARC
  5
343F6
  8
0
 10
7053.3814166088968705
 20
212.4537765305005053
 30
0.0
 40
0.0276264882727357
 50
23.8039920323494911
 51
67.7128271143598965
  0
ARC
  5
343F7
  8
0
 10
7046.8321001953299856
 20
209.8774880966174976
 30
0.0
 40
7.0654164176417718
 50
20.5011158783586112
 51
21.4821768570197413
  0
ARC
  5
343F8
  8
0
 10
7054.9568835488871628
 20
212.944842975144411
 30
0.0
 40
1.6192879042581949
 50
201.4769561135659046
 51
202.7224070330341874
  0
ARC
  5
343F9
  8
0
 10
7053.4204933001119571
 20
212.2984820910072017
 30
0.0
 40
0.0476052156844076
 50
351.1667986903976839
 51
26.0200624435445604
  0
ARC
  5
343FA
  8
0
 10
7053.4463491543911005
 20
212.2974599023247038
 30
0.0
 40
0.0220982399552359
 50
304.1023621164002861
 51
343.4682082658555942
  0
ARC
  5
343FB
  8
0
 10
7053.3625805727424449
 20
212.408236844742504
 30
0.0
 40
0.1609560031872386
 50
292.2337398465219849
 51
306.6854015760094967
  0
ARC
  5
343FC
  8
0
 10
7035.9964162517708246
 20
207.3879592362931987
 30
0.0
 40
18.0950863257509909
 50
15.3414176858952196
 51
15.6169694920675806
  0
ARC
  5
343FD
  8
0
 10
7053.4703337043010833
 20
212.0310700014846077
 30
0.0
 40
0.146231329680849
 50
87.2618739940452031
 51
99.2969449160684832
  0
ARC
  5
343FE
  8
0
 10
7053.4463245301340066
 20
211.5290562295105872
 30
0.0
 40
0.6488189018468967
 50
84.8515166275189188
 51
87.2618739940452031
  0
ARC
  5
343FF
  8
0
 10
7053.4749968155074384
 20
211.8472813969513027
 30
0.0
 40
0.3293046499877464
 50
82.4791523404966966
 51
84.8515166275189188
  0
ARC
  5
34400
  8
0
 10
7053.5079296554067696
 20
212.1339611214314118
 30
0.0
 40
0.0410707905956
 50
57.9334971572850606
 51
75.6648835105462325
  0
ARC
  5
34401
  8
0
 10
7053.5616270847322085
 20
212.2572595218622098
 30
0.0
 40
0.0183774491069483
 50
66.1170491431020935
 51
110.478905562056795
  0
ARC
  5
34402
  8
0
 10
7053.5531162637389571
 20
212.2380383233021064
 30
0.0
 40
0.0393985943675041
 50
31.7047820629712085
 51
66.1170491431020935
  0
ARC
  5
34403
  8
0
 10
7053.328396475972113
 20
212.0530957789092099
 30
0.0
 40
0.3301188657814253
 50
30.01710808189722
 51
38.5320223715642385
  0
ARC
  5
34404
  8
0
 10
7053.4610404671384458
 20
212.1393783350204103
 30
0.0
 40
0.1723046425082453
 50
4.3511289329659846
 51
27.2381934218899389
  0
ARC
  5
34405
  8
0
 10
7053.5290203368940638
 20
212.1127997432913048
 30
0.0
 40
0.1111417852433023
 50
1.975137165006208
 51
20.9014334084891082
  0
ARC
  5
34406
  8
0
 10
7052.871647970398044
 20
212.2245847839963062
 30
0.0
 40
0.7246035814042898
 50
13.0874974964190596
 51
25.1551540941357601
  0
ARC
  5
34407
  8
0
 10
7052.86058277993925
 20
212.22201237867381
 30
0.0
 40
0.7359638502856786
 50
1.8829091404666609
 51
13.0874974964190596
  0
ARC
  5
34408
  8
0
 10
7052.1525081442187002
 20
211.7777114969073011
 30
0.0
 40
1.576828074364609
 50
22.5301112206554315
 51
28.3374961486831189
  0
ARC
  5
34409
  8
0
 10
7025.8037104016038938
 20
200.8474554113176112
 30
0.0
 40
30.1027748698325688
 50
22.1827105330683594
 51
22.5301112206554315
  0
ARC
  5
3440A
  8
0
 10
7053.488722542270807
 20
212.2266434610831993
 30
0.0
 40
0.1901753968019966
 50
341.7377404921116977
 51
355.9163850197248848
  0
ARC
  5
3440B
  8
0
 10
7053.6316243832507098
 20
212.1787458211047124
 30
0.0
 40
0.0394679684641867
 50
306.9231595723678083
 51
342.7603954114158
  0
ARC
  5
3440C
  8
0
 10
7053.6478761236849095
 20
212.1660091682242069
 30
0.0
 40
0.0202400055868547
 50
222.0576296871983004
 51
291.6229546766488738
  0
ARC
  5
3440D
  8
0
 10
7053.9061133182567573
 20
212.6929625969233939
 30
0.0
 40
0.6064001174359467
 50
199.6183902094265932
 51
202.3182441088372059
  0
ARC
  5
3440E
  8
0
 10
7053.4429111099807415
 20
212.5028172019544002
 30
0.0
 40
0.1056890660514777
 50
202.3182441088372059
 51
209.8372710948767974
  0
ARC
  5
3440F
  8
0
 10
7053.3766074208597274
 20
212.4647874225086923
 30
0.0
 40
0.0292531889001303
 50
209.8372710948837891
 51
223.1180482138506989
  0
ARC
  5
34410
  8
0
 10
7053.3583365244676315
 20
212.4476790216305062
 30
0.0
 40
0.0042227467229256
 50
223.1180482138506989
 51
256.1133413258411906
  0
ARC
  5
34411
  8
0
 10
7053.3579142154530928
 20
212.4459708445141928
 30
0.0
 40
0.0024631405271499
 50
256.1133413258421001
 51
310.4932425502810815
  0
ARC
  5
34412
  8
0
 10
7053.3565635409722745
 20
212.4475526588751961
 30
0.0
 40
0.0045431545240398
 50
310.4932425503386071
 51
343.4743598285435837
  0
ARC
  5
34413
  8
0
 10
7054.6694193409794025
 20
213.2225012398336048
 30
0.0
 40
1.5385382089138391
 50
197.1162691933068061
 51
207.5940487606310967
  0
ARC
  5
34414
  8
0
 10
7053.346673777410615
 20
212.2502893858516018
 30
0.0
 40
0.0749734025795578
 50
32.081334355841598
 51
64.4135438168505203
  0
ARC
  5
34415
  8
0
 10
7053.1513977729036924
 20
212.1278816107634952
 30
0.0
 40
0.3054433167505591
 50
25.7398979940991595
 51
32.081334355841598
  0
ARC
  5
34416
  8
0
 10
7053.9075451645967405
 20
212.8134864345493042
 30
0.0
 40
0.6823892488454893
 50
212.2642947984556088
 51
215.9183239877656035
  0
ARC
  5
34417
  8
0
 10
7053.4449754278448381
 20
212.4835487212496048
 30
0.0
 40
0.1142990480494021
 50
218.002365986697896
 51
227.8810988607100114
  0
ARC
  5
34418
  8
0
 10
7053.2560575682682611
 20
212.296122532231891
 30
0.0
 40
0.1521129166812176
 50
31.4054305066686688
 51
42.4378779223165878
  0
ARC
  5
34419
  8
0
 10
7053.5519974752087364
 20
212.4734765174368931
 30
0.0
 40
0.1929105941343484
 50
210.5620174646691112
 51
215.2899720068984095
  0
ARC
  5
3441A
  8
0
 10
7052.837507242639731
 20
212.0568821769666101
 30
0.0
 40
0.6349362912226572
 50
19.1913147090549501
 51
25.1735297699352891
  0
ARC
  5
3441B
  8
0
 10
7053.4679763756821558
 20
212.2972803526932921
 30
0.0
 40
0.0225522985829487
 50
54.0190509356093003
 51
102.0036107335678963
  0
ARC
  5
3441C
  8
0
 10
7053.4457482897432783
 20
212.2666646149413907
 30
0.0
 40
0.060386293912285
 50
36.1119984643883285
 51
54.0190509356116877
  0
ARC
  5
3441D
  8
0
 10
7053.2891870498287972
 20
212.1524479676403985
 30
0.0
 40
0.2541822287622206
 50
24.4026850024331985
 51
36.1119984643883285
  0
ARC
  5
3441E
  8
0
 10
7053.395488742935413
 20
212.2006745609348002
 30
0.0
 40
0.1374523942799569
 50
7.9191878884927247
 51
24.4026850024331985
  0
ARC
  5
3441F
  8
0
 10
7053.3970349802866622
 20
212.4779200326283046
 30
0.0
 40
0.0176477274237785
 50
337.4148965472259079
 51
6.8837957210257894
  0
ARC
  5
34420
  8
0
 10
7053.403215753074619
 20
212.4753491104351042
 30
0.0
 40
0.0109535812367615
 50
288.4338229004587788
 51
337.4148965472235773
  0
ARC
  5
34421
  8
0
 10
7053.2176394670332229
 20
212.4261288033773951
 30
0.0
 40
0.2007273910036731
 50
336.5330148252784852
 51
2.7177660574347668
  0
ARC
  5
34422
  8
0
 10
7054.6051181874399845
 20
212.5444948237908989
 30
0.0
 40
1.195876345857801
 50
197.8834098008171054
 51
199.6720292542723882
  0
ARC
  5
34423
  8
0
 10
7053.4449439665577302
 20
212.1297311864007042
 30
0.0
 40
0.0362085123007883
 50
342.7381584900724079
 51
19.6720292542678514
  0
ARC
  5
34424
  8
0
 10
7053.4368013327612061
 20
212.1414843093463105
 30
0.0
 40
0.0482821190408841
 50
306.6759624068853896
 51
332.2275468326917007
  0
ARC
  5
34425
  8
0
 10
7053.3621020894133835
 20
212.2340754019147084
 30
0.0
 40
0.1672231032674639
 50
294.6004296213292832
 51
308.2547108750367215
  0
ARC
  5
34426
  8
0
 10
7057.1908334802938043
 20
213.2515995573629084
 30
0.0
 40
3.9368595651324889
 50
197.2824070560305074
 51
198.6882760125652112
  0
ARC
  5
34427
  8
0
 10
7053.491871266810449
 20
211.8262486052927045
 30
0.0
 40
0.1666882653123921
 50
86.4129470567020235
 51
100.4836758329001043
  0
ARC
  5
34428
  8
0
 10
7053.5033459786009189
 20
211.9026972611312942
 30
0.0
 40
0.0899191315814293
 50
66.8196438582654793
 51
90.6664298044337187
  0
ARC
  5
34429
  8
0
 10
7053.526538621452346
 20
211.964332900585589
 30
0.0
 40
0.0243086519506967
 50
18.9543677676095896
 51
59.8703440948180727
  0
ARC
  5
3442A
  8
0
 10
7053.5586074373022711
 20
211.9795279129907044
 30
0.0
 40
0.0116487205197562
 50
218.8004084612448139
 51
239.3377310785589884
  0
ARC
  5
3442B
  8
0
 10
7053.5534734330258289
 20
211.9707113735435087
 30
0.0
 40
0.0014488259925936
 50
236.1716945539843948
 51
315.5429631687143228
  0
ARC
  5
3442C
  8
0
 10
7053.5062908794334362
 20
211.9742053116370926
 30
0.0
 40
0.0484270301596415
 50
354.6579056784993895
 51
21.3405557995975386
  0
ARC
  5
3442D
  8
0
 10
7053.3986229928723333
 20
211.9951334626454127
 30
0.0
 40
0.1528102083823789
 50
358.7606872884999802
 51
12.0366604811473206
  0
ARC
  5
3442E
  8
0
 10
7053.2951333733990396
 20
211.9657950290564941
 30
0.0
 40
0.2602399043935978
 50
13.6026577882910207
 51
28.5111156032853614
  0
ARC
  5
3442F
  8
0
 10
7053.3462089279937572
 20
212.0039705641202943
 30
0.0
 40
0.1973492340230879
 50
25.8490444694344603
 51
39.9167125407498204
  0
ARC
  5
34430
  8
0
 10
7053.458277392734999
 20
212.0917810973600126
 30
0.0
 40
0.05523825858204
 50
44.6546605593829469
 51
68.4106680741458746
  0
ARC
  5
34431
  8
0
 10
7053.3877221324974016
 20
211.9575584675718005
 30
0.0
 40
0.2081508483117594
 50
72.3265879143829125
 51
86.7359208742005592
  0
ARC
  5
34432
  8
0
 10
7053.3530515406073391
 20
212.1789459578399999
 30
0.0
 40
0.0957468346959256
 50
349.8241949645425848
 51
358.0564292671227236
  0
ARC
  5
34433
  8
0
 10
7053.5967025572317652
 20
212.2459640538951078
 30
0.0
 40
0.1713717394734582
 50
209.3257982944400055
 51
216.7365082515445067
  0
ARC
  5
34434
  8
0
 10
7053.091840135180064
 20
211.8170834468552926
 30
0.0
 40
0.4915255161804975
 50
37.9221849049796305
 51
41.6062887808280166
  0
ARC
  5
34435
  8
0
 10
7053.4272288420961559
 20
212.1387553421286896
 30
0.0
 40
0.0237165375130585
 50
24.0766567360724899
 51
59.8082311999862384
  0
ARC
  5
34436
  8
0
 10
7053.0426809170694469
 20
212.0995618232734046
 30
0.0
 40
0.4061166586763385
 50
1.7189479301023971
 51
7.7556517820681421
  0
ARC
  5
34437
  8
0
 10
7057.3802866083133267
 20
213.3091827816903958
 30
0.0
 40
4.0059894635224067
 50
197.0217280482683861
 51
198.9574476827388878
  0
ARC
  5
34438
  8
0
 10
7053.5539252568351003
 20
211.9948387751265102
 30
0.0
 40
0.0398159395666722
 50
332.6443084620689774
 51
18.9574476827358502
  0
ARC
  5
34439
  8
0
 10
7053.5502481369539964
 20
212.0028234901288897
 30
0.0
 40
0.0470620057842448
 50
309.1649576456704267
 51
326.0529672607887051
  0
ARC
  5
3443A
  8
0
 10
7053.486870555513633
 20
212.0750632080840035
 30
0.0
 40
0.1431413032085897
 50
294.3458095648696826
 51
310.5721534688153156
  0
ARC
  5
3443B
  8
0
 10
7055.441703462636724
 20
212.5907140611363104
 30
0.0
 40
2.0028844067924449
 50
198.8181997417553077
 51
201.4715646393254076
  0
ARC
  5
3443C
  8
0
 10
7053.4368008939227366
 20
211.8229920734893028
 30
0.0
 40
0.1451992631346306
 50
13.7806800779013905
 51
20.5799736309061494
  0
ARC
  5
3443D
  8
0
 10
7051.4631010197254
 20
211.1122172554061081
 30
0.0
 40
2.2429694922049999
 50
19.8552764744002701
 51
21.7853343724800403
  0
LINE
  5
3443E
  8
0
 10
7053.5507021912062555
 20
211.931258963631592
 30
0.0
 11
7053.5738812826057256
 21
211.8688638073315929
 31
0.0
  0
LINE
  5
3443F
  8
0
 10
7053.5738812826057256
 20
211.8688638073315929
 30
0.0
 11
7053.5733782001052532
 21
211.8707513279316004
 31
0.0
  0
LINE
  5
34440
  8
0
 10
7053.5733782001052532
 20
211.8707513279316004
 30
0.0
 11
7053.5501991087048737
 21
211.9331464842315995
 31
0.0
  0
LINE
  5
34441
  8
0
 10
7053.5501991087048737
 20
211.9331464842315995
 30
0.0
 11
7053.5507021912062555
 21
211.931258963631592
 31
0.0
  0
ARC
  5
34442
  8
0
 10
7052.7121648619604457
 20
211.6733137040156976
 30
0.0
 40
0.8891170999490658
 50
18.1513580953086411
 51
19.6451045343743687
  0
ARC
  5
34443
  8
0
 10
7053.6148664223019296
 20
212.0343800860813133
 30
0.0
 40
0.0763094182602968
 50
213.7280968381317052
 51
226.0181183612380948
  0
ARC
  5
34444
  8
0
 10
7053.5824078944642679
 20
212.0007470188573961
 30
0.0
 40
0.0295682240059165
 50
226.0181183612369011
 51
246.3801936091304015
  0
ARC
  5
34445
  8
0
 10
7053.5753902884816853
 20
211.9882014907439896
 30
0.0
 40
0.0153263561303299
 50
251.6330120061633977
 51
274.4774618176729746
  0
ARC
  5
34446
  8
0
 10
7053.5808554360273774
 20
211.9412214525191018
 30
0.0
 40
0.0319865665219085
 50
79.9765883972069531
 51
97.6691062978175637
  0
ARC
  5
34447
  8
0
 10
7053.5746966291690114
 20
211.9850005586031898
 30
0.0
 40
0.1535262633814443
 50
92.7565815363671931
 51
101.7831618145263946
  0
ARC
  5
34448
  8
0
 10
7053.5747391213717492
 20
211.9819056529142927
 30
0.0
 40
0.1566196675711797
 50
86.0287720046246136
 51
92.7176575435468067
  0
ARC
  5
34449
  8
0
 10
7053.5646108776300025
 20
211.7481573737179872
 30
0.0
 40
0.3905555404938128
 50
82.0220731430463559
 51
86.9214145116106636
  0
ARC
  5
3444A
  8
0
 10
7053.6156842898280956
 20
212.1097316856767918
 30
0.0
 40
0.0253952069801871
 50
36.8382890121909981
 51
82.9147156500073663
  0
ARC
  5
3444B
  8
0
 10
7050.8502724782701989
 20
210.7524809030209099
 30
0.0
 40
3.105482162486513
 50
20.9826641309451887
 51
26.2285472659465206
  0
ARC
  5
3444C
  8
0
 10
7053.3034049881389365
 20
212.1514656883724115
 30
0.0
 40
0.2285430514400853
 50
344.4980691034913889
 51
3.1445726942486232
  0
ARC
  5
3444D
  8
0
 10
7053.3367148542547511
 20
212.1917036357208985
 30
0.0
 40
0.1901807674738263
 50
295.65354454880719
 51
304.1989928590675163
  0
ARC
  5
3444E
  8
0
 10
7032.660466561846988
 20
205.2618945083528104
 30
0.0
 40
21.8310420148942406
 50
17.7674332985609986
 51
18.0337025921484795
  0
ARC
  5
3444F
  8
0
 10
7053.4826705045206836
 20
211.7424961700207007
 30
0.0
 40
0.1841096323358387
 50
87.5211970119103739
 51
100.1475913419003945
  0
ARC
  5
34450
  8
0
 10
7053.4931629576249179
 20
211.8669364406561044
 30
0.0
 40
0.0595508454620921
 50
46.4531102508329425
 51
92.4346884403761635
  0
ARC
  5
34451
  8
0
 10
7053.5650443469212405
 20
211.922904275836288
 30
0.0
 40
0.0334055067839986
 50
202.539002085137696
 51
218.5516816336356101
  0
ARC
  5
34452
  8
0
 10
7053.51013835233789
 20
211.9034949890472035
 30
0.0
 40
0.0288158436863334
 50
357.1959069046956188
 51
4.6685158738334831
  0
ARC
  5
34453
  8
0
 10
7053.4452966381841179
 20
211.8847972464359088
 30
0.0
 40
0.0958991703979733
 50
12.6755156093864407
 51
16.9119319022362014
  0
ARC
  5
34454
  8
0
 10
7053.392517532810416
 20
211.9270344652728966
 30
0.0
 40
0.1452405752548209
 50
354.3337946837447134
 51
25.8646129428013793
  0
ARC
  5
34455
  8
0
 10
7053.6112271009333199
 20
211.703438484793196
 30
0.0
 40
0.1577194395191416
 50
94.9015001983734265
 51
102.228443969077702
  0
ARC
  5
34456
  8
0
 10
7053.6122527085617548
 20
211.6902091596485889
 30
0.0
 40
0.1709880512323704
 50
87.8970711754044629
 51
94.8651445465048226
  0
ARC
  5
34457
  8
0
 10
7053.611393796532866
 20
211.6668180045469967
 30
0.0
 40
0.1943949704415505
 50
77.639412113389298
 51
87.8970711754044629
  0
ARC
  5
34458
  8
0
 10
7053.8974055330963893
 20
212.0296808843010012
 30
0.0
 40
0.299417480054041
 50
215.2890647538997939
 51
218.0964212397288122
  0
ARC
  5
34459
  8
0
 10
7053.6853068834316218
 20
211.8641101669570048
 30
0.0
 40
0.0303517249777255
 50
219.1579006913337935
 51
232.4479574797906025
  0
ARC
  5
3445A
  8
0
 10
7053.6710508220503471
 20
211.8455003018810032
 30
0.0
 40
0.00690912963353
 50
232.1148561703546989
 51
258.3205587419429889
  0
ARC
  5
3445B
  8
0
 10
7053.670035667177217
 20
211.8409203826269902
 30
0.0
 40
0.0022195428231533
 50
260.0502827794791756
 51
310.3026130605413755
  0
ARC
  5
3445C
  8
0
 10
7053.6635715735328631
 20
211.8444211932311987
 30
0.0
 40
0.0094540296817672
 50
326.677938637312991
 51
8.0055739918091309
  0
ARC
  5
3445D
  8
0
 10
7053.6110319608987993
 20
211.8417992135821066
 30
0.0
 40
0.062026684515302
 50
3.6406783788937531
 51
13.3889960059064492
  0
ARC
  5
3445E
  8
0
 10
7053.5484433741976318
 20
211.8639254273442134
 30
0.0
 40
0.1231742975319015
 50
356.3864509203452826
 51
17.6298662874071717
  0
ARC
  5
3445F
  8
0
 10
7053.5249810012355738
 20
211.8597470833936995
 30
0.0
 40
0.1468334265946987
 50
16.4108099930299396
 51
30.4358734579313008
  0
ARC
  5
34460
  8
0
 10
7053.1167949124874212
 20
211.6385760570948946
 30
0.0
 40
0.611021247572607
 50
28.9275492888435899
 51
34.8251871838802813
  0
ARC
  5
34461
  8
0
 10
7053.5749375600853455
 20
211.9590035626142139
 30
0.0
 40
0.0519637706604692
 50
33.2760535702896902
 51
71.5248564890430458
  0
ARC
  5
34462
  8
0
 10
7053.8261847586327349
 20
211.9662994962054938
 30
0.0
 40
0.1897356287223835
 50
215.3371405946286075
 51
233.739166827143805
  0
ARC
  5
34463
  8
0
 10
7053.7644497023184158
 20
211.8821368782612922
 30
0.0
 40
0.0853586032933442
 50
233.739166827143805
 51
250.5600424415098075
  0
ARC
  5
34464
  8
0
 10
7053.7497334611443875
 20
211.8404406824309945
 30
0.0
 40
0.0411416325578777
 50
250.5600424415106033
 51
282.5953485168931252
  0
ARC
  5
34465
  8
0
 10
7053.7540344048184124
 20
211.8211920263327954
 30
0.0
 40
0.0214183245679898
 50
282.5953485168927841
 51
323.3540013476131776
  0
ARC
  5
34466
  8
0
 10
7051.430066473953957
 20
210.9477944627820989
 30
0.0
 40
2.494323891387749
 50
20.1835549633504883
 51
21.5627636057844008
  0
ARC
  5
34467
  8
0
 10
7053.8536025431712915
 20
212.048483892433012
 30
0.0
 40
0.3442318354931877
 50
203.1515603920099977
 51
214.8736407740080097
  0
ARC
  5
34468
  8
0
 10
7053.2605426899726808
 20
211.6351650987867004
 30
0.0
 40
0.3786460343134764
 50
31.9244669112770794
 51
34.8736407740086634
  0
ARC
  5
34469
  8
0
 10
7053.1704591166198952
 20
211.5790396263101911
 30
0.0
 40
0.4847832984983163
 50
24.4050937051481398
 51
31.9244669112770794
  0
ARC
  5
3446A
  8
0
 10
7054.4853150129983987
 20
212.1339347437410936
 30
0.0
 40
0.9426256184313357
 50
196.9740167541816049
 51
202.0967928699878087
  0
ARC
  5
3446B
  8
0
 10
7054.0304740023166232
 20
211.6774982279422943
 30
0.0
 40
0.3810521552957386
 50
187.4132282865180912
 51
194.9824663090041952
  0
ARC
  5
3446C
  8
0
 10
7056.4432083110386884
 20
212.3231971449893081
 30
0.0
 40
2.8786938301480109
 50
194.9824663090041952
 51
196.6190986242623921
  0
ARC
  5
3446D
  8
0
 10
7055.8429702667253878
 20
212.144040529670491
 30
0.0
 40
2.2522891664893572
 50
196.6190986242623921
 51
199.1891452082261935
  0
ARC
  5
3446E
  8
0
 10
7056.2116697569190364
 20
212.2368519573965955
 30
0.0
 40
2.6312228717433781
 50
198.4589481832275908
 51
200.8742237788347893
  0
ARC
  5
3446F
  8
0
 10
7054.5345937309912188
 20
211.5859504930400874
 30
0.0
 40
0.8323618429712064
 50
200.1440267538364139
 51
206.1841421318245864
  0
ARC
  5
34470
  8
0
 10
7054.1883521499958078
 20
211.4156975301376065
 30
0.0
 40
0.4465259921390538
 50
206.1841421318245864
 51
211.9259770251790087
  0
ARC
  5
34471
  8
0
 10
7053.9285231226713222
 20
211.2538047147232021
 30
0.0
 40
0.1403881030707585
 50
211.9259770251790087
 51
225.3874150755248991
  0
ARC
  5
34472
  8
0
 10
7053.8589535055689339
 20
211.1832878649150018
 30
0.0
 40
0.0413297478925473
 50
225.3874150755248991
 51
243.3733908149582987
  0
ARC
  5
34473
  8
0
 10
7053.849716921909021
 20
211.1648642096863
 30
0.0
 40
0.0207203920150862
 50
243.3733908149582987
 51
262.1388357082229845
  0
ARC
  5
34474
  8
0
 10
7053.8485093281869922
 20
211.1561180094570886
 30
0.0
 40
0.0118912187214909
 50
262.1388357082229277
 51
312.9647287271433811
  0
ARC
  5
34475
  8
0
 10
7053.8412940047082884
 20
211.163865052553092
 30
0.0
 40
0.0224778881527901
 50
312.9647287271423011
 51
352.8832744688075991
  0
ARC
  5
34476
  8
0
 10
7053.7668268079405607
 20
211.1815561904163872
 30
0.0
 40
0.0989144442174217
 50
348.0530073918894232
 51
2.6570529197887041
  0
ARC
  5
34477
  8
0
 10
7053.5288947376766373
 20
211.168780122711496
 30
0.0
 40
0.3371874338821619
 50
2.9514194080782792
 51
14.0723846727985595
  0
ARC
  5
34478
  8
0
 10
7053.0026642728871593
 20
211.0420612491222982
 30
0.0
 40
0.8784511786397832
 50
13.7439374056350001
 51
20.5404384041719688
  0
ARC
  5
34479
  8
0
 10
7052.5164763644443155
 20
210.8665858703149922
 30
0.0
 40
1.3953124293501029
 50
20.2830350362369316
 51
25.1629913695880489
  0
ARC
  5
3447A
  8
0
 10
7052.4379557134971037
 20
210.8333798304693971
 30
0.0
 40
1.480504401275387
 50
25.0340531255685796
 51
27.7464525216968205
  0
ARC
  5
3447B
  8
0
 10
7052.9091915324570436
 20
211.0874312552114986
 30
0.0
 40
0.9451925512801372
 50
27.4160047226383199
 51
33.575472880866073
  0
ARC
  5
3447C
  8
0
 10
7053.4706275218250084
 20
211.4596772360542047
 30
0.0
 40
0.271562827850737
 50
33.6501577001811825
 51
41.3358108176841128
  0
ARC
  5
3447D
  8
0
 10
7053.636745793269256
 20
211.6070615590653858
 30
0.0
 40
0.049498661840966
 50
40.2390843147517785
 51
59.9111969989917768
  0
ARC
  5
3447E
  8
0
 10
7053.6579474255768218
 20
211.6425667307566982
 30
0.0
 40
0.008166741934598
 50
63.733953586178572
 51
95.7370375271849952
  0
ARC
  5
3447F
  8
0
 10
7053.6582500814802188
 20
211.6459934706851129
 30
0.0
 40
0.0048304996506799
 50
103.3947500252659069
 51
155.9985096857855922
  0
ARC
  5
34480
  8
0
 10
7053.696564698821021
 20
211.6354285005604083
 30
0.0
 40
0.0445267480399839
 50
163.6562221839207041
 51
189.1691923057443887
  0
ARC
  5
34481
  8
0
 10
7061.6359083700908741
 20
214.5870030107660966
 30
0.0
 40
8.5324280254378131
 50
198.2900835445273913
 51
200.0335545267176087
  0
ARC
  5
34482
  8
0
 10
6447.5350440337651889
 20
6.0150562570653392
 30
0.0
 40
640.0235845166347417
 50
18.6887767975036212
 51
18.7424513312335996
  0
ARC
  5
34483
  8
0
 10
7053.8434045964168035
 20
211.106751103370101
 30
0.0
 40
0.033
 50
198.6887767974936025
 51
210.864076162149189
  0
ARC
  5
34484
  8
0
 10
7052.7477170326874329
 20
210.4519283279136914
 30
0.0
 40
1.2434498049538121
 50
19.9960713633741314
 51
30.8640761621519815
  0
ARC
  5
34485
  8
0
 10
7053.0306511519647756
 20
210.5548859559926882
 30
0.0
 40
0.942365117480007
 50
6.5688178829860506
 51
19.9960713633741314
  0
ARC
  5
34486
  8
0
 10
7053.3864608402072918
 20
210.5958583189857904
 30
0.0
 40
0.5842041637511919
 50
357.1314461134749081
 51
6.568817882982815
  0
ARC
  5
34487
  8
0
 10
7054.0028916311575813
 20
210.5649704618213036
 30
0.0
 40
0.033
 50
177.1314461134749081
 51
193.3405324021902914
  0
ARC
  5
34488
  8
0
 10
7038.3487925472054485
 20
206.852803382237596
 30
0.0
 40
16.0552255875828287
 50
12.0785374801535994
 51
13.3405324021871898
  0
ARC
  5
34489
  8
0
 10
7054.0600838452037351
 20
210.2148570775229075
 30
0.0
 40
0.0117616626932131
 50
192.0785374801536136
 51
265.385550695187078
  0
LINE
  5
3448A
  8
0
 10
7054.0707691522820824
 20
210.2533420253136001
 30
0.0
 11
7055.1009861653137705
 21
210.4730200318566062
 31
0.0
  0
ARC
  5
3448B
  8
0
 10
7054.9629545328061795
 20
206.1203061971316117
 30
0.0
 40
0.7204724409000282
 50
245.0213257960006104
 51
271.3865578803058725
  0
ARC
  5
3448C
  8
0
 10
7054.1611240575821284
 20
189.2513221664964078
 30
0.0
 40
4.539501863800786
 50
258.8118782988534008
 51
259.4344200815460795
  0
ARC
  5
3448D
  8
0
 10
7053.8955065894479048
 20
187.8272769585940125
 30
0.0
 40
3.090896536761206
 50
259.4344200815460795
 51
261.4880287731534736
  0
ARC
  5
3448E
  8
0
 10
7053.5322832558513255
 20
185.4003616809455082
 30
0.0
 40
0.6369509475205072
 50
261.4880287731534736
 51
266.718431742270127
  0
ARC
  5
3448F
  8
0
 10
7053.4983335441947929
 20
184.808252166101596
 30
0.0
 40
0.0438689460314709
 50
266.718431742270127
 51
281.512603709591815
  0
ARC
  5
34490
  8
0
 10
7053.5064084157338584
 20
184.7686075452282068
 30
0.0
 40
0.0034103311940082
 50
281.5126037096433151
 51
304.1260812024170832
  0
ARC
  5
34491
  8
0
 10
7053.5074573633582986
 20
184.7670597741609981
 30
0.0
 40
0.0015406022310313
 50
304.1260812023538733
 51
44.054371782129742
  0
ARC
  5
34492
  8
0
 10
7053.458510031357946
 20
184.691740624551187
 30
0.0
 40
0.09132879262666
 50
56.7653218145014478
 51
73.1544563039935838
  0
ARC
  5
34493
  8
0
 10
7053.1694359285056635
 20
183.8488654397071969
 30
0.0
 40
0.9823421069384828
 50
71.2637352843927658
 51
75.0805858668529424
  0
ARC
  5
34494
  8
0
 10
7053.0570700269299778
 20
183.4296006699067902
 30
0.0
 40
1.417249389701577
 50
73.3478532880307341
 51
74.9272665144428487
  0
ARC
  5
34495
  8
0
 10
7053.2292074709002918
 20
184.0051105585405935
 30
0.0
 40
0.8165473574664254
 50
70.9426472094711755
 51
73.3478532880307341
  0
ARC
  5
34496
  8
0
 10
7053.4425011124531011
 20
184.62255180208669
 30
0.0
 40
0.1633032478424018
 50
63.8519490577978601
 51
70.9426472094709197
  0
ARC
  5
34497
  8
0
 10
7053.506631811551415
 20
184.7531814391356875
 30
0.0
 40
0.0177805738619756
 50
46.40125297096791
 51
63.851949057797512
  0
ARC
  5
34498
  8
0
 10
7053.5175928100416058
 20
184.7646921254882102
 30
0.0
 40
0.0018859399186801
 50
342.1703686739692216
 51
46.4012529709617496
  0
ARC
  5
34499
  8
0
 10
7053.5148680332640652
 20
184.7696185952648023
 30
0.0
 40
0.0071221338365982
 50
271.7923217546381238
 51
309.3948108915446937
  0
ARC
  5
3449A
  8
0
 10
7053.5142183749512697
 20
185.1605085024158086
 30
0.0
 40
0.3980095127064438
 50
260.4525533170744893
 51
270.1255894430190097
  0
ARC
  5
3449B
  8
0
 10
7053.9233211708478848
 20
187.9676745788858057
 30
0.0
 40
3.234745458480651
 50
258.4801053382395253
 51
261.5538577911673883
  0
ARC
  5
3449C
  8
0
 10
7053.2267340593389235
 20
184.9477032885237122
 30
0.0
 40
0.345472441986995
 50
327.8990113864717841
 51
334.3378513018325862
  0
ARC
  5
3449D
  8
0
 10
7053.4107301867015849
 20
184.9773361499011912
 30
0.0
 40
0.1868803659849506
 50
253.5647376527579979
 51
261.6771562841540799
  0
ARC
  5
3449E
  8
0
 10
7054.0167880869939836
 20
188.2862982875847138
 30
0.0
 40
3.5507724017076341
 50
259.7291423070806786
 51
259.9987008795054066
  0
ARC
  5
3449F
  8
0
 10
7053.6635587964710794
 20
185.8110656566672105
 30
0.0
 40
1.05500094818923
 50
255.5401601208494924
 51
256.3444755418394152
  0
ARC
  5
344A0
  8
0
 10
7053.4151327362560551
 20
184.7894408785163876
 30
0.0
 40
0.0036117538849545
 50
259.7499087729347025
 51
338.0132419610819738
  0
ARC
  5
344A1
  8
0
 10
7055.4187315645403942
 20
192.9939557569927047
 30
0.0
 40
8.4472715440511088
 50
255.9863404325996044
 51
256.1776595432779118
  0
ARC
  5
344A2
  8
0
 10
7054.7599452322538127
 20
192.3027413554819987
 30
0.0
 40
7.6334480521497516
 50
259.7420196524582821
 51
259.9600569988259053
  0
ARC
  5
344A3
  8
0
 10
7054.1059196866826824
 20
187.438934852675601
 30
0.0
 40
2.7377094454976318
 50
255.6883876254937036
 51
256.1885492000910176
  0
ARC
  5
344A4
  8
0
 10
7053.4528326787449259
 20
184.7835581018549931
 30
0.0
 40
0.003212184909336
 50
261.412759709949114
 51
354.4260920279128868
  0
ARC
  5
344A5
  8
0
 10
7051.1876807598018786
 20
172.5545517310698074
 30
0.0
 40
12.4390196842744505
 50
79.7503461477359252
 51
79.8289501698202315
  0
ARC
  5
344A6
  8
0
 10
7054.0834470365289235
 20
187.5170490797214882
 30
0.0
 40
2.8062169601535638
 50
255.926094517844092
 51
256.5178870429705853
  0
ARC
  5
344A7
  8
0
 10
7053.9033826457316536
 20
187.2995098225094068
 30
0.0
 40
2.555720599761325
 50
259.3075275502420141
 51
259.9570793594327256
  0
ARC
  5
344A8
  8
0
 10
7057.2163814061559606
 20
199.8818114896041038
 30
0.0
 40
15.5596693504109993
 50
256.021040428900676
 51
256.1118252185484039
  0
ARC
  5
344A9
  8
0
 10
7053.4813148419470963
 20
184.7796562439681054
 30
0.0
 40
0.0026620811511997
 50
276.7964948066381226
 51
356.4329368540318796
  0
ARC
  5
344AA
  8
0
 10
7053.417740336623865
 20
184.8671810864927068
 30
0.0
 40
0.0721070568374376
 50
253.3654230737953128
 51
262.3996194689220829
  0
ARC
  5
344AB
  8
0
 10
7054.2323722571518374
 20
189.342759789894302
 30
0.0
 40
4.6211404392157416
 50
259.7264767304952784
 51
260.0067000714576011
  0
ARC
  5
344AC
  8
0
 10
7054.1134414800180821
 20
187.4670101188980027
 30
0.0
 40
2.7610854673928191
 50
255.678492825847087
 51
256.2772403344642953
  0
ARC
  5
344AD
  8
0
 10
7053.584856741726071
 20
185.435488661197212
 30
0.0
 40
0.6629130291651063
 50
259.0069214951332128
 51
260.8494411557841204
  0
ARC
  5
344AE
  8
0
 10
7053.4777202741042856
 20
185.0159587689718137
 30
0.0
 40
0.2272897082826853
 50
253.444352562429998
 51
262.8837819040966224
  0
ARC
  5
344AF
  8
0
 10
7053.4313339540076413
 20
184.796776222304004
 30
0.0
 40
0.0051570710284559
 50
206.6412883458517911
 51
253.2888768770455101
  0
ARC
  5
344B0
  8
0
 10
7053.4309200205061643
 20
184.7968558071270024
 30
0.0
 40
0.0051471443999988
 50
264.8523674683253262
 51
309.3797772536344155
  0
ARC
  5
344B1
  8
0
 10
7053.4300496475316322
 20
184.7912307733072907
 30
0.0
 40
0.0051530570395447
 50
204.5906612240227105
 51
253.3075706656530031
  0
ARC
  5
344B2
  8
0
 10
7053.4296386948071813
 20
184.7913131929269923
 30
0.0
 40
0.0051471443999725
 50
264.852445245815602
 51
311.2483850902893892
  0
ARC
  5
344B3
  8
0
 10
7053.4014289388760517
 20
184.8012360379973984
 30
0.0
 40
0.0063651537837039
 50
273.2573159168082952
 51
307.1183591531500952
  0
ARC
  5
344B4
  8
0
 10
7053.4012181192119897
 20
184.7946156463158047
 30
0.0
 40
0.0052906766365337
 50
205.6744582486782917
 51
252.3519350452889967
  0
ARC
  5
344B5
  8
0
 10
7053.4006990921852776
 20
184.7946037078289976
 30
0.0
 40
0.0051540406840064
 50
263.7559234466418161
 51
310.4342066138368068
  0
ARC
  5
344B6
  8
0
 10
7053.3718610116347918
 20
184.7979977926621871
 30
0.0
 40
0.0049487708158533
 50
210.2582518333057067
 51
305.283855039327193
  0
ARC
  5
344B7
  8
0
 10
7053.4588698167499388
 20
184.7877427829569967
 30
0.0
 40
0.0049336831594958
 50
203.9403349959503089
 51
256.2975141636143803
  0
ARC
  5
344B8
  8
0
 10
7053.4585108150804444
 20
184.7881367360444074
 30
0.0
 40
0.0052713388184353
 50
263.2714666180455083
 51
309.7220469368465956
  0
LINE
  5
344B9
  8
0
 10
7049.8212222493048102
 20
187.1599528312517862
 30
0.0
 11
7049.8212222493048102
 21
187.1980531857269909
 31
0.0
  0
LINE
  5
344BA
  8
0
 10
7049.8212222493048102
 20
187.1980531857269909
 30
0.0
 11
7050.9117734304063561
 21
187.1980531857269909
 31
0.0
  0
LINE
  5
344BB
  8
0
 10
7050.9117734304063561
 20
187.1980531857269909
 30
0.0
 11
7050.9117734304063561
 21
187.157351865527005
 31
0.0
  0
LINE
  5
344BC
  8
0
 10
7050.9117734304063561
 20
187.1560451096270015
 30
0.0
 11
7050.9117734304063561
 21
187.136336819875595
 31
0.0
  0
LINE
  5
344BD
  8
0
 10
7050.9117734304063561
 20
187.1296755828045093
 30
0.0
 11
7050.9117734304063561
 21
187.0907442883417957
 31
0.0
  0
LINE
  5
344BE
  8
0
 10
7050.9117734304063561
 20
187.0798246239604055
 30
0.0
 11
7050.9117734304063561
 21
187.0226289412701988
 31
0.0
  0
LINE
  5
344BF
  8
0
 10
7050.9117734304063561
 20
187.0077197246270089
 30
0.0
 11
7050.9117734304063561
 21
186.9830147290379045
 31
0.0
  0
LINE
  5
344C0
  8
0
 10
7050.5856157115204041
 20
187.0226289412701988
 30
0.0
 11
7050.9117734304063561
 21
187.0226289412701988
 31
0.0
  0
LINE
  5
344C1
  8
0
 10
7050.5919442968588555
 20
187.0077197285270074
 30
0.0
 11
7050.9117734304063561
 21
187.0077197246270089
 31
0.0
  0
LINE
  5
344C2
  8
0
 10
7050.5567024620950178
 20
187.0907442883417957
 30
0.0
 11
7050.9117734304063561
 21
187.0907442883417957
 31
0.0
  0
LINE
  5
344C3
  8
0
 10
7050.5613375846260169
 20
187.0798246239604055
 30
0.0
 11
7050.9117734304063561
 21
187.0798246239604055
 31
0.0
  0
LINE
  5
344C4
  8
0
 10
7050.5401771080369144
 20
187.1296755828045093
 30
0.0
 11
7050.9117734304063561
 21
187.1296755828045093
 31
0.0
  0
LINE
  5
344C5
  8
0
 10
7050.5373495806570645
 20
187.136336819875595
 30
0.0
 11
7050.9117734304063561
 21
187.136336819875595
 31
0.0
  0
LINE
  5
344C6
  8
0
 10
7049.9702314756386841
 20
187.157351865527005
 30
0.0
 11
7050.9117734304063561
 21
187.157351865527005
 31
0.0
  0
LINE
  5
344C7
  8
0
 10
7050.0450954708912832
 20
187.1560451096270015
 30
0.0
 11
7050.9117734304063561
 21
187.1560451096270015
 31
0.0
  0
LINE
  5
344C8
  8
0
 10
7050.9117734304063561
 20
187.1603017132269997
 30
0.0
 11
7050.9314285485061191
 21
187.1603017132269997
 31
0.0
  0
LINE
  5
344C9
  8
0
 10
7050.9708285485057786
 20
186.9959743400200978
 30
0.0
 11
7050.9708285485057786
 21
187.1209017132269992
 31
0.0
  0
ARC
  5
344CA
  8
0
 10
7050.9314285485061191
 20
187.1209017132269992
 30
0.0
 40
0.0394
 50
0.0
 51
90.0
  0
LINE
  5
344CB
  8
0
 10
7050.9708285485057786
 20
187.0398505014269972
 30
0.0
 11
7051.0242485804037642
 21
187.038918051245787
 31
0.0
  0
LINE
  5
344CC
  8
0
 10
7050.6233773882941023
 20
186.9336680056941873
 30
0.0
 11
7050.7654515029644244
 21
186.9336680056941873
 31
0.0
  0
LINE
  5
344CD
  8
0
 10
7050.6312436084035653
 20
186.9151363524314888
 30
0.0
 11
7050.7246735563257971
 21
186.9151363524314888
 31
0.0
  0
LINE
  5
344CE
  8
0
 10
7051.022009650905602
 20
185.3131423574270116
 30
0.0
 11
7051.0844759196643281
 21
185.3142327102127922
 31
0.0
  0
LINE
  5
344CF
  8
0
 10
7050.9708285485057786
 20
185.2523227132550971
 30
0.0
 11
7050.9708285485057786
 21
185.2311977762269919
 31
0.0
  0
ARC
  5
344D0
  8
0
 10
7050.9314285485061191
 20
185.2311977762269919
 30
0.0
 40
0.0394
 50
270.0
 51
0.0
  0
LINE
  5
344D1
  8
0
 10
7050.9314285485061191
 20
185.1917977762269913
 30
0.0
 11
7050.9117734324072444
 21
185.1917977762269913
 31
0.0
  0
ARC
  5
344D2
  8
0
 10
7051.0685922117081645
 20
189.8702449957702072
 30
0.0
 40
4.681074718010068
 50
267.4472491629045976
 51
268.0801981954796815
  0
LINE
  5
344D3
  8
0
 10
7050.0794209271698492
 20
185.222423909035399
 30
0.0
 11
7050.9117734304063561
 21
185.222423909035399
 31
0.0
  0
LINE
  5
344D4
  8
0
 10
7050.9117734304063561
 20
185.222423909035399
 30
0.0
 11
7050.9117734304063561
 21
185.2504773573670036
 31
0.0
  0
LINE
  5
344D5
  8
0
 10
7049.9466420681092131
 20
185.1960543061512112
 30
0.0
 11
7050.9117734304063561
 21
185.1960543826270111
 31
0.0
  0
LINE
  5
344D6
  8
0
 10
7050.9117734304063561
 20
185.1960543826270111
 30
0.0
 11
7050.9117734304063561
 21
185.2157626709270062
 31
0.0
  0
LINE
  5
344D7
  8
0
 10
7050.9117734304063561
 20
185.2157626709270062
 30
0.0
 11
7050.0261767341326049
 21
185.2157626709270062
 31
0.0
  0
LINE
  5
344D8
  8
0
 10
7050.9117734304063561
 20
185.191797776294095
 30
0.0
 11
7050.9117734304063561
 21
185.1938155944270079
 31
0.0
  0
LINE
  5
344D9
  8
0
 10
7050.9117734304063561
 20
185.1938155944270079
 30
0.0
 11
7049.9411166172367302
 21
185.1938155944270079
 31
0.0
  0
LINE
  5
344DA
  8
0
 10
7050.3062521483807359
 20
185.2351048628270007
 30
0.0
 11
7050.5633482335060762
 21
185.2351048628270007
 31
0.0
  0
ARC
  5
344DB
  8
0
 10
7050.5633482335060762
 20
185.24691588642699
 30
0.0
 40
0.0118110236000004
 50
270.0
 51
331.2305384745707784
  0
ENDSEC
  0
EOF
