  0
SECTION
  2
HEADER
  9
$ACADVER
  1
AC1009
  9
$INSBASE
 10
399.9104187294578878
 20
53.0984947134399832
 30
0.0
  9
$EXTMIN
 10
363.3348774625856095
 20
30.6570917551222806
 30
-0.0000000349181948
  9
$EXTMAX
 10
436.4973724682230909
 20
53.1071940814273376
 30
0.0000000814935746
  9
$LIMMIN
 10
0.0
 20
0.0
  9
$LIMMAX
 10
11.6929133858000007
 20
8.2677165353999982
  9
$ORTHOMODE
 70
     0
  9
$REGENMODE
 70
     1
  9
$FILLMODE
 70
     1
  9
$QTEXTMODE
 70
     0
  9
$MIRRTEXT
 70
     0
  9
$DRAGMODE
 70
     2
  9
$LTSCALE
 40
0.6431102362
  9
$OSMODE
 70
  4095
  9
$ATTMODE
 70
     1
  9
$TEXTSIZE
 40
0.2
  9
$TRACEWID
 40
0.05
  9
$TEXTSTYLE
  7
STANDARD
  9
$CLAYER
  8
0
  9
$CELTYPE
  6
BYLAYER
  9
$CECOLOR
 62
   256
  9
$DIMSCALE
 40
1.0
  9
$DIMASZ
 40
0.1875
  9
$DIMEXO
 40
0.0625
  9
$DIMDLI
 40
0.4443307087
  9
$DIMRND
 40
0.0
  9
$DIMDLE
 40
0.0
  9
$DIMEXE
 40
0.125
  9
$DIMTP
 40
0.01
  9
$DIMTM
 40
0.01
  9
$DIMTXT
 40
1.0
  9
$DIMCEN
 40
0.1052362205
  9
$DIMTSZ
 40
0.0
  9
$DIMTOL
 70
     1
  9
$DIMLIM
 70
     0
  9
$DIMTIH
 70
     1
  9
$DIMTOH
 70
     1
  9
$DIMSE1
 70
     0
  9
$DIMSE2
 70
     0
  9
$DIMTAD
 70
     0
  9
$DIMZIN
 70
     0
  9
$DIMBLK
  1

  9
$DIMASO
 70
     1
  9
$DIMSHO
 70
     1
  9
$DIMPOST
  1
\X
  9
$DIMAPOST
  1

  9
$DIMALT
 70
     1
  9
$DIMALTD
 70
     2
  9
$DIMALTF
 40
25.3999999999999986
  9
$DIMLFAC
 40
1.0
  9
$DIMTOFL
 70
     0
  9
$DIMTVP
 40
0.0
  9
$DIMTIX
 70
     0
  9
$DIMSOXD
 70
     0
  9
$DIMSAH
 70
     0
  9
$DIMBLK1
  1

  9
$DIMBLK2
  1

  9
$DIMSTYLE
  2
STANDARD
  9
$DIMCLRD
 70
     0
  9
$DIMCLRE
 70
     0
  9
$DIMCLRT
 70
     0
  9
$DIMTFAC
 40
1.0
  9
$DIMGAP
 40
0.09
  9
$LUNITS
 70
     2
  9
$LUPREC
 70
     4
  9
$SKETCHINC
 40
0.1
  9
$FILLETRAD
 40
0.0
  9
$AUNITS
 70
     0
  9
$AUPREC
 70
     0
  9
$MENU
  1
.
  9
$ELEVATION
 40
0.0
  9
$PELEVATION
 40
0.0
  9
$THICKNESS
 40
0.0
  9
$LIMCHECK
 70
     0
  9
$BLIPMODE
 70
     0
  9
$CHAMFERA
 40
0.0
  9
$CHAMFERB
 40
0.0
  9
$SKPOLY
 70
     0
  9
$TDCREATE
 40
2458172.4620254631154239
  9
$TDUPDATE
 40
2460532.5853009261190891
  9
$TDINDWG
 40
0.094264375
  9
$TDUSRTIMER
 40
0.094264375
  9
$USRTIMER
 70
     1
  9
$ANGBASE
 50
0.0
  9
$ANGDIR
 70
     0
  9
$PDMODE
 70
     0
  9
$PDSIZE
 40
0.3125
  9
$PLINEWID
 40
0.0
  9
$COORDS
 70
     1
  9
$SPLFRAME
 70
     0
  9
$SPLINETYPE
 70
     6
  9
$SPLINESEGS
 70
     8
  9
$ATTDIA
 70
     1
  9
$ATTREQ
 70
     1
  9
$HANDLING
 70
     1
  9
$HANDSEED
  5
4A4C
  9
$SURFTAB1
 70
     6
  9
$SURFTAB2
 70
     6
  9
$SURFTYPE
 70
     6
  9
$SURFU
 70
     6
  9
$SURFV
 70
     6
  9
$UCSNAME
  2

  9
$UCSORG
 10
0.0
 20
0.0
 30
0.0
  9
$UCSXDIR
 10
1.0
 20
0.0
 30
0.0
  9
$UCSYDIR
 10
0.0
 20
1.0
 30
0.0
  9
$PUCSNAME
  2

  9
$PUCSORG
 10
0.0
 20
0.0
 30
0.0
  9
$PUCSXDIR
 10
1.0
 20
0.0
 30
0.0
  9
$PUCSYDIR
 10
0.0
 20
1.0
 30
0.0
  9
$USERI1
 70
     0
  9
$USERI2
 70
     0
  9
$USERI3
 70
     0
  9
$USERI4
 70
     0
  9
$USERI5
 70
     0
  9
$USERR1
 40
0.0
  9
$USERR2
 40
0.0
  9
$USERR3
 40
0.0
  9
$USERR4
 40
0.0
  9
$USERR5
 40
0.0
  9
$WORLDVIEW
 70
     1
  9
$SHADEDGE
 70
     3
  9
$SHADEDIF
 70
    70
  9
$TILEMODE
 70
     1
  9
$MAXACTVP
 70
    64
  9
$PLIMCHECK
 70
     0
  9
$PEXTMIN
 10
1.0000000000000000E+20
 20
1.0000000000000000E+20
 30
1.0000000000000000E+20
  9
$PEXTMAX
 10
-1.0000000000000000E+20
 20
-1.0000000000000000E+20
 30
-1.0000000000000000E+20
  9
$PLIMMIN
 10
0.0
 20
0.0
  9
$PLIMMAX
 10
12.0
 20
9.0
  9
$UNITMODE
 70
     0
  9
$VISRETAIN
 70
     1
  9
$PLINEGEN
 70
     0
  9
$PSLTSCALE
 70
     1
  0
ENDSEC
  0
SECTION
  2
TABLES
  0
TABLE
  2
VPORT
 70
     1
  0
VPORT
  2
*ACTIVE
 70
     0
 10
0.0
 20
0.0
 11
1.0
 21
1.0
 12
233.2161900179685006
 22
28.7138521625026009
 13
0.0
 23
0.0
 14
1.0
 24
1.0
 15
0.0
 25
0.0
 16
0.0
 26
0.0
 36
16.5150948445327401
 17
166.6999349474359065
 27
13.1682907557722206
 37
0.0
 40
33.6781311313065004
 41
2.1792237442922371
 42
50.0
 43
0.0
 44
0.0
 50
0.0
 51
0.0
 71
     0
 72
   100
 73
     1
 74
     1
 75
     0
 76
     0
 77
     0
 78
     0
  0
ENDTAB
  0
TABLE
  2
LTYPE
 70
     2
  0
LTYPE
  2
CONTINUOUS
 70
     0
  3
Solid line
 72
    65
 73
     0
 40
0.0
  0
LTYPE
  2
PHANTOM2
 70
     0
  3
___ _ _ ___ _ _ ___ _ _ ___ _ _
 72
    65
 73
     6
 40
1.25
 49
0.625
 49
-0.125
 49
0.125
 49
-0.125
 49
0.125
 49
-0.125
  0
ENDTAB
  0
TABLE
  2
LAYER
 70
     2
  0
LAYER
  2
0
 70
     0
 62
   255
  6
CONTINUOUS
  0
LAYER
  2
DEFPOINTS
 70
     0
 62
     7
  6
CONTINUOUS
  0
ENDTAB
  0
TABLE
  2
STYLE
 70
     1
  0
STYLE
  2
STANDARD
 70
     0
 40
0.0
 41
0.8
 50
0.0
 71
     0
 42
0.2
  3
txt
  4

  0
ENDTAB
  0
TABLE
  2
VIEW
 70
     0
  0
ENDTAB
  0
TABLE
  2
UCS
 70
     0
  0
ENDTAB
  0
TABLE
  2
APPID
 70
     9
  0
APPID
  2
ACAD
 70
     0
  0
APPID
  2
ACAD_MLEADERVER
 70
     0
  0
APPID
  2
ACAD_EXEMPT_FROM_CAD_STANDARDS
 70
     0
  0
APPID
  2
ACAD_DSTYLE_DIMJAG
 70
     0
  0
APPID
  2
ACAD_DSTYLE_DIMTALN
 70
     0
  0
APPID
  2
ACAD_NAV_VCDISPLAY
 70
     0
  0
APPID
  2
ACAECLAYERSTANDARD
 70
     0
  0
APPID
  2
ACCMTRANSPARENCY
 70
     0
  0
APPID
  2
ACDBATTR
 70
     0
  0
ENDTAB
  0
TABLE
  2
DIMSTYLE
 70
     1
  0
DIMSTYLE
  2
STANDARD
 70
     0
  3

  4

  5

  6

  7

 40
1.0
 41
0.1875
 42
0.0625
 43
0.38
 44
0.125
 45
0.0
 46
0.0
 47
0.01
 48
0.01
140
0.15625
141
0.09
142
0.0
143
25.3999999999999986
144
1.0
145
0.0
146
1.0
147
0.09
 71
     1
 72
     0
 73
     1
 74
     1
 75
     0
 76
     0
 77
     0
 78
     4
170
     0
171
     2
172
     0
173
     0
174
     0
175
     0
176
     0
177
     0
178
     0
  0
ENDTAB
  0
ENDSEC
  0
SECTION
  2
BLOCKS
  0
BLOCK
  8
0
  2
$MODEL_SPACE
 70
     0
 10
0.0
 20
0.0
 30
0.0
  3
$MODEL_SPACE
  1

  0
ENDBLK
  5
21
  8
0
  0
BLOCK
 67
     1
  8
0
  2
$PAPER_SPACE
 70
     0
 10
0.0
 20
0.0
 30
0.0
  3
$PAPER_SPACE
  1

  0
ENDBLK
  5
1D
 67
     1
  8
0
  0
BLOCK
  8
0
  2
_FILLED
 70
     0
 10
0.0
 20
0.0
 30
0.0
  3
_FILLED
  1

  0
SOLID
  5
252B
  8
0
  6
BYBLOCK
 62
     0
 10
0.0
 20
0.0
 30
0.0
 11
-1.0
 21
0.1666666667
 31
0.0
 12
-1.0
 22
-0.1666666667
 32
0.0
 13
-1.0
 23
-0.1666666667
 33
0.0
  0
ENDBLK
  5
252C
  8
0
  6
BYBLOCK
 62
     0
  0
ENDSEC
  0
SECTION
  2
ENTITIES
  0
ATTDEF
  5
157D
  8
DEFPOINTS
 10
399.9077108631610145
 20
53.1027928412816905
 30
0.0
 40
0.001
  1
K-36573
  3

  2
MODELNUMBER
 70
     0
1001
ACDBATTR
1070
     0
1070
     1
  0
ATTDEF
  5
157E
  8
DEFPOINTS
 10
399.9077108631610145
 20
53.1011261746150183
 30
0.0
 40
0.001
  1
SILESTONE
  3

  2
TRADENAME
 70
     0
1001
ACDBATTR
1070
     0
1070
     1
  0
ATTDEF
  5
157F
  8
DEFPOINTS
 10
399.9077108631610145
 20
53.0994595079483602
 30
0.0
 40
0.001
  1
VANITY TOP
  3

  2
PRODUCT
 70
     0
1001
ACDBATTR
1070
     0
1070
     1
  0
LINE
  5
4924
  8
0
 10
363.3479187294578878
 20
53.0590947134399826
 30
0.0
 11
363.3479187294578878
 21
30.7789947134399817
 31
0.0
  0
LINE
  5
4925
  8
0
 10
363.4659187294578828
 20
30.6609947134399796
 30
0.0
 11
436.3549187294577791
 21
30.6609947134399796
 31
0.0
  0
LINE
  5
4926
  8
0
 10
363.3873187294578884
 20
53.0984947134399832
 30
0.0
 11
436.4335187294577736
 21
53.0984947134399832
 31
0.0
  0
LINE
  5
4927
  8
0
 10
363.3873187294578884
 20
53.0984947134399832
 30
0.0
 11
363.3479187294578878
 21
53.0590947134399826
 31
0.0
  0
ARC
  5
4928
  8
0
 10
363.4659187294578828
 20
30.7789947134399888
 30
0.0
 40
0.118
 50
180.0000000000015916
 51
269.9999999999968168
  0
LINE
  5
4929
  8
0
 10
363.4659187294578828
 20
53.0590947134399826
 30
0.0
 11
436.3549187294577791
 21
53.0590947134399826
 31
0.0
  0
LINE
  5
492A
  8
0
 10
363.4659187294578828
 20
53.0590947134399826
 30
0.0
 11
363.4659187294578828
 21
30.6609947134399796
 31
0.0
  0
LINE
  5
492B
  8
0
 10
363.4659187294578828
 20
53.0590947134399826
 30
0.0
 11
363.4265187294578823
 21
53.0984947134399832
 31
0.0
  0
LINE
  5
492C
  8
0
 10
363.3479187294578878
 20
30.7789947134399817
 30
0.0
 11
436.4729187294577741
 21
30.7789947134399817
 31
0.0
  0
CIRCLE
  5
492D
  8
0
 10
382.5670187294578
 20
50.5984947134399832
 30
0.0
 40
0.6875
  0
LINE
  5
492E
  8
0
 10
374.7070187294579
 20
47.5047447134399832
 30
0.0
 11
390.4270187294579273
 21
47.5047447134399832
 31
0.0
  0
LINE
  5
492F
  8
0
 10
374.0670187294579137
 20
35.5822447134399908
 30
0.0
 11
374.0670187294579137
 21
46.8647447134399826
 31
0.0
  0
LINE
  5
4930
  8
0
 10
374.7070187294579
 20
34.9422447134399903
 30
0.0
 11
390.4270187294579273
 21
34.9422447134399903
 31
0.0
  0
ARC
  5
4931
  8
0
 10
374.7070187294577863
 20
35.5822447134399766
 30
0.0
 40
0.6400000000000001
 50
179.9999999999994031
 51
270.0
  0
ARC
  5
4932
  8
0
 10
374.7070187294577863
 20
46.8647447134399897
 30
0.0
 40
0.6400000000000001
 50
90.0
 51
180.0000000000011937
  0
LINE
  5
4933
  8
0
 10
391.0670187294579137
 20
35.5822447134399908
 30
0.0
 11
391.0670187294579137
 21
46.8647447134399826
 31
0.0
  0
ARC
  5
4934
  8
0
 10
390.4270187294579273
 20
35.5822447134399766
 30
0.0
 40
0.6400000000000001
 50
270.0
 51
0.0000000000006107
  0
ARC
  5
4935
  8
0
 10
390.4270187294579273
 20
46.8647447134399897
 30
0.0
 40
0.6400000000000001
 50
359.9999999999988063
 51
90.0
  0
LINE
  5
4936
  8
0
 10
436.4729187294577741
 20
53.0590947134399826
 30
0.0
 11
436.4729187294577741
 21
30.7789947134399817
 31
0.0
  0
LINE
  5
4937
  8
0
 10
436.4335187294577736
 20
53.0984947134399832
 30
0.0
 11
436.4729187294577741
 21
53.0590947134399826
 31
0.0
  0
ARC
  5
4938
  8
0
 10
436.3549187294577791
 20
30.7789947134399888
 30
0.0
 40
0.118
 50
270.0000000000032969
 51
359.999999999998181
  0
LINE
  5
4939
  8
0
 10
436.3549187294577791
 20
53.0590947134399826
 30
0.0
 11
436.3549187294577791
 21
30.6609947134399796
 31
0.0
  0
LINE
  5
493A
  8
0
 10
436.3549187294577791
 20
53.0590947134399826
 30
0.0
 11
436.3943187294577797
 21
53.0984947134399832
 31
0.0
  0
CIRCLE
  5
493B
  8
0
 10
417.2538187294578051
 20
50.5984947134399832
 30
0.0
 40
0.6875
  0
LINE
  5
493C
  8
0
 10
425.1138187294578756
 20
47.5047447134399832
 30
0.0
 11
409.3938187294577915
 21
47.5047447134399832
 31
0.0
  0
LINE
  5
493D
  8
0
 10
425.7538187294578051
 20
35.5822447134399908
 30
0.0
 11
425.7538187294578051
 21
46.8647447134399826
 31
0.0
  0
LINE
  5
493E
  8
0
 10
425.1138187294578756
 20
34.9422447134399903
 30
0.0
 11
409.3938187294577915
 21
34.9422447134399903
 31
0.0
  0
ARC
  5
493F
  8
0
 10
425.1138187294578756
 20
35.5822447134399766
 30
0.0
 40
0.6400000000000001
 50
270.0
 51
0.0000000000006107
  0
ARC
  5
4940
  8
0
 10
425.1138187294578756
 20
46.8647447134399897
 30
0.0
 40
0.6400000000000001
 50
359.9999999999988063
 51
90.0
  0
LINE
  5
4941
  8
0
 10
408.7538187294578051
 20
35.5822447134399908
 30
0.0
 11
408.7538187294578051
 21
46.8647447134399826
 31
0.0
  0
ARC
  5
4942
  8
0
 10
409.3938187294577915
 20
35.5822447134399766
 30
0.0
 40
0.6400000000000001
 50
179.9999999999994031
 51
270.0
  0
ARC
  5
4943
  8
0
 10
409.3938187294577915
 20
46.8647447134399897
 30
0.0
 40
0.6400000000000001
 50
90.0
 51
180.0000000000011937
  0
POINT
  5
49C8
  8
DEFPOINTS
 10
382.5670187294578
 20
50.5984947134399832
 30
0.0
  0
POINT
  5
49C9
  8
DEFPOINTS
 10
417.2538187294578051
 20
50.5984947134399832
 30
0.0
  0
ENDSEC
  0
EOF
