  0
SECTION
  2
HEADER
  9
$ACADVER
  1
AC1009
  9
$INSBASE
 10
4362.8003976023046562
 20
458.5143840844776832
 30
0.0
  9
$EXTMIN
 10
4347.7288086534335889
 20
449.2545251502372139
 30
-0.0000000000000058
  9
$EXTMAX
 10
4377.876272331565815
 20
467.770406789678816
 30
0.0000000000000104
  9
$LIMMIN
 10
0.0
 20
0.0
  9
$LIMMAX
 10
11.6929133858000007
 20
8.2677165353999982
  9
$ORTHOMODE
 70
     0
  9
$REGENMODE
 70
     1
  9
$FILLMODE
 70
     1
  9
$QTEXTMODE
 70
     0
  9
$MIRRTEXT
 70
     0
  9
$DRAGMODE
 70
     2
  9
$LTSCALE
 40
0.6431102362
  9
$OSMODE
 70
     3
  9
$ATTMODE
 70
     1
  9
$TEXTSIZE
 40
0.2
  9
$TRACEWID
 40
0.05
  9
$TEXTSTYLE
  7
STANDARD
  9
$CLAYER
  8
0
  9
$CELTYPE
  6
BYLAYER
  9
$CECOLOR
 62
   256
  9
$DIMSCALE
 40
1.0
  9
$DIMASZ
 40
0.1875
  9
$DIMEXO
 40
0.0625
  9
$DIMDLI
 40
0.4443307087
  9
$DIMRND
 40
0.0
  9
$DIMDLE
 40
0.0
  9
$DIMEXE
 40
0.125
  9
$DIMTP
 40
0.01
  9
$DIMTM
 40
0.01
  9
$DIMTXT
 40
2.0
  9
$DIMCEN
 40
0.1052362205
  9
$DIMTSZ
 40
0.0
  9
$DIMTOL
 70
     1
  9
$DIMLIM
 70
     0
  9
$DIMTIH
 70
     1
  9
$DIMTOH
 70
     1
  9
$DIMSE1
 70
     0
  9
$DIMSE2
 70
     0
  9
$DIMTAD
 70
     0
  9
$DIMZIN
 70
     0
  9
$DIMBLK
  1

  9
$DIMASO
 70
     1
  9
$DIMSHO
 70
     1
  9
$DIMPOST
  1
\X
  9
$DIMAPOST
  1

  9
$DIMALT
 70
     1
  9
$DIMALTD
 70
     2
  9
$DIMALTF
 40
25.3999999999999986
  9
$DIMLFAC
 40
1.0
  9
$DIMTOFL
 70
     0
  9
$DIMTVP
 40
0.0
  9
$DIMTIX
 70
     0
  9
$DIMSOXD
 70
     0
  9
$DIMSAH
 70
     0
  9
$DIMBLK1
  1

  9
$DIMBLK2
  1

  9
$DIMSTYLE
  2
STANDARD
  9
$DIMCLRD
 70
     0
  9
$DIMCLRE
 70
     0
  9
$DIMCLRT
 70
     0
  9
$DIMTFAC
 40
1.0
  9
$DIMGAP
 40
0.09
  9
$LUNITS
 70
     2
  9
$LUPREC
 70
     4
  9
$SKETCHINC
 40
0.1
  9
$FILLETRAD
 40
0.0
  9
$AUNITS
 70
     0
  9
$AUPREC
 70
     0
  9
$MENU
  1
.
  9
$ELEVATION
 40
0.0
  9
$PELEVATION
 40
0.0
  9
$THICKNESS
 40
0.0
  9
$LIMCHECK
 70
     0
  9
$BLIPMODE
 70
     0
  9
$CHAMFERA
 40
0.0
  9
$CHAMFERB
 40
0.0
  9
$SKPOLY
 70
     0
  9
$TDCREATE
 40
2458060.468368056230247
  9
$TDUPDATE
 40
2459165.6673842589370906
  9
$TDINDWG
 40
1.1533403934999999
  9
$TDUSRTIMER
 40
1.1533403934999999
  9
$USRTIMER
 70
     1
  9
$ANGBASE
 50
0.0
  9
$ANGDIR
 70
     0
  9
$PDMODE
 70
     0
  9
$PDSIZE
 40
0.3125
  9
$PLINEWID
 40
0.0
  9
$COORDS
 70
     1
  9
$SPLFRAME
 70
     0
  9
$SPLINETYPE
 70
     6
  9
$SPLINESEGS
 70
     8
  9
$ATTDIA
 70
     1
  9
$ATTREQ
 70
     1
  9
$HANDLING
 70
     1
  9
$HANDSEED
  5
1740F
  9
$SURFTAB1
 70
     6
  9
$SURFTAB2
 70
     6
  9
$SURFTYPE
 70
     6
  9
$SURFU
 70
     6
  9
$SURFV
 70
     6
  9
$UCSNAME
  2

  9
$UCSORG
 10
0.0
 20
0.0
 30
0.0
  9
$UCSXDIR
 10
1.0
 20
0.0
 30
0.0
  9
$UCSYDIR
 10
0.0
 20
1.0
 30
0.0
  9
$PUCSNAME
  2

  9
$PUCSORG
 10
0.0
 20
0.0
 30
0.0
  9
$PUCSXDIR
 10
1.0
 20
0.0
 30
0.0
  9
$PUCSYDIR
 10
0.0
 20
1.0
 30
0.0
  9
$USERI1
 70
     0
  9
$USERI2
 70
     0
  9
$USERI3
 70
     0
  9
$USERI4
 70
     0
  9
$USERI5
 70
     0
  9
$USERR1
 40
0.0
  9
$USERR2
 40
0.0
  9
$USERR3
 40
0.0
  9
$USERR4
 40
0.0
  9
$USERR5
 40
0.0
  9
$WORLDVIEW
 70
     1
  9
$SHADEDGE
 70
     3
  9
$SHADEDIF
 70
    70
  9
$TILEMODE
 70
     1
  9
$MAXACTVP
 70
    64
  9
$PLIMCHECK
 70
     0
  9
$PEXTMIN
 10
1.0000000000000000E+20
 20
1.0000000000000000E+20
 30
1.0000000000000000E+20
  9
$PEXTMAX
 10
-1.0000000000000000E+20
 20
-1.0000000000000000E+20
 30
-1.0000000000000000E+20
  9
$PLIMMIN
 10
0.0
 20
0.0
  9
$PLIMMAX
 10
12.0
 20
9.0
  9
$UNITMODE
 70
     0
  9
$VISRETAIN
 70
     1
  9
$PLINEGEN
 70
     0
  9
$PSLTSCALE
 70
     1
  0
ENDSEC
  0
SECTION
  2
TABLES
  0
TABLE
  2
VPORT
 70
     1
  0
VPORT
  2
*ACTIVE
 70
     0
 10
0.0
 20
0.0
 11
1.0
 21
1.0
 12
451.4371840471875998
 22
325.9328608674189809
 13
0.0
 23
0.0
 14
1.0
 24
1.0
 15
0.0
 25
0.0
 16
0.0
 26
0.0
 36
60.4960186965801583
 17
3911.3653564453120453
 27
132.5796051025390057
 37
0.0
 40
18.6273112180140288
 41
1.6877510040160639
 42
50.0
 43
0.0
 44
0.0
 50
0.0
 51
0.0
 71
     0
 72
   100
 73
     1
 74
     1
 75
     0
 76
     0
 77
     0
 78
     0
  0
ENDTAB
  0
TABLE
  2
LTYPE
 70
     2
  0
LTYPE
  2
CONTINUOUS
 70
     0
  3
Solid line
 72
    65
 73
     0
 40
0.0
  0
LTYPE
  2
PHANTOM2
 70
     0
  3
___ _ _ ___ _ _ ___ _ _ ___ _ _
 72
    65
 73
     6
 40
1.25
 49
0.625
 49
-0.125
 49
0.125
 49
-0.125
 49
0.125
 49
-0.125
  0
ENDTAB
  0
TABLE
  2
LAYER
 70
     2
  0
LAYER
  2
0
 70
     0
 62
   255
  6
CONTINUOUS
  0
LAYER
  2
DEFPOINTS
 70
     0
 62
     7
  6
CONTINUOUS
  0
ENDTAB
  0
TABLE
  2
STYLE
 70
     1
  0
STYLE
  2
STANDARD
 70
     0
 40
0.0
 41
0.8
 50
0.0
 71
     0
 42
0.2
  3
txt
  4

  0
ENDTAB
  0
TABLE
  2
VIEW
 70
     0
  0
ENDTAB
  0
TABLE
  2
UCS
 70
     0
  0
ENDTAB
  0
TABLE
  2
APPID
 70
    11
  0
APPID
  2
ACAD
 70
     0
  0
APPID
  2
ACAD_MLEADERVER
 70
     0
  0
APPID
  2
ACAD_EXEMPT_FROM_CAD_STANDARDS
 70
     0
  0
APPID
  2
ACAD_NAV_VCDISPLAY
 70
     0
  0
APPID
  2
ACAECLAYERSTANDARD
 70
     0
  0
APPID
  2
ACCMTRANSPARENCY
 70
     0
  0
APPID
  2
ACAD_DSTYLE_DIMJAG
 70
     0
  0
APPID
  2
ACAD_DSTYLE_DIMTALN
 70
     0
  0
APPID
  2
ACDBATTR
 70
     0
  0
APPID
  2
ACADANNOTATIVE
 70
     0
  0
APPID
  2
DCO15
 70
     0
  0
ENDTAB
  0
TABLE
  2
DIMSTYLE
 70
     1
  0
DIMSTYLE
  2
STANDARD
 70
     0
  3

  4

  5

  6

  7

 40
1.0
 41
0.1875
 42
0.0625
 43
0.38
 44
0.125
 45
0.0
 46
0.0
 47
0.01
 48
0.01
140
0.15625
141
0.09
142
0.0
143
25.3999999999999986
144
1.0
145
0.0
146
1.0
147
0.09
 71
     1
 72
     0
 73
     1
 74
     1
 75
     0
 76
     0
 77
     0
 78
     4
170
     0
171
     2
172
     0
173
     0
174
     0
175
     0
176
     0
177
     0
178
     0
  0
ENDTAB
  0
ENDSEC
  0
SECTION
  2
BLOCKS
  0
BLOCK
  8
0
  2
$MODEL_SPACE
 70
     0
 10
0.0
 20
0.0
 30
0.0
  3
$MODEL_SPACE
  1

  0
ENDBLK
  5
21
  8
0
  0
BLOCK
 67
     1
  8
0
  2
$PAPER_SPACE
 70
     0
 10
0.0
 20
0.0
 30
0.0
  3
$PAPER_SPACE
  1

  0
ENDBLK
  5
1D
 67
     1
  8
0
  0
ENDSEC
  0
SECTION
  2
ENTITIES
  0
ATTDEF
  5
159BF
  8
0
 10
4362.8013767995689705
 20
458.5196985952546811
 30
0.0
 40
0.001
  1
K-3676T-2KD
  3

  2
MODELNUMBER
 70
     0
1001
ACDBATTR
1070
     0
1070
     1
  0
ATTDEF
  5
159C0
  8
0
 10
4362.8012509899126599
 20
458.5180317548754942
 30
0.0
 40
0.001
  1
MARCATO
  3

  2
TRADENAME
 70
     0
1001
ACDBATTR
1070
     0
1070
     1
  0
ATTDEF
  5
159C1
  8
0
 10
4362.8013767995689705
 20
458.5163652619214076
 30
0.0
 40
0.001
  1
KITCHEN SINK
  3

  2
PRODUCT
 70
     0
1001
ACDBATTR
1070
     0
1070
     1
  0
LINE
  5
17308
  8
0
 10
4377.5641771298551248
 20
467.6679273916338957
 30
0.0
 11
4377.5641771298551248
 21
449.360840777321414
 31
0.0
  0
LINE
  5
17309
  8
0
 10
4348.036618074755097
 20
467.6679273916370221
 30
0.0
 11
4348.036618074755097
 21
449.3608407773181739
 31
0.0
  0
LINE
  5
1730A
  8
0
 10
4377.4657519330494324
 20
449.2624155805276018
 30
0.0
 11
4348.1350432715607894
 21
449.2624155805276018
 31
0.0
  0
LINE
  5
1730B
  8
0
 10
4348.1350432715553325
 20
467.7663525884275941
 30
0.0
 11
4377.4657519330548894
 21
467.7663525884275941
 31
0.0
  0
ARC
  5
1730C
  8
0
 10
4348.1350987366558911
 20
467.6678719265270274
 30
0.0
 40
0.098480677519839
 50
90.0322694402875356
 51
179.9677305596864016
  0
ARC
  5
1730E
  8
0
 10
4377.4656964679543307
 20
467.6678719265270274
 30
0.0
 40
0.098480677519839
 50
0.0322694403135734
 51
89.9677305597124786
  0
ARC
  5
1730F
  8
0
 10
4348.1350987366558911
 20
449.3608962424282822
 30
0.0
 40
0.098480677519839
 50
180.0322694403135131
 51
269.9677305597124928
  0
ARC
  5
17310
  8
0
 10
4377.4656964679543307
 20
449.3608962424282822
 30
0.0
 40
0.098480677519839
 50
270.0322694402875072
 51
359.9677305596864016
  0
ARC
  5
17311
  8
0
 10
4375.0051220117547928
 20
464.8135966829275958
 30
0.0
 40
0.5746811937000019
 50
281.0590990739020185
 51
258.9408948156792007
  0
CIRCLE
  5
17312
  8
0
 10
4375.0051220117547928
 20
464.8135966829275958
 30
0.0
 40
0.5716560701061369
  0
LINE
  5
17313
  8
0
 10
4375.1153581721046066
 20
461.0435492087596003
 30
0.0
 11
4375.1153581721046066
 21
464.2526700821674126
 31
0.0
  0
LINE
  5
17314
  8
0
 10
4374.8948857912546373
 20
461.0435579245275903
 30
0.0
 11
4374.8948857912546373
 21
464.2526700939883995
 31
0.0
  0
ARC
  5
17315
  8
0
 10
4375.0051225053830422
 20
461.0568010592007226
 30
0.0
 40
0.1110293373741
 50
186.8503200393386976
 51
353.1451498991506242
  0
ARC
  5
17316
  8
0
 10
4375.0051220117547928
 20
464.8135966829275958
 30
0.0
 40
0.8267716534999998
 50
277.6622514571187139
 51
262.3377443369270736
  0
CIRCLE
  5
17317
  8
0
 10
4368.8633897282552425
 20
465.4828880215275717
 30
0.0
 40
0.6889763779999996
  0
CIRCLE
  5
17318
  8
0
 10
4365.1232322479545473
 20
465.4828880215275717
 30
0.0
 40
0.6889763779999996
  0
LINE
  5
17319
  8
0
 10
4348.2848024274553609
 20
449.6090201098276111
 30
0.0
 11
4348.2848024293552953
 21
467.4197480641277025
 31
0.0
  0
LINE
  5
1731A
  8
0
 10
4348.3832228451547053
 20
467.5181683269275936
 30
0.0
 11
4377.2175726055547784
 21
467.5181682338276232
 31
0.0
  0
LINE
  5
1731B
  8
0
 10
4377.3159928683553517
 20
467.419747818027588
 30
0.0
 11
4377.3159927752549265
 21
449.6090201049275947
 31
0.0
  0
LINE
  5
1731C
  8
0
 10
4377.2175723594546071
 20
449.5105998420276023
 30
0.0
 11
4348.3832228388546355
 21
449.5105998444275883
 31
0.0
  0
ARC
  5
1731D
  8
0
 10
4348.4330550923914416
 20
449.6588525832876257
 30
0.0
 40
0.1564037342012015
 50
198.5791470786643913
 51
251.4209379157989019
  0
ARC
  5
1731E
  8
0
 10
4348.4330548142897896
 20
467.3699158645250122
 30
0.0
 40
0.1564033815375249
 50
108.578995595883498
 51
161.4209153345767049
  0
ARC
  5
1731F
  8
0
 10
4377.1677404062556889
 20
467.3699158491950243
 30
0.0
 40
0.1564033811536349
 50
18.5789955260209503
 51
71.4209154044259833
  0
ARC
  5
17320
  8
0
 10
4377.1677403902258447
 20
449.6588523044725889
 30
0.0
 40
0.1564033816073869
 50
288.5789956232599138
 51
341.420915365423923
  0
LINE
  5
17321
  8
0
 10
4348.860919582653878
 20
453.9868250294276777
 30
0.0
 11
4348.860919582653878
 21
465.6009982577276105
 31
0.0
  0
LINE
  5
17322
  8
0
 10
4350.201972405455308
 20
466.9420510805276194
 30
0.0
 11
4375.3988227991540043
 21
466.9420510805276194
 31
0.0
  0
LINE
  5
17323
  8
0
 10
4376.7398756219554343
 20
465.6009982577276105
 30
0.0
 11
4376.7398756219554343
 21
453.9868250294276777
 31
0.0
  0
LINE
  5
17324
  8
0
 10
4372.8397676810564008
 20
450.0867170884275765
 30
0.0
 11
4352.7610275235547306
 21
450.0867170884275765
 31
0.0
  0
LINE
  5
17325
  8
0
 10
4349.1020803463552511
 20
453.9868250294276777
 30
0.0
 11
4349.1020803463552511
 21
465.6009982577276105
 31
0.0
  0
LINE
  5
17326
  8
0
 10
4350.201972405455308
 20
466.7008903168277243
 30
0.0
 11
4360.6302780208552576
 21
466.7008903168277243
 31
0.0
  0
ARC
  5
17327
  8
0
 10
4360.5488951002689646
 20
462.9640890869388841
 30
0.0
 40
3.7376873346310209
 50
28.95459838719038
 51
88.7523658418338783
  0
ARC
  5
17328
  8
0
 10
4365.1306068608591886
 20
465.4990293589215185
 30
0.0
 40
1.4985331381938971
 50
208.9545983934640105
 51
269.9999999883793862
  0
LINE
  5
17329
  8
0
 10
4361.2631306356552159
 20
466.7888554575275748
 30
0.0
 11
4375.3988227863555949
 21
466.7888554575275748
 31
0.0
  0
LINE
  5
1732A
  8
0
 10
4376.5866799989553328
 20
465.6009982449276094
 30
0.0
 11
4376.5866799989553328
 21
461.1069001551276187
 31
0.0
  0
LINE
  5
1732B
  8
0
 10
4372.7884593180551747
 20
464.1536918437275858
 30
0.0
 11
4365.1306068582553053
 21
464.1536918437275858
 31
0.0
  0
ARC
  5
1732C
  8
0
 10
4365.1306068604917527
 20
465.4990293582998788
 30
0.0
 40
1.3453375145722499
 50
208.954598816778514
 51
269.9999999046904122
  0
ARC
  5
1732D
  8
0
 10
4360.5488951006382194
 20
462.9640890875489276
 30
0.0
 40
3.8908829569137442
 50
28.9545982304318805
 51
79.4224357729392239
  0
ARC
  5
1732E
  8
0
 10
4372.7884592973559847
 20
460.2628088239779913
 30
0.0
 40
3.8908830197496829
 50
12.5294155749416394
 51
53.2704367304920723
  0
ARC
  5
1732F
  8
0
 10
4372.7884592973559847
 20
460.2628088239779913
 30
0.0
 40
3.8908830197496829
 50
57.2227150773691307
 51
89.9999996952073928
  0
ARC
  5
17330
  8
0
 10
4375.3988227981899399
 20
465.6009982567620114
 30
0.0
 40
1.18785720076568
 50
359.9999994291782741
 51
90.0000005708152031
  0
ARC
  5
17331
  8
0
 10
4375.3988227989138977
 20
465.6009982574861965
 30
0.0
 40
1.341052823041422
 50
0.0000000103145643
 51
89.9999999896821947
  0
LINE
  5
17332
  8
0
 10
4365.1306068605563269
 20
464.000496220727598
 30
0.0
 11
4372.7884593179551302
 21
464.000496220727598
 31
0.0
  0
LINE
  5
17333
  8
0
 10
4376.4987148625550617
 20
460.6696448729276767
 30
0.0
 11
4376.4987148582549707
 21
453.9868250294276777
 31
0.0
  0
LINE
  5
17334
  8
0
 10
4372.8397676810564008
 20
450.3278778522275729
 30
0.0
 11
4352.7610275235547306
 21
450.3278778522275729
 31
0.0
  0
ARC
  5
17335
  8
0
 10
4352.76102752348379
 20
453.9868250292569769
 30
0.0
 40
3.900107940829292
 50
179.9999999974922105
 51
270.0000000010422241
  0
ARC
  5
17336
  8
0
 10
4352.7610275235547306
 20
453.9868250294276777
 30
0.0
 40
3.6589471771999942
 50
180.0
 51
270.0
  0
ARC
  5
17337
  8
0
 10
4372.8397676810564008
 20
453.9868250294276777
 30
0.0
 40
3.6589471771999871
 50
270.0
 51
0.0
  0
ARC
  5
17338
  8
0
 10
4372.8397676811246129
 20
453.9868250292569769
 30
0.0
 40
3.9001079408292969
 50
269.9999999989577759
 51
0.0000000025078038
  0
ARC
  5
17339
  8
0
 10
4372.7884593164208127
 20
460.2628088850797212
 30
0.0
 40
3.7376873356480118
 50
7.7149074201410732
 51
51.4973795184820702
  0
ARC
  5
1733A
  8
0
 10
4372.7884593164208127
 20
460.2628088850797212
 30
0.0
 40
3.7376873356480118
 50
55.6973594474064768
 51
89.9999999764983016
  0
ARC
  5
1733B
  8
0
 10
4375.744446006779981
 20
460.6664654414346955
 30
0.0
 40
0.7542755567953403
 50
0.241514581262471
 51
7.4734067259751704
  0
ARC
  5
1733C
  8
0
 10
4350.2019724056963241
 20
465.6009982574861965
 30
0.0
 40
1.3410528230414209
 50
90.0000000103178195
 51
179.9999999896853922
  0
ARC
  5
1733D
  8
0
 10
4350.2019724061792658
 20
465.6009982570034254
 30
0.0
 40
1.0998920598242561
 50
90.0000000377277729
 51
179.9999999622721987
  0
ARC
  5
1733E
  8
0
 10
4448.1161756634628546
 20
458.7496637482335018
 30
0.0
 40
96.344642569680957
 50
177.4606469627520937
 51
182.821629877984293
  0
ARC
  5
1733F
  8
0
 10
4356.6980739089285635
 20
543.0206675108750005
 30
0.0
 40
90.0039781000305652
 50
267.5168171248699878
 51
272.4831338808075998
  0
ARC
  5
17340
  8
0
 10
4265.2809772187556518
 20
458.7496610481612151
 30
0.0
 40
96.3435616646425217
 50
357.1783400476808197
 51
2.5393831522260442
  0
ARC
  5
17341
  8
0
 10
4356.6980353936496613
 20
401.1049328119132724
 30
0.0
 40
62.9562156858503599
 50
86.4287510094524123
 51
93.5712489832379219
  0
ARC
  5
17342
  8
0
 10
4352.8336090450238771
 20
462.97200544733181
 30
0.0
 40
0.9685734906939593
 50
93.3795546124341342
 51
177.2623405561600975
  0
ARC
  5
17343
  8
0
 10
4360.5624617545281581
 20
462.9720054518961092
 30
0.0
 40
0.9685734858816127
 50
2.7376591160722761
 51
86.6204456280558475
  0
ARC
  5
17344
  8
0
 10
4360.5542599377358783
 20
454.0548988737891136
 30
0.0
 40
0.9546781678710715
 50
272.5973529767812238
 51
357.1194508316577867
  0
ARC
  5
17345
  8
0
 10
4352.8418045701364463
 20
454.0548960695498977
 30
0.0
 40
0.9546717445812092
 50
182.8804000771183951
 51
267.4030151599338865
  0
CIRCLE
  5
17346
  8
0
 10
4356.6980353975550315
 20
460.4828880215276854
 30
0.0
 40
1.7716535433
  0
CIRCLE
  5
17347
  8
0
 10
4356.6980353975550315
 20
460.4828880215276854
 30
0.0
 40
2.2830810493999989
  0
ARC
  5
17348
  8
0
 10
4467.7216574448566462
 20
458.5143840845274781
 30
0.0
 40
118.0754071135026066
 50
177.7817361946983965
 51
182.2182637937007996
  0
ARC
  5
17349
  8
0
 10
4356.6980353975550315
 20
367.7663525884253204
 30
0.0
 40
98.3903677435023951
 50
87.6835818169929269
 51
92.3164181717942256
  0
ARC
  5
1734A
  8
0
 10
4245.6744133503552803
 20
458.5143840845275918
 30
0.0
 40
118.0754071135003045
 50
357.7817361970001002
 51
2.218263796100151
  0
ARC
  5
1734B
  8
0
 10
4356.6980353975550315
 20
549.2624155805323198
 30
0.0
 40
98.3903677435046546
 50
267.6835818154805793
 51
272.3164181733066016
  0
ARC
  5
1734C
  8
0
 10
4352.8471756951275893
 20
454.0646790820658225
 30
0.0
 40
3.1147771923082819
 50
182.2182584510657932
 51
267.6835867645227722
  0
ARC
  5
1734D
  8
0
 10
4352.8471756949429619
 20
462.9640890870701924
 30
0.0
 40
3.1147771921200702
 50
92.3164128310321246
 51
177.7817411105554015
  0
ARC
  5
1734E
  8
0
 10
4360.5488951002753311
 20
462.964089087073603
 30
0.0
 40
3.114777192112451
 50
2.2182585406344382
 51
87.6835868171449562
  0
ARC
  5
1734F
  8
0
 10
4360.5488951000897941
 20
454.0646790820625256
 30
0.0
 40
3.1147771923006471
 50
272.3164128797426997
 51
357.781741196440521
  0
ARC
  5
17350
  8
0
 10
4370.4767531779807541
 20
399.5373025239373987
 30
0.0
 40
61.8197074117615699
 50
87.8165292741160926
 51
92.1819696764040657
  0
ARC
  5
17351
  8
0
 10
4303.6474851164239226
 20
457.3170608763826976
 30
0.0
 40
70.2547490683101188
 50
357.2572946019594156
 51
2.447290222897716
  0
ARC
  5
17352
  8
0
 10
4437.2960238356772606
 20
457.3167360365641798
 30
0.0
 40
70.2431298707681009
 50
177.5520402009501026
 51
182.7428941582161883
  0
ARC
  5
17353
  8
0
 10
4370.4775629523828684
 20
549.437042296899449
 30
0.0
 40
96.4937202395717719
 50
268.6099395552298006
 51
271.3900604496698747
  0
ARC
  5
17354
  8
0
 10
4368.1590312974913104
 20
460.2696363868154208
 30
0.0
 40
1.043109345737411
 50
91.9756171775627678
 51
177.3998391679656947
  0
ARC
  5
17355
  8
0
 10
4372.7960724081704029
 20
460.2695863945490942
 30
0.0
 40
1.0431605061187641
 50
2.6028285641146649
 51
88.0232587946808991
  0
ARC
  5
17356
  8
0
 10
4372.7928740412562547
 20
454.0013120829752893
 30
0.0
 40
1.0299105773177959
 50
271.419098034414219
 51
357.4396183782155276
  0
ARC
  5
17357
  8
0
 10
4368.1622469566245854
 20
454.0013098859993761
 30
0.0
 40
1.0299055671560691
 50
182.5602717410687887
 51
268.5811723927276944
  0
CIRCLE
  5
17358
  8
0
 10
4370.477562956654765
 20
458.1206832971275844
 30
0.0
 40
1.7716535432999989
  0
CIRCLE
  5
17359
  8
0
 10
4370.477562956654765
 20
458.1206832971275844
 30
0.0
 40
2.2618621595999988
  0
ARC
  5
1735A
  8
0
 10
4352.8471756950493727
 20
462.9640890868745942
 30
0.0
 40
3.3111480683327339
 50
92.3164183467669091
 51
177.7817360971866094
  0
ARC
  5
1735B
  8
0
 10
4467.7216574199637762
 20
458.5143840850097945
 30
0.0
 40
118.2717779647097984
 50
177.781736062366889
 51
182.218263938072397
  0
ARC
  5
1735C
  8
0
 10
4352.8471756951794305
 20
454.0646790821818968
 30
0.0
 40
3.311148068426272
 50
182.2182639017536019
 51
267.6835816884882888
  0
ARC
  5
1735D
  8
0
 10
4356.6980353975550315
 20
549.2624155805233386
 30
0.0
 40
98.5867386194957334
 50
267.6835816549020137
 51
272.3164183450979863
  0
ARC
  5
1735E
  8
0
 10
4360.5488951000388624
 20
454.0646790821785999
 30
0.0
 40
3.3111480684186421
 50
272.3164183096862985
 51
357.7817360982983814
  0
ARC
  5
1735F
  8
0
 10
4245.6744133503561898
 20
458.5143840845275918
 30
0.0
 40
118.271777989599002
 50
357.7817360625980996
 51
2.2182639374019928
  0
ARC
  5
17360
  8
0
 10
4360.548895100192567
 20
462.9640890868884071
 30
0.0
 40
3.3111480683007359
 50
2.2182639025953068
 51
87.6835816929214502
  0
ARC
  5
17361
  8
0
 10
4356.6980353973949605
 20
367.766352580508908
 30
0.0
 40
98.5867386274187965
 50
87.6835816550062646
 51
92.316418346088966
  0
ARC
  5
17362
  8
0
 10
4368.166666595487186
 20
460.2628088859988225
 30
0.0
 40
3.3331722611840608
 50
91.1518162594607304
 51
178.1195561390217108
  0
ARC
  5
17363
  8
0
 10
4463.3909488325398343
 20
457.1364313278222085
 30
0.0
 40
98.6087628612855127
 50
178.1195561208668039
 51
181.8804438781972124
  0
ARC
  5
17364
  8
0
 10
4368.1666665965603897
 20
454.010053772293702
 30
0.0
 40
3.333172262342627
 50
181.8804438781972124
 51
268.848183722505496
  0
LINE
  5
17365
  8
0
 10
4368.0996643928947378
 20
450.6775550049795811
 30
0.0
 11
4372.8554615203147478
 21
450.6775550049795811
 31
0.0
  0
ARC
  5
17366
  8
0
 10
4372.7884593179187505
 20
454.0100537712127107
 30
0.0
 40
3.3331722610857728
 50
271.1518162575844144
 51
358.1195561397183269
  0
ARC
  5
17367
  8
0
 10
4277.5641771298687672
 20
457.1364313286277934
 30
0.0
 40
98.6087628121859012
 50
358.1195561203981015
 51
1.8804438796019121
  0
ARC
  5
17368
  8
0
 10
4372.7884593176413546
 20
460.2628088858153887
 30
0.0
 40
3.333172261371057
 50
1.880443864028527
 51
45.7249639328817921
  0
ARC
  5
17369
  8
0
 10
4372.7884593176413546
 20
460.2628088858153887
 30
0.0
 40
3.333172261371057
 50
50.8052361523823492
 51
88.8481837375162655
  0
ARC
  5
1736A
  8
0
 10
4370.4775629604009737
 20
345.3254080792265768
 30
0.0
 40
118.2938018097009945
 50
88.8481837033772166
 51
91.151816300271264
  0
ARC
  5
1736B
  8
0
 10
4368.1658436338548199
 20
460.263560909127591
 30
0.0
 40
2.7716997666999958
 50
91.1351144365750372
 51
178.1345405277992029
  0
ARC
  5
1736C
  8
0
 10
4370.477728414428384
 20
341.0009971800560038
 30
0.0
 40
122.0566688909830049
 50
88.8890670462861863
 51
91.1110882524648957
  0
ARC
  5
1736D
  8
0
 10
4372.7892911355693286
 20
460.2635706707674785
 30
0.0
 40
2.771689306529451
 50
1.86526305762831
 51
32.9417772860433331
  0
ARC
  5
1736E
  8
0
 10
4372.7892665281342488
 20
460.2635384397585199
 30
0.0
 40
2.7717289600601611
 50
40.564252217289237
 51
88.8645688288206514
  0
ARC
  5
1736F
  8
0
 10
4275.6566829032772148
 20
457.1237382736151744
 30
0.0
 40
99.9550320884930557
 50
358.1627072670340795
 51
1.851836595123062
  0
ARC
  5
17370
  8
0
 10
4372.7888604230556666
 20
454.0093218234276264
 30
0.0
 40
2.772937894499961
 50
271.1438284056105203
 51
358.1344053346991245
  0
ARC
  5
17371
  8
0
 10
4370.477720640026746
 20
569.8801877663084952
 30
0.0
 40
118.666850337385597
 50
268.857160488095019
 51
271.1426872660392746
  0
ARC
  5
17372
  8
0
 10
4368.1662769948379719
 20
454.0093279049636976
 30
0.0
 40
2.7729379149837059
 50
181.8657120932888915
 51
268.855936095295192
  0
ARC
  5
17373
  8
0
 10
4465.1138205616971391
 20
457.1239627584590721
 30
0.0
 40
99.7705002642730818
 50
178.1448660604858105
 51
181.840820842591711
  0
LINE
  5
17374
  8
0
 10
4363.6517045253549441
 20
459.8116281790275934
 30
0.0
 11
4363.6911731267546202
 21
459.8116281790275934
 31
0.0
  0
LINE
  5
17375
  8
0
 10
4363.6542060021547513
 20
459.5596596750276035
 30
0.0
 11
4363.6936737670548609
 21
459.5596596750276035
 31
0.0
  0
ARC
  5
17376
  8
0
 10
4364.5958475182496841
 20
459.6946098835060752
 30
0.0
 40
0.912211069936109
 50
172.6297975165313119
 51
188.5074194715060969
  0
ARC
  5
17377
  8
0
 10
4362.8464097019259498
 20
459.6772477345215862
 30
0.0
 40
0.8553849120679975
 50
352.0986428760663784
 51
9.0385741119791767
  0
ARC
  5
17378
  8
0
 10
4364.5563953806449717
 20
459.6946130420428744
 30
0.0
 40
0.9122269925461667
 50
172.6301269112975092
 51
188.507470467128087
  0
LINE
  5
17379
  8
0
 10
4363.6553916396551358
 20
459.4159588876275961
 30
0.0
 11
4363.6948602410548119
 21
459.4159588876275961
 31
0.0
  0
LINE
  5
1737A
  8
0
 10
4363.6578931164549431
 20
459.1639903836276062
 30
0.0
 11
4363.6973608813550527
 21
459.1639903836276062
 31
0.0
  0
ARC
  5
1737B
  8
0
 10
4364.5995346325498758
 20
459.2989405921060211
 30
0.0
 40
0.912211069936109
 50
172.6297975165313119
 51
188.5074194715060969
  0
ARC
  5
1737C
  8
0
 10
4362.8500968162261415
 20
459.2815784431214752
 30
0.0
 40
0.8553849120679975
 50
352.0986428760663784
 51
9.0385741119791767
  0
ARC
  5
1737D
  8
0
 10
4364.5600824949451635
 20
459.2989437506428203
 30
0.0
 40
0.9122269925461667
 50
172.6301269112975092
 51
188.507470467128087
  0
LINE
  5
1737E
  8
0
 10
4363.6587559034551305
 20
458.6521793601276045
 30
0.0
 11
4363.6982245048548066
 21
458.6521793601276045
 31
0.0
  0
LINE
  5
1737F
  8
0
 10
4363.6612573802549377
 20
458.4002108561277282
 30
0.0
 11
4363.7007251451550474
 21
458.4002108561277282
 31
0.0
  0
ARC
  5
17380
  8
0
 10
4364.6028988963498705
 20
458.5351610646060863
 30
0.0
 40
0.912211069936109
 50
172.6297975165313119
 51
188.5074194715060969
  0
ARC
  5
17381
  8
0
 10
4362.8534610800270457
 20
458.5177989156215972
 30
0.0
 40
0.8553849120679975
 50
352.0986428760663784
 51
9.0385741119791767
  0
ARC
  5
17382
  8
0
 10
4364.5634467587460676
 20
458.5351642231428855
 30
0.0
 40
0.9122269925461667
 50
172.6301269112975092
 51
188.507470467128087
  0
LINE
  5
17383
  8
0
 10
4363.6585545567550071
 20
458.2565100687276072
 30
0.0
 11
4363.6980231581546832
 21
458.2565100687276072
 31
0.0
  0
LINE
  5
17384
  8
0
 10
4363.6610560335548143
 20
458.0045415647276172
 30
0.0
 11
4363.700523798454924
 21
458.0045415647276172
 31
0.0
  0
ARC
  5
17385
  8
0
 10
4364.6026975496497471
 20
458.139491773206089
 30
0.0
 40
0.912211069936109
 50
172.6297975165313119
 51
188.5074194715060969
  0
ARC
  5
17386
  8
0
 10
4362.8532597333260128
 20
458.1221296242214862
 30
0.0
 40
0.8553849120679975
 50
352.0986428760663784
 51
9.0385741119791767
  0
ARC
  5
17387
  8
0
 10
4364.5632454120450348
 20
458.1394949317427745
 30
0.0
 40
0.9122269925461667
 50
172.6301269112975092
 51
188.507470467128087
  0
ARC
  5
17388
  8
0
 10
4364.5246000123170234
 20
458.9109091768739859
 30
0.0
 40
0.8547247607126589
 50
172.2482747221677073
 51
188.1340437972772008
  0
ARC
  5
17389
  8
0
 10
4362.843708129940751
 20
458.9053010981833722
 30
0.0
 40
0.8426946223132533
 50
352.1341357517150072
 51
8.248182767738605
  0
POINT
  5
1738A
  8
DEFPOINTS
 10
4365.1232322479545473
 20
465.4828880215275717
 30
0.0
  0
ENDSEC
  0
EOF
