  0
SECTION
  2
HEADER
  9
$ACADVER
  1
AC1009
  9
$INSBASE
 10
4927.6421307312830322
 20
-2.564029271520269
 30
0.0
  9
$EXTMIN
 10
4921.510189431875915
 20
-2.564477545872776
 30
-0.0000000349181948
  9
$EXTMAX
 10
4929.0408405467860575
 20
2.283252939193857
 30
0.0000000814935746
  9
$LIMMIN
 10
0.0
 20
0.0
  9
$LIMMAX
 10
11.6929133858000007
 20
8.2677165353999982
  9
$ORTHOMODE
 70
     1
  9
$REGENMODE
 70
     1
  9
$FILLMODE
 70
     1
  9
$QTEXTMODE
 70
     0
  9
$MIRRTEXT
 70
     0
  9
$DRAGMODE
 70
     2
  9
$LTSCALE
 40
0.6431102362
  9
$OSMODE
 70
  2047
  9
$ATTMODE
 70
     1
  9
$TEXTSIZE
 40
0.2
  9
$TRACEWID
 40
0.05
  9
$TEXTSTYLE
  7
STANDARD
  9
$CLAYER
  8
0
  9
$CELTYPE
  6
BYLAYER
  9
$CECOLOR
 62
   256
  9
$DIMSCALE
 40
1.0
  9
$DIMASZ
 40
0.1875
  9
$DIMEXO
 40
0.0625
  9
$DIMDLI
 40
0.4443307087
  9
$DIMRND
 40
0.0
  9
$DIMDLE
 40
0.0
  9
$DIMEXE
 40
0.125
  9
$DIMTP
 40
0.01
  9
$DIMTM
 40
0.01
  9
$DIMTXT
 40
2.0
  9
$DIMCEN
 40
0.1052362205
  9
$DIMTSZ
 40
0.0
  9
$DIMTOL
 70
     1
  9
$DIMLIM
 70
     0
  9
$DIMTIH
 70
     1
  9
$DIMTOH
 70
     1
  9
$DIMSE1
 70
     0
  9
$DIMSE2
 70
     0
  9
$DIMTAD
 70
     0
  9
$DIMZIN
 70
     0
  9
$DIMBLK
  1

  9
$DIMASO
 70
     1
  9
$DIMSHO
 70
     1
  9
$DIMPOST
  1
\X
  9
$DIMAPOST
  1

  9
$DIMALT
 70
     1
  9
$DIMALTD
 70
     2
  9
$DIMALTF
 40
25.3999999999999986
  9
$DIMLFAC
 40
1.0
  9
$DIMTOFL
 70
     0
  9
$DIMTVP
 40
0.0
  9
$DIMTIX
 70
     0
  9
$DIMSOXD
 70
     0
  9
$DIMSAH
 70
     0
  9
$DIMBLK1
  1

  9
$DIMBLK2
  1

  9
$DIMSTYLE
  2
STANDARD
  9
$DIMCLRD
 70
     0
  9
$DIMCLRE
 70
     0
  9
$DIMCLRT
 70
     0
  9
$DIMTFAC
 40
1.0
  9
$DIMGAP
 40
0.09
  9
$LUNITS
 70
     2
  9
$LUPREC
 70
     4
  9
$SKETCHINC
 40
0.1
  9
$FILLETRAD
 40
0.0
  9
$AUNITS
 70
     0
  9
$AUPREC
 70
     0
  9
$MENU
  1
.
  9
$ELEVATION
 40
0.0
  9
$PELEVATION
 40
0.0
  9
$THICKNESS
 40
0.0
  9
$LIMCHECK
 70
     0
  9
$BLIPMODE
 70
     0
  9
$CHAMFERA
 40
0.0
  9
$CHAMFERB
 40
0.0
  9
$SKPOLY
 70
     0
  9
$TDCREATE
 40
2458060.468368056230247
  9
$TDUPDATE
 40
2460672.5167013891041279
  9
$TDINDWG
 40
1.0431899306000001
  9
$TDUSRTIMER
 40
1.0431899306000001
  9
$USRTIMER
 70
     1
  9
$ANGBASE
 50
0.0
  9
$ANGDIR
 70
     0
  9
$PDMODE
 70
     0
  9
$PDSIZE
 40
0.3125
  9
$PLINEWID
 40
0.0
  9
$COORDS
 70
     1
  9
$SPLFRAME
 70
     0
  9
$SPLINETYPE
 70
     6
  9
$SPLINESEGS
 70
     8
  9
$ATTDIA
 70
     1
  9
$ATTREQ
 70
     1
  9
$HANDLING
 70
     1
  9
$HANDSEED
  5
3BD45
  9
$SURFTAB1
 70
     6
  9
$SURFTAB2
 70
     6
  9
$SURFTYPE
 70
     6
  9
$SURFU
 70
     6
  9
$SURFV
 70
     6
  9
$UCSNAME
  2

  9
$UCSORG
 10
0.0
 20
0.0
 30
0.0
  9
$UCSXDIR
 10
1.0
 20
0.0
 30
0.0
  9
$UCSYDIR
 10
0.0
 20
1.0
 30
0.0
  9
$PUCSNAME
  2

  9
$PUCSORG
 10
0.0
 20
0.0
 30
0.0
  9
$PUCSXDIR
 10
1.0
 20
0.0
 30
0.0
  9
$PUCSYDIR
 10
0.0
 20
1.0
 30
0.0
  9
$USERI1
 70
     0
  9
$USERI2
 70
     0
  9
$USERI3
 70
     0
  9
$USERI4
 70
     0
  9
$USERI5
 70
     0
  9
$USERR1
 40
0.0
  9
$USERR2
 40
0.0
  9
$USERR3
 40
0.0
  9
$USERR4
 40
0.0
  9
$USERR5
 40
0.0
  9
$WORLDVIEW
 70
     1
  9
$SHADEDGE
 70
     3
  9
$SHADEDIF
 70
    70
  9
$TILEMODE
 70
     1
  9
$MAXACTVP
 70
    64
  9
$PLIMCHECK
 70
     0
  9
$PEXTMIN
 10
1.0000000000000000E+20
 20
1.0000000000000000E+20
 30
1.0000000000000000E+20
  9
$PEXTMAX
 10
-1.0000000000000000E+20
 20
-1.0000000000000000E+20
 30
-1.0000000000000000E+20
  9
$PLIMMIN
 10
0.0
 20
0.0
  9
$PLIMMAX
 10
12.0
 20
9.0
  9
$UNITMODE
 70
     0
  9
$VISRETAIN
 70
     1
  9
$PLINEGEN
 70
     0
  9
$PSLTSCALE
 70
     1
  0
ENDSEC
  0
SECTION
  2
TABLES
  0
TABLE
  2
VPORT
 70
     1
  0
VPORT
  2
*ACTIVE
 70
     0
 10
0.0
 20
0.0
 11
1.0
 21
1.0
 12
1132.9176048330809863
 22
-120.3212687364449067
 13
0.0
 23
0.0
 14
1.0
 24
1.0
 15
0.0
 25
0.0
 16
0.0
 26
0.0
 36
5.1040778033513332
 17
3792.35791015625
 27
120.1806564331053977
 37
0.0
 40
5.0493174223769151
 41
2.526666666666666
 42
50.0
 43
0.0
 44
0.0
 50
0.0
 51
0.0
 71
     0
 72
   100
 73
     1
 74
     1
 75
     0
 76
     0
 77
     0
 78
     0
  0
ENDTAB
  0
TABLE
  2
LTYPE
 70
     2
  0
LTYPE
  2
CONTINUOUS
 70
     0
  3
Solid line
 72
    65
 73
     0
 40
0.0
  0
LTYPE
  2
PHANTOM2
 70
     0
  3
___ _ _ ___ _ _ ___ _ _ ___ _ _
 72
    65
 73
     6
 40
1.25
 49
0.625
 49
-0.125
 49
0.125
 49
-0.125
 49
0.125
 49
-0.125
  0
ENDTAB
  0
TABLE
  2
LAYER
 70
     2
  0
LAYER
  2
0
 70
     0
 62
   255
  6
CONTINUOUS
  0
LAYER
  2
DEFPOINTS
 70
     0
 62
     7
  6
CONTINUOUS
  0
ENDTAB
  0
TABLE
  2
STYLE
 70
     1
  0
STYLE
  2
STANDARD
 70
     0
 40
0.0
 41
0.8
 50
0.0
 71
     0
 42
0.2
  3
txt
  4

  0
ENDTAB
  0
TABLE
  2
VIEW
 70
     0
  0
ENDTAB
  0
TABLE
  2
UCS
 70
     0
  0
ENDTAB
  0
TABLE
  2
APPID
 70
    11
  0
APPID
  2
ACAD
 70
     0
  0
APPID
  2
ACAD_MLEADERVER
 70
     0
  0
APPID
  2
ACAD_EXEMPT_FROM_CAD_STANDARDS
 70
     0
  0
APPID
  2
ACAD_NAV_VCDISPLAY
 70
     0
  0
APPID
  2
ACAECLAYERSTANDARD
 70
     0
  0
APPID
  2
ACCMTRANSPARENCY
 70
     0
  0
APPID
  2
ACAD_DSTYLE_DIMJAG
 70
     0
  0
APPID
  2
ACAD_DSTYLE_DIMTALN
 70
     0
  0
APPID
  2
ACDBATTR
 70
     0
  0
APPID
  2
GRADIENTCOLOR1ACI
 70
     0
  0
APPID
  2
GRADIENTCOLOR2ACI
 70
     0
  0
ENDTAB
  0
TABLE
  2
DIMSTYLE
 70
     1
  0
DIMSTYLE
  2
STANDARD
 70
     0
  3

  4

  5

  6

  7

 40
1.0
 41
0.1875
 42
0.0625
 43
0.38
 44
0.125
 45
0.0
 46
0.0
 47
0.01
 48
0.01
140
0.15625
141
0.09
142
0.0
143
25.3999999999999986
144
1.0
145
0.0
146
1.0
147
0.09
 71
     1
 72
     0
 73
     1
 74
     1
 75
     0
 76
     0
 77
     0
 78
     4
170
     0
171
     2
172
     0
173
     0
174
     0
175
     0
176
     0
177
     0
178
     0
  0
ENDTAB
  0
ENDSEC
  0
SECTION
  2
BLOCKS
  0
BLOCK
  8
0
  2
$MODEL_SPACE
 70
     0
 10
0.0
 20
0.0
 30
0.0
  3
$MODEL_SPACE
  1

  0
ENDBLK
  5
21
  8
0
  0
BLOCK
 67
     1
  8
0
  2
$PAPER_SPACE
 70
     0
 10
0.0
 20
0.0
 30
0.0
  3
$PAPER_SPACE
  1

  0
ENDBLK
  5
1D
 67
     1
  8
0
  0
ENDSEC
  0
SECTION
  2
ENTITIES
  0
LINE
  5
3BA2F
  8
0
 10
4926.5916478713334072
 20
-2.2890290802316562
 30
0.0
 11
4928.6926673950329132
 21
-2.2890290802316562
 31
0.0
  0
LINE
  5
3BA32
  8
0
 10
4927.0375442281838332
 20
-2.2460290802316552
 30
0.0
 11
4928.4761173938341017
 21
-2.246029080231656
 31
0.0
  0
LINE
  5
3BA35
  8
0
 10
4927.0032366009627367
 20
-0.218758684031656
 30
0.0
 11
4927.0824539888635627
 21
-0.2187586840316555
 31
0.0
  0
LINE
  5
3BA36
  8
0
 10
4928.2157808216870762
 20
-0.2187586840316551
 30
0.0
 11
4928.2949726212937094
 21
-0.2187586840316551
 31
0.0
  0
LINE
  5
3BA38
  8
0
 10
4921.7651173938329521
 20
2.2809709197683441
 30
0.0
 11
4928.4371173938334323
 21
2.2809709197683441
 31
0.0
  0
ARC
  5
3BAE7
  8
0
 10
4921.7651391987628813
 20
2.241924704910053
 30
0.0
 40
0.0390462209466514
 50
90.0319961952626073
 51
183.0160045514141984
  0
ARC
  5
3BAE8
  8
0
 10
6503.912016985075752
 20
1.914622166918341
 30
0.0
 40
1582.18590335386898
 50
179.9882217728398075
 51
180.0039514312171036
  0
ARC
  5
3BAE9
  8
0
 10
4921.7630356124827813
 20
1.803555749005038
 30
0.0
 40
0.0369696922934496
 50
176.9761686526449864
 51
269.276078183262598
  0
ARC
  5
3BAEA
  8
0
 10
10626.8599274048101506
 20
87271.8776022296224255
 30
0.0
 40
87456.3914881837554276
 50
266.2597327186663847
 51
266.2628703609013883
  0
LINE
  5
3BAEB
  8
0
 10
4921.9859699548251228
 20
1.751984902425342
 30
0.0
 11
4921.9952034397383613
 21
1.700097134747838
 31
0.0
  0
LINE
  5
3BAEC
  8
0
 10
4921.9952034397383613
 20
1.700097134747838
 30
0.0
 11
4922.7023566871939693
 21
1.653887944941367
 31
0.0
  0
LINE
  5
3BAED
  8
0
 10
4922.7023566871939693
 20
1.653887944941367
 30
0.0
 11
4922.7182600295191151
 21
1.7041179688309189
 31
0.0
  0
ARC
  5
3BAEE
  8
0
 10
4922.5166151173316393
 20
1.6873692327683389
 30
0.0
 40
0.1574803150000032
 50
313.0063799615938933
 51
348.4884822526503854
  0
LINE
  5
3BAEF
  8
0
 10
4922.6240292579968809
 20
1.5722073814550379
 30
0.0
 11
4922.0622352892460185
 21
1.608918015567494
 31
0.0
  0
ARC
  5
3BAF0
  8
0
 10
4922.1837226040333917
 20
1.709122216868342
 30
0.0
 40
0.1574803149999978
 50
184.034120816698703
 51
219.5162231186118902
  0
ARC
  5
3BAF1
  8
0
 10
4926.5221173939244181
 20
1.1549347102016601
 30
0.0
 40
0.2999999999089671
 50
359.9999999936371751
 51
86.2617292615769458
  0
LINE
  5
3BAF2
  8
0
 10
4926.8221173938318316
 20
1.154934710168344
 30
0.0
 11
4926.8221173938318316
 21
-2.2690290802316211
 31
0.0
  0
ARC
  5
3BAF3
  8
0
 10
4926.8421173938331776
 20
-2.2690290802316211
 30
0.0
 40
0.0200000000000316
 50
180.0000000000086118
 51
269.999999999895806
  0
ARC
  5
3BAF4
  8
0
 10
4926.5916478713334072
 20
-2.3090290802316509
 30
0.0
 40
0.0199999999999956
 50
90.0
 51
179.1644999995141063
  0
ARC
  5
3BAF5
  8
0
 10
11435.7987376085293363
 20
-97.2933251165110136
 30
0.0
 40
6509.9200724725778855
 50
179.1639821919497138
 51
179.166053284854911
  0
ARC
  5
3BAF6
  8
0
 10
4926.5882208054472358
 20
-2.544029080184846
 30
0.0
 40
0.0200000001141838
 50
180.0000001341016969
 51
270.0047030834224984
  0
LINE
  5
3BAF7
  8
0
 10
4926.5882224471333757
 20
-2.564029271520269
 30
0.0
 11
4928.6960390154326888
 21
-2.564029271520269
 31
0.0
  0
ARC
  5
3BAF8
  8
0
 10
4928.6960371433324326
 20
-2.544029080231649
 30
0.0
 40
0.0200000000000062
 50
270.0
 51
0.8355000010138596
  0
ARC
  5
3BAF9
  8
0
 10
4928.6926673950329132
 20
-2.30902908023165
 30
0.0
 40
0.0199999999999943
 50
0.8355000004834757
 51
90.0
  0
ARC
  5
3BAFA
  8
0
 10
4446.8689120538938369
 20
-9.3355899816402825
 30
0.0
 40
481.8949876981978946
 50
0.8075563761299601
 51
0.8355000004834757
  0
ARC
  5
3BAFB
  8
0
 10
4928.4368935047559717
 20
2.2414835268359958
 30
0.0
 40
0.0394880276401943
 50
352.2474890338318119
 51
89.6751428536463351
  0
ARC
  5
3BAFC
  8
0
 10
-47432.4838476734876167
 20
-1.141279080231653
 30
0.0
 40
52360.9599772120491252
 50
359.998765963890321
 51
0.0036957462693935
  0
ARC
  5
3BAFD
  8
0
 10
4928.4561173938327556
 20
-2.2690290802316602
 30
0.0
 40
0.0199999999999985
 50
270.0
 51
0.0000000000165389
  0
ARC
  5
3BAFE
  8
0
 10
4927.0378030229330761
 20
-2.2070363088316589
 30
0.0
 40
0.0389936301999961
 50
179.8643580213837936
 51
269.6197338997188808
  0
LINE
  5
3BAFF
  8
0
 10
4926.9988095020053152
 20
-2.2069439954316481
 30
0.0
 11
4927.0032311169316017
 21
-0.2192891826316563
 31
0.0
  0
ARC
  5
3BB00
  8
0
 10
4927.0423405455667307
 20
-0.2194285289536864
 30
0.0
 40
0.0391096813559034
 50
88.0399541194020117
 51
179.7909493659375926
  0
ARC
  5
3BB01
  8
0
 10
4927.6491173863832955
 20
-42.6760280971737629
 30
0.0
 40
42.4999990169357389
 50
89.1837580126106246
 51
90.8162419873893612
  0
ARC
  5
3BB02
  8
0
 10
4927.1220433587359366
 20
-0.2188855924558926
 30
0.0
 40
0.0395892812176027
 50
91.0248957695426384
 51
179.0556688613818039
  0
ARC
  5
3BB03
  8
0
 10
4927.9147496682689962
 20
-0.2319519133660326
 30
0.0
 40
0.8324032706969703
 50
179.0556688613818039
 51
180.677396290311691
  0
ARC
  5
3BB04
  8
0
 10
4927.1211260173013216
 20
-0.2413352007780967
 30
0.0
 40
0.038724150738886
 50
180.6773962903133963
 51
271.0872399201520011
  0
ARC
  5
3BB05
  8
0
 10
-263.803118009420416
 20
3062.6059052242740108
 30
0.0
 40
6027.1326984770139461
 50
329.4566962983917051
 51
329.4575509564393769
  0
ARC
  5
3BB06
  8
0
 10
5209.3491391686338829
 20
-2.3624519440013532
 30
0.0
 40
282.3198161490996085
 50
179.5853316057529128
 51
179.9684402258696991
  0
ARC
  5
3BB07
  8
0
 10
4928.1761914140288354
 20
-0.2188855924558926
 30
0.0
 40
0.0395892812176027
 50
0.9443311386182077
 51
88.9751042304573758
  0
ARC
  5
3BB08
  8
0
 10
4927.3834851044957759
 20
-0.2319519133660326
 30
0.0
 40
0.8324032706969703
 50
359.3226037096882237
 51
0.9443311386182077
  0
ARC
  5
3BB09
  8
0
 10
4928.17710875546436
 20
-0.2413352007780967
 30
0.0
 40
0.038724150738886
 50
268.9127600798479989
 51
359.3226037096865753
  0
ARC
  5
3BB0A
  8
0
 10
10119.1013527821796743
 20
3062.6059052242740108
 30
0.0
 40
6027.1326984770139461
 50
210.5424490435605094
 51
210.5433037016082096
  0
ARC
  5
3BB0B
  8
0
 10
4645.9490956041317986
 20
-2.3624519440013532
 30
0.0
 40
282.3198161490996085
 50
0.0315597741303326
 51
0.4146683942470366
  0
LINE
  5
3BB0C
  8
0
 10
4927.1218608043927816
 20
-0.2800523796316563
 30
0.0
 11
4928.1763739733178227
 21
-0.2800523797254986
 31
0.0
  0
LINE
  5
3BB0D
  8
0
 10
4928.2994252707612759
 20
-2.2069439954316481
 30
0.0
 11
4928.2950036558331703
 21
-0.2192891826316563
 31
0.0
  0
ARC
  5
3BB0E
  8
0
 10
4928.2558942271989508
 20
-0.2194285289536864
 30
0.0
 40
0.0391096813559034
 50
0.2090506340623598
 51
91.9600458805979741
  0
ARC
  5
3BB0F
  8
0
 10
4928.2298746621036116
 20
-2.2070347070945102
 30
0.0
 40
0.0389943737957301
 50
270.0105303230558889
 51
0.1379424880656894
  0
ARC
  5
3BB10
  8
0
 10
4928.2604331062711935
 20
-2.2070367946386531
 30
0.0
 40
0.0389922860647321
 50
270.0089123755427067
 51
0.0007179655680098
  0
ARC
  5
3BB11
  8
0
 10
4927.0683615013685994
 20
-2.2070341881981959
 30
0.0
 40
0.0389957575402299
 50
179.8674800635070881
 51
269.618262356465209
  0
ARC
  5
3BB12
  8
0
 10
4927.0868052932328283
 20
-2.210029080231648
 30
0.0
 40
0.0790000000000107
 50
270.0
 51
332.8747830739022788
  0
ARC
  5
3BB13
  8
0
 10
4928.2115827648758568
 20
-2.2097783510270008
 30
0.0
 40
0.0792508774165815
 50
207.236026487717794
 51
269.8891904383712017
  0
ARC
  5
3BB14
  8
0
 10
4927.0761951584800045
 20
-0.3190571008901144
 30
0.0
 40
0.0394787384205259
 50
180.2486802566110953
 51
269.0882069411837847
  0
ARC
  5
3BB15
  8
0
 10
4927.9357876437998129
 20
-1327.3865133826880083
 30
0.0
 40
1327.0282613530930576
 50
89.9876197305506906
 51
90.0371408969545541
  0
ARC
  5
3BB16
  8
0
 10
4928.221879238182737
 20
-0.3186450419299409
 30
0.0
 40
0.0396432625241139
 50
270.9365536863194279
 51
359.1419373200400855
  0
ARC
  5
3BC6B
  8
0
 10
4926.6116332455703741
 20
-2.308876900389714
 30
0.0
 40
0.0199960321999996
 50
96.9803319977175562
 51
179.1761948209990862
  0
ARC
  5
3BC6C
  8
0
 10
4305.3526506913949561
 20
6.6242704012906808
 30
0.0
 40
621.3032085280055981
 50
359.1544938474422111
 51
359.1761948209991147
  0
ARC
  5
3BC6D
  8
0
 10
4926.6081638441683026
 20
-2.5440754902076121
 30
0.0
 40
0.0199533826500724
 50
179.4534688051093099
 51
269.8725875230317115
  0
ARC
  5
3BC6E
  8
0
 10
4928.6726282169956903
 20
-2.308876900389714
 30
0.0
 40
0.0199960321999996
 50
0.823805179000921
 51
83.0196680022824864
  0
ARC
  5
3BC6F
  8
0
 10
5549.9316107711711084
 20
6.6242704012906808
 30
0.0
 40
621.3032085280055981
 50
180.8238051790008001
 51
180.8455061525577037
  0
ARC
  5
3BC70
  8
0
 10
4928.6760976183977618
 20
-2.5440754902076121
 30
0.0
 40
0.0199533826500724
 50
270.1274124769682885
 51
0.5465311948907157
  0
ATTDEF
  5
3BC7A
  8
DEFPOINTS
 10
4927.6421861921044183
 20
-2.5606498641603248
 30
0.0
 40
0.001
  1
K-36786-4
  3

  2
MODELNUMBER
 70
     0
1001
ACDBATTR
1070
     0
1070
     1
  0
ATTDEF
  5
3BC7B
  8
DEFPOINTS
 10
4927.6421861921044183
 20
-2.56231653082699
 30
0.0
 40
0.001
  1
HONESTY
  3

  2
TRADENAME
 70
     0
1001
ACDBATTR
1070
     0
1070
     1
  0
ATTDEF
  5
3BC7C
  8
DEFPOINTS
 10
4927.6421861921044183
 20
-2.5639831974936551
 30
0.0
 40
0.001
  1
BATHROOM SINK FAUCET
  3

  2
PRODUCT
 70
     0
1001
ACDBATTR
1070
     0
1070
     1
  0
ENDSEC
  0
EOF
