  0
SECTION
  2
HEADER
  9
$ACADVER
  1
AC1009
  9
$INSBASE
 10
3916.3936619724959201
 20
182.7564221285429937
 30
0.0
  9
$EXTMIN
 10
3909.9262341918711172
 20
181.2253134686480109
 30
-0.0015258207003583
  9
$EXTMAX
 10
3922.7460508861108792
 20
184.136203561574888
 30
0.0000000349246037
  9
$LIMMIN
 10
0.0
 20
0.0
  9
$LIMMAX
 10
11.6929133858000007
 20
8.2677165353999982
  9
$ORTHOMODE
 70
     0
  9
$REGENMODE
 70
     1
  9
$FILLMODE
 70
     1
  9
$QTEXTMODE
 70
     0
  9
$MIRRTEXT
 70
     0
  9
$DRAGMODE
 70
     2
  9
$LTSCALE
 40
0.6431102362
  9
$OSMODE
 70
  4095
  9
$ATTMODE
 70
     1
  9
$TEXTSIZE
 40
0.2
  9
$TRACEWID
 40
0.05
  9
$TEXTSTYLE
  7
STANDARD
  9
$CLAYER
  8
0
  9
$CELTYPE
  6
BYLAYER
  9
$CECOLOR
 62
   256
  9
$DIMSCALE
 40
1.0
  9
$DIMASZ
 40
0.1875
  9
$DIMEXO
 40
0.0625
  9
$DIMDLI
 40
0.4443307087
  9
$DIMRND
 40
0.0
  9
$DIMDLE
 40
0.0
  9
$DIMEXE
 40
0.125
  9
$DIMTP
 40
0.01
  9
$DIMTM
 40
0.01
  9
$DIMTXT
 40
2.0
  9
$DIMCEN
 40
0.1052362205
  9
$DIMTSZ
 40
0.0
  9
$DIMTOL
 70
     1
  9
$DIMLIM
 70
     0
  9
$DIMTIH
 70
     1
  9
$DIMTOH
 70
     1
  9
$DIMSE1
 70
     0
  9
$DIMSE2
 70
     0
  9
$DIMTAD
 70
     0
  9
$DIMZIN
 70
     0
  9
$DIMBLK
  1

  9
$DIMASO
 70
     1
  9
$DIMSHO
 70
     1
  9
$DIMPOST
  1
\X
  9
$DIMAPOST
  1

  9
$DIMALT
 70
     1
  9
$DIMALTD
 70
     2
  9
$DIMALTF
 40
25.3999999999999986
  9
$DIMLFAC
 40
1.0
  9
$DIMTOFL
 70
     0
  9
$DIMTVP
 40
0.0
  9
$DIMTIX
 70
     0
  9
$DIMSOXD
 70
     0
  9
$DIMSAH
 70
     0
  9
$DIMBLK1
  1

  9
$DIMBLK2
  1

  9
$DIMSTYLE
  2
STANDARD
  9
$DIMCLRD
 70
     0
  9
$DIMCLRE
 70
     0
  9
$DIMCLRT
 70
     0
  9
$DIMTFAC
 40
1.0
  9
$DIMGAP
 40
0.09
  9
$LUNITS
 70
     2
  9
$LUPREC
 70
     4
  9
$SKETCHINC
 40
0.1
  9
$FILLETRAD
 40
0.035
  9
$AUNITS
 70
     0
  9
$AUPREC
 70
     0
  9
$MENU
  1
.
  9
$ELEVATION
 40
0.0
  9
$PELEVATION
 40
0.0
  9
$THICKNESS
 40
0.0
  9
$LIMCHECK
 70
     0
  9
$BLIPMODE
 70
     0
  9
$CHAMFERA
 40
0.0
  9
$CHAMFERB
 40
0.0
  9
$SKPOLY
 70
     0
  9
$TDCREATE
 40
2458060.468368056230247
  9
$TDUPDATE
 40
2460018.561539351940155
  9
$TDINDWG
 40
1.2744167823999999
  9
$TDUSRTIMER
 40
1.2744167823999999
  9
$USRTIMER
 70
     1
  9
$ANGBASE
 50
0.0
  9
$ANGDIR
 70
     0
  9
$PDMODE
 70
     0
  9
$PDSIZE
 40
0.3125
  9
$PLINEWID
 40
0.0
  9
$COORDS
 70
     1
  9
$SPLFRAME
 70
     0
  9
$SPLINETYPE
 70
     6
  9
$SPLINESEGS
 70
     8
  9
$ATTDIA
 70
     1
  9
$ATTREQ
 70
     1
  9
$HANDLING
 70
     1
  9
$HANDSEED
  5
166E4
  9
$SURFTAB1
 70
     6
  9
$SURFTAB2
 70
     6
  9
$SURFTYPE
 70
     6
  9
$SURFU
 70
     6
  9
$SURFV
 70
     6
  9
$UCSNAME
  2

  9
$UCSORG
 10
0.0
 20
0.0
 30
0.0
  9
$UCSXDIR
 10
1.0
 20
0.0
 30
0.0
  9
$UCSYDIR
 10
0.0
 20
1.0
 30
0.0
  9
$PUCSNAME
  2

  9
$PUCSORG
 10
0.0
 20
0.0
 30
0.0
  9
$PUCSXDIR
 10
1.0
 20
0.0
 30
0.0
  9
$PUCSYDIR
 10
0.0
 20
1.0
 30
0.0
  9
$USERI1
 70
     0
  9
$USERI2
 70
     0
  9
$USERI3
 70
     0
  9
$USERI4
 70
     0
  9
$USERI5
 70
     0
  9
$USERR1
 40
0.0
  9
$USERR2
 40
0.0
  9
$USERR3
 40
0.0
  9
$USERR4
 40
0.0
  9
$USERR5
 40
0.0
  9
$WORLDVIEW
 70
     1
  9
$SHADEDGE
 70
     3
  9
$SHADEDIF
 70
    70
  9
$TILEMODE
 70
     1
  9
$MAXACTVP
 70
    64
  9
$PLIMCHECK
 70
     0
  9
$PEXTMIN
 10
1.0000000000000000E+20
 20
1.0000000000000000E+20
 30
1.0000000000000000E+20
  9
$PEXTMAX
 10
-1.0000000000000000E+20
 20
-1.0000000000000000E+20
 30
-1.0000000000000000E+20
  9
$PLIMMIN
 10
0.0
 20
0.0
  9
$PLIMMAX
 10
12.0
 20
9.0
  9
$UNITMODE
 70
     0
  9
$VISRETAIN
 70
     1
  9
$PLINEGEN
 70
     0
  9
$PSLTSCALE
 70
     1
  0
ENDSEC
  0
SECTION
  2
TABLES
  0
TABLE
  2
VPORT
 70
     1
  0
VPORT
  2
*ACTIVE
 70
     0
 10
0.0
 20
0.0
 11
1.0
 21
1.0
 12
245.0623388280536972
 22
27.9572848366037192
 13
0.0
 23
0.0
 14
1.0
 24
1.0
 15
0.0
 25
0.0
 16
0.0
 26
0.0
 36
137.7247118064013875
 17
3671.2738037109379547
 27
154.7234736785077018
 37
0.0
 40
8.0833973546795193
 41
1.593589743589743
 42
50.0
 43
0.0
 44
0.0
 50
0.0
 51
0.0
 71
     0
 72
   100
 73
     1
 74
     1
 75
     0
 76
     0
 77
     0
 78
     0
  0
ENDTAB
  0
TABLE
  2
LTYPE
 70
     2
  0
LTYPE
  2
CONTINUOUS
 70
     0
  3
Solid line
 72
    65
 73
     0
 40
0.0
  0
LTYPE
  2
PHANTOM2
 70
     0
  3
___ _ _ ___ _ _ ___ _ _ ___ _ _
 72
    65
 73
     6
 40
1.25
 49
0.625
 49
-0.125
 49
0.125
 49
-0.125
 49
0.125
 49
-0.125
  0
ENDTAB
  0
TABLE
  2
LAYER
 70
     2
  0
LAYER
  2
0
 70
     0
 62
   255
  6
CONTINUOUS
  0
LAYER
  2
DEFPOINTS
 70
     0
 62
     7
  6
CONTINUOUS
  0
ENDTAB
  0
TABLE
  2
STYLE
 70
     1
  0
STYLE
  2
STANDARD
 70
     0
 40
0.0
 41
0.8
 50
0.0
 71
     0
 42
0.2
  3
txt
  4

  0
ENDTAB
  0
TABLE
  2
VIEW
 70
     0
  0
ENDTAB
  0
TABLE
  2
UCS
 70
     0
  0
ENDTAB
  0
TABLE
  2
APPID
 70
    10
  0
APPID
  2
ACAD
 70
     0
  0
APPID
  2
ACAD_MLEADERVER
 70
     0
  0
APPID
  2
ACAD_EXEMPT_FROM_CAD_STANDARDS
 70
     0
  0
APPID
  2
ACAD_NAV_VCDISPLAY
 70
     0
  0
APPID
  2
ACAECLAYERSTANDARD
 70
     0
  0
APPID
  2
ACCMTRANSPARENCY
 70
     0
  0
APPID
  2
ACAD_DSTYLE_DIMJAG
 70
     0
  0
APPID
  2
ACAD_DSTYLE_DIMTALN
 70
     0
  0
APPID
  2
ACDBATTR
 70
     0
  0
APPID
  2
ACAD_PSEXT
 70
     0
  0
ENDTAB
  0
TABLE
  2
DIMSTYLE
 70
     1
  0
DIMSTYLE
  2
STANDARD
 70
     0
  3

  4

  5

  6

  7

 40
1.0
 41
0.1875
 42
0.0625
 43
0.38
 44
0.125
 45
0.0
 46
0.0
 47
0.01
 48
0.01
140
0.15625
141
0.09
142
0.0
143
25.3999999999999986
144
1.0
145
0.0
146
1.0
147
0.09
 71
     1
 72
     0
 73
     1
 74
     1
 75
     0
 76
     0
 77
     0
 78
     4
170
     0
171
     2
172
     0
173
     0
174
     0
175
     0
176
     0
177
     0
178
     0
  0
ENDTAB
  0
ENDSEC
  0
SECTION
  2
BLOCKS
  0
BLOCK
  8
0
  2
$MODEL_SPACE
 70
     0
 10
0.0
 20
0.0
 30
0.0
  3
$MODEL_SPACE
  1

  0
ENDBLK
  5
21
  8
0
  0
BLOCK
 67
     1
  8
0
  2
$PAPER_SPACE
 70
     0
 10
0.0
 20
0.0
 30
0.0
  3
$PAPER_SPACE
  1

  0
ENDBLK
  5
1D
 67
     1
  8
0
  0
ENDSEC
  0
SECTION
  2
ENTITIES
  0
ATTDEF
  5
AA11
  8
DEFPOINTS
 10
3916.3899750326809226
 20
182.7606992542987996
 30
0.0
 40
0.001
  1
K-37037D
  3

  2
MODELNUMBER
 70
     0
1001
ACDBATTR
1070
     0
1070
     1
  0
ATTDEF
  5
AA12
  8
DEFPOINTS
 10
3916.3899750326809226
 20
182.7590325876321913
 30
0.0
 40
0.001
  1
CUFF
  3

  2
TRADENAME
 70
     0
1001
ACDBATTR
1070
     0
1070
     1
  0
ATTDEF
  5
AA13
  8
DEFPOINTS
 10
3916.3899750326809226
 20
182.7573659209654977
 30
0.0
 40
0.001
  1
BATH/SHOWER MIXER
  3

  2
PRODUCT
 70
     0
1001
ACDBATTR
1070
     0
1070
     1
  0
LINE
  5
165AE
  8
0
 10
3915.9212210275959478
 20
181.6285044638430008
 30
0.0
 11
3916.8661029173958923
 21
181.6285044638430008
 31
0.0
  0
LINE
  5
165AF
  8
0
 10
3915.9212210275959478
 20
181.6285044638430008
 30
0.0
 11
3915.9212210275959478
 21
181.7799909653697057
 31
0.0
  0
LINE
  5
165B0
  8
0
 10
3916.0196462243961832
 20
181.2348036764429935
 30
0.0
 11
3916.7676777205961116
 21
181.2348036764429935
 31
0.0
  0
LINE
  5
165B1
  8
0
 10
3915.9811422873958691
 20
181.5497643063430075
 30
0.0
 11
3915.9812168754460799
 21
181.5230906386929917
 31
0.0
  0
LINE
  5
165B2
  8
0
 10
3915.9811422874458913
 20
181.4901112558929981
 30
0.0
 11
3915.9811422874458913
 21
181.4877588560929951
 31
0.0
  0
LINE
  5
165B3
  8
0
 10
3915.9811422874458913
 20
181.4546781849930142
 30
0.0
 11
3915.9811422874458913
 21
181.4523257852929987
 31
0.0
  0
LINE
  5
165B4
  8
0
 10
3915.9811422874458913
 20
181.4192451141929894
 30
0.0
 11
3915.9811422874458913
 21
181.4168927143929864
 31
0.0
  0
LINE
  5
165B5
  8
0
 10
3915.9811422874458913
 20
181.3838120432930054
 30
0.0
 11
3915.9811422874458913
 21
181.3814596434930024
 31
0.0
  0
LINE
  5
165B6
  8
0
 10
3915.9811422874458913
 20
181.3483789723929931
 30
0.0
 11
3915.9811422874458913
 21
181.3460265726930061
 31
0.0
  0
LINE
  5
165B7
  8
0
 10
3915.9811422874458913
 20
181.3129459015929967
 30
0.0
 11
3915.9811422874458913
 21
181.3105935017929937
 31
0.0
  0
LINE
  5
165B8
  8
0
 10
3915.9811422874458913
 20
181.2775128303929932
 30
0.0
 11
3915.9811422874458913
 21
181.2751604305929902
 31
0.0
  0
LINE
  5
165B9
  8
0
 10
3916.0334257519962193
 20
181.6088194244429985
 30
0.0
 11
3916.0334257519962193
 21
181.5694493457430099
 31
0.0
  0
LINE
  5
165BA
  8
0
 10
3915.9811422873958691
 20
181.5497643063430075
 30
0.0
 11
3916.8061816575968805
 21
181.5497643063430075
 31
0.0
  0
ARC
  5
165BB
  8
0
 10
3916.0137407125957907
 20
181.5694493457430099
 30
0.0
 40
0.0196850394000094
 50
270.0000499348150811
 51
359.9999999999820943
  0
ARC
  5
165BC
  8
0
 10
3916.0137407125957907
 20
181.6088194244429985
 30
0.0
 40
0.0196850394000059
 50
0.000000000014656
 51
89.9999669252862731
  0
LINE
  5
165BD
  8
0
 10
3915.9811422874458913
 20
181.4901112558929981
 30
0.0
 11
3916.0048519756460337
 21
181.5065376357929949
 31
0.0
  0
LINE
  5
165BE
  8
0
 10
3916.0048519756460337
 20
181.5065376357929949
 30
0.0
 11
3915.9812168754460799
 21
181.5230906386929917
 31
0.0
  0
LINE
  5
165BF
  8
0
 10
3915.9811422874458913
 20
181.4877588560929951
 30
0.0
 11
3916.0048512278458475
 21
181.4713325365929961
 31
0.0
  0
LINE
  5
165C0
  8
0
 10
3916.0048512278458475
 20
181.4713325365929961
 30
0.0
 11
3915.9811422874458913
 21
181.4546781849930142
 31
0.0
  0
LINE
  5
165C1
  8
0
 10
3915.9811422874458913
 20
181.4523257852929987
 30
0.0
 11
3916.0048523387458772
 21
181.4358940119930139
 31
0.0
  0
LINE
  5
165C2
  8
0
 10
3916.0048523387458772
 20
181.4358940119930139
 30
0.0
 11
3915.9811422874458913
 21
181.4192451141929894
 31
0.0
  0
LINE
  5
165C3
  8
0
 10
3915.9811422874458913
 20
181.4168927143929864
 30
0.0
 11
3916.0047062371281754
 21
181.4003532503058977
 31
0.0
  0
LINE
  5
165C4
  8
0
 10
3916.0047062371281754
 20
181.4003532503058977
 30
0.0
 11
3915.9811422874458913
 21
181.3838120432930054
 31
0.0
  0
LINE
  5
165C5
  8
0
 10
3915.9811422874458913
 20
181.3814596434930024
 30
0.0
 11
3916.0047007879879857
 21
181.3649169579528859
 31
0.0
  0
LINE
  5
165C6
  8
0
 10
3916.0047007879879857
 20
181.3649169579528859
 30
0.0
 11
3915.9811422874458913
 21
181.3483789723929931
 31
0.0
  0
LINE
  5
165C7
  8
0
 10
3915.9811422874458913
 20
181.3460265726930061
 30
0.0
 11
3916.0048742895460236
 21
181.3293694106930047
 31
0.0
  0
LINE
  5
165C8
  8
0
 10
3916.0048742895460236
 20
181.3293694106930047
 30
0.0
 11
3915.9811422874458913
 21
181.3129459015929967
 31
0.0
  0
LINE
  5
165C9
  8
0
 10
3915.9811422874458913
 20
181.3105935017929937
 30
0.0
 11
3916.0046938988962211
 21
181.2940560386342099
 31
0.0
  0
LINE
  5
165CA
  8
0
 10
3916.0046938988962211
 20
181.2940560386342099
 30
0.0
 11
3915.9811422874458913
 21
181.2775128303929932
 31
0.0
  0
LINE
  5
165CB
  8
0
 10
3915.9811422874458913
 20
181.2751604305929902
 30
0.0
 11
3916.0046819576059534
 21
181.2586201409112903
 31
0.0
  0
LINE
  5
165CC
  8
0
 10
3916.0046819576059534
 20
181.2586201409112903
 30
0.0
 11
3915.9995203401372237
 21
181.2550051910199045
 31
0.0
  0
LINE
  5
165CD
  8
0
 10
3915.9995205197151336
 20
181.2550061797091132
 30
0.0
 11
3916.0196462243961832
 21
181.2348036764429935
 31
0.0
  0
LINE
  5
165CE
  8
0
 10
3916.8661029173958923
 20
181.6285044638430008
 30
0.0
 11
3916.8661029173958923
 21
181.7799909653697057
 31
0.0
  0
LINE
  5
165CF
  8
0
 10
3916.8061816575459488
 20
181.4723982489429943
 30
0.0
 11
3916.8061816575459488
 21
181.4700458491429913
 31
0.0
  0
LINE
  5
165D0
  8
0
 10
3916.8061816575459488
 20
181.4369651780430104
 30
0.0
 11
3916.8061816575459488
 21
181.4346127783429949
 31
0.0
  0
LINE
  5
165D1
  8
0
 10
3916.8061816575459488
 20
181.401532107243014
 30
0.0
 11
3916.8061816575459488
 21
181.399179707443011
 31
0.0
  0
LINE
  5
165D2
  8
0
 10
3916.8061816575459488
 20
181.3660990363430017
 30
0.0
 11
3916.8061816575459488
 21
181.3637466365429987
 31
0.0
  0
LINE
  5
165D3
  8
0
 10
3916.8061816575459488
 20
181.3306659654429893
 30
0.0
 11
3916.8061816575459488
 21
181.3283135657430023
 31
0.0
  0
LINE
  5
165D4
  8
0
 10
3916.8061816575459488
 20
181.295232894642993
 30
0.0
 11
3916.8061816575459488
 21
181.2928804948429899
 31
0.0
  0
LINE
  5
165D5
  8
0
 10
3916.7538981929960755
 20
181.6088194244429985
 30
0.0
 11
3916.7538981929960755
 21
181.5694493457430099
 31
0.0
  0
ARC
  5
165D6
  8
0
 10
3916.7735832323969589
 20
181.5694493457430099
 30
0.0
 40
0.0196850394000094
 50
180.0000000000179057
 51
269.9999500651848052
  0
ARC
  5
165D7
  8
0
 10
3916.7735832323969589
 20
181.6088194244429985
 30
0.0
 40
0.0196850394000059
 50
90.0000330747137269
 51
179.999999999985306
  0
LINE
  5
165D8
  8
0
 10
3916.8061816575459488
 20
181.4723982489429943
 30
0.0
 11
3916.7824719693458064
 21
181.4888246288429912
 31
0.0
  0
LINE
  5
165D9
  8
0
 10
3916.7824719693458064
 20
181.4888246288429912
 30
0.0
 11
3916.8061816575459488
 21
181.5054298699552078
 31
0.0
  0
LINE
  5
165DA
  8
0
 10
3916.8061816575459488
 20
181.4700458491429913
 30
0.0
 11
3916.7824727171469021
 21
181.4536195296429923
 31
0.0
  0
LINE
  5
165DB
  8
0
 10
3916.7824727171469021
 20
181.4536195296429923
 30
0.0
 11
3916.8061816575459488
 21
181.4369651780430104
 31
0.0
  0
LINE
  5
165DC
  8
0
 10
3916.8061816575459488
 20
181.4346127783429949
 30
0.0
 11
3916.7824716062459629
 21
181.4181810050430101
 31
0.0
  0
LINE
  5
165DD
  8
0
 10
3916.7824716062459629
 20
181.4181810050430101
 30
0.0
 11
3916.8061816575459488
 21
181.401532107243014
 31
0.0
  0
LINE
  5
165DE
  8
0
 10
3916.8061816575459488
 20
181.399179707443011
 30
0.0
 11
3916.7826177078650289
 21
181.382640243355894
 31
0.0
  0
LINE
  5
165DF
  8
0
 10
3916.7826177078650289
 20
181.382640243355894
 30
0.0
 11
3916.8061816575459488
 21
181.3660990363430017
 31
0.0
  0
LINE
  5
165E0
  8
0
 10
3916.8061816575459488
 20
181.3637466365429987
 30
0.0
 11
3916.7826231570061282
 21
181.3472039510029106
 31
0.0
  0
LINE
  5
165E1
  8
0
 10
3916.7826231570061282
 20
181.3472039510029106
 30
0.0
 11
3916.8061816575459488
 21
181.3306659654429893
 31
0.0
  0
LINE
  5
165E2
  8
0
 10
3916.8061816575459488
 20
181.3283135657430023
 30
0.0
 11
3916.7824496554458165
 21
181.311656403743001
 31
0.0
  0
LINE
  5
165E3
  8
0
 10
3916.7824496554458165
 20
181.311656403743001
 30
0.0
 11
3916.8061816575459488
 21
181.295232894642993
 31
0.0
  0
LINE
  5
165E4
  8
0
 10
3916.8061816575459488
 20
181.2928804948429899
 30
0.0
 11
3916.7826300460960738
 21
181.2763430316842062
 31
0.0
  0
LINE
  5
165E5
  8
0
 10
3916.7826300460960738
 20
181.2763430316842062
 30
0.0
 11
3916.7982472104790759
 21
181.2653731664975112
 31
0.0
  0
LINE
  5
165E6
  8
0
 10
3916.7982472104790759
 20
181.2653731664975112
 30
0.0
 11
3916.7676777205961116
 21
181.2348036764429935
 31
0.0
  0
LINE
  5
165E7
  8
0
 10
3916.8061816575459488
 20
181.5497643063430075
 30
0.0
 11
3916.8061816575459488
 21
181.5409060477429932
 31
0.0
  0
LINE
  5
165E8
  8
0
 10
3916.8061816575459488
 20
181.5078253744430015
 30
0.0
 11
3916.8061816575459488
 21
181.5054298699552078
 31
0.0
  0
LINE
  5
165E9
  8
0
 10
3916.7825924227959149
 20
181.5243486798177059
 30
0.0
 11
3916.8060994167458375
 21
181.5079379848430108
 31
0.0
  0
LINE
  5
165EA
  8
0
 10
3916.7825924227959149
 20
181.5243486798177059
 30
0.0
 11
3916.8061816575459488
 21
181.5409060477429932
 31
0.0
  0
LINE
  5
165EB
  8
0
 10
3916.0048519756460337
 20
181.5065376357929949
 30
0.0
 11
3916.7825924227959149
 21
181.5243486798177059
 31
0.0
  0
LINE
  5
165EC
  8
0
 10
3916.0048512278458475
 20
181.4713325365929961
 30
0.0
 11
3916.7824719693458064
 21
181.4888246288429912
 31
0.0
  0
LINE
  5
165ED
  8
0
 10
3916.8061816575459488
 20
181.5066276221990904
 30
0.0
 11
3915.9811422874458913
 21
181.4889350559930108
 31
0.0
  0
LINE
  5
165EE
  8
0
 10
3915.9811422874458913
 20
181.4535019851429922
 30
0.0
 11
3916.8061816575459488
 21
181.471222049043007
 31
0.0
  0
LINE
  5
165EF
  8
0
 10
3916.7824727171469021
 20
181.4536195296429923
 30
0.0
 11
3916.0048523387458772
 21
181.4358940119930139
 31
0.0
  0
LINE
  5
165F0
  8
0
 10
3915.9811422874458913
 20
181.4180689142930021
 30
0.0
 11
3916.8061816575459488
 21
181.4357889781929885
 31
0.0
  0
LINE
  5
165F1
  8
0
 10
3916.7824716062459629
 20
181.4181810050430101
 30
0.0
 11
3916.0047062371281754
 21
181.4003532503058977
 31
0.0
  0
LINE
  5
165F2
  8
0
 10
3915.9811422874458913
 20
181.3826358433929897
 30
0.0
 11
3916.8061816575459488
 21
181.4003559073429983
 31
0.0
  0
LINE
  5
165F3
  8
0
 10
3916.7826177078650289
 20
181.382640243355894
 30
0.0
 11
3916.0047007879879857
 21
181.3649169579528859
 31
0.0
  0
LINE
  5
165F4
  8
0
 10
3915.9811422874458913
 20
181.3472027725429996
 30
0.0
 11
3916.8061816575459488
 21
181.364922836442986
 31
0.0
  0
LINE
  5
165F5
  8
0
 10
3916.7826231570061282
 20
181.3472039510029106
 30
0.0
 11
3916.0048742895460236
 21
181.3293694106930047
 31
0.0
  0
LINE
  5
165F6
  8
0
 10
3915.9811422874458913
 20
181.3117697016930094
 30
0.0
 11
3916.8061816575459488
 21
181.3294897655929958
 31
0.0
  0
LINE
  5
165F7
  8
0
 10
3916.7824496554458165
 20
181.311656403743001
 30
0.0
 11
3916.0046938988962211
 21
181.2940560386342099
 31
0.0
  0
LINE
  5
165F8
  8
0
 10
3915.9811422874458913
 20
181.2763314429930119
 30
0.0
 11
3916.8061816575459488
 21
181.2940566947430057
 31
0.0
  0
LINE
  5
165F9
  8
0
 10
3916.7826300460960738
 20
181.2763430316842062
 30
0.0
 11
3916.0046819576059534
 21
181.2586201409112903
 31
0.0
  0
LINE
  5
165FA
  8
0
 10
3915.9995203401372237
 20
181.2550051910199045
 30
0.0
 11
3916.7982472104790759
 21
181.2653731664975112
 31
0.0
  0
LINE
  5
165FB
  8
0
 10
3916.8061816575459488
 20
181.5409060477429932
 30
0.0
 11
3915.9812168754460799
 21
181.5230906386929917
 31
0.0
  0
LINE
  5
165FC
  8
0
 10
3915.6900605409459786
 20
182.9243058540984066
 30
0.0
 11
3915.6900605409459786
 21
182.5885384029876093
 31
0.0
  0
LINE
  5
165FD
  8
0
 10
3912.1708415372459058
 20
183.7208043294789945
 30
0.0
 11
3912.1708415372459058
 21
181.7920399276071066
 31
0.0
  0
LINE
  5
165FE
  8
0
 10
3912.2298941541462227
 20
183.7204603987784139
 30
0.0
 11
3912.2298941541462227
 21
181.7923838583076872
 31
0.0
  0
LINE
  5
165FF
  8
0
 10
3910.4090242808460971
 20
184.0994832949430133
 30
0.0
 11
3910.4090242808460971
 21
183.8034108472913886
 31
0.0
  0
ARC
  5
16600
  8
0
 10
3910.3302242808458686
 20
183.8034108472913886
 30
0.0
 40
0.0788
 50
270.4998103868387034
 51
0.0
  0
LINE
  5
16601
  8
0
 10
3911.8066620429599425
 20
184.1113027543237877
 30
0.0
 11
3911.8066605957669708
 21
183.8169907171752868
 31
0.0
  0
ARC
  5
16602
  8
0
 10
3911.885460595765835
 20
183.8169903296993084
 30
0.0
 40
0.0788
 50
179.9997182647132945
 51
270.499824342926388
  0
LINE
  5
16603
  8
0
 10
3911.7867904107270078
 20
184.1310233959081017
 30
0.0
 11
3910.4285387429458751
 21
184.1191681636429962
 31
0.0
  0
ARC
  5
16604
  8
0
 10
3911.7863346414010266
 20
184.1106919267328124
 30
0.0
 40
0.0203365770105332
 50
1.721189723660183
 51
88.715819024413463
  0
ARC
  5
16605
  8
0
 10
3910.42877437087418
 20
184.0994193758000108
 30
0.0
 40
0.0197501934620654
 50
90.683578424026166
 51
179.8145687268772122
  0
LINE
  5
16606
  8
0
 10
3912.1509696848911517
 20
183.7405035798902873
 30
0.0
 11
3911.8861480051868966
 21
183.7381933280539954
 31
0.0
  0
LINE
  5
16607
  8
0
 10
3910.1220673870598148
 20
183.7227919802197107
 30
0.0
 11
3910.330911671074773
 21
183.7246138454787001
 31
0.0
  0
ARC
  5
16608
  8
0
 10
3910.1231025220749871
 20
183.7020408010226049
 30
0.0
 40
0.0216913979665104
 50
92.6491344359198621
 51
174.7919933935532129
  0
ARC
  5
16609
  8
0
 10
3923.3118728470708447
 20
182.7582375226535873
 30
0.0
 40
13.2423882700807596
 50
176.1669758382618909
 51
180.0038989349860117
  0
ARC
  5
1660A
  8
0
 10
3910.1130922653301241
 20
183.6425409342151909
 30
0.0
 40
0.0140171924071212
 50
145.7872438325215967
 51
176.1669758382635962
  0
LINE
  5
1660B
  8
0
 10
3910.1015006721918326
 20
183.7040097670856937
 30
0.0
 11
3910.1015006721918326
 21
182.7564221285429937
 31
0.0
  0
ARC
  5
1660C
  8
0
 10
3923.3118728470708447
 20
182.7564221285429937
 30
0.0
 40
13.2423882700807596
 50
179.9961010650139883
 51
180.0
  0
ARC
  5
1660D
  8
0
 10
3916.6939630832648618
 20
182.9100253927726101
 30
0.0
 40
1.0040041065901499
 50
152.9670981968205012
 51
179.1850254903837083
  0
ARC
  5
1660E
  8
0
 10
3916.333077679184953
 20
183.065423749002008
 30
0.0
 40
0.6124534947361445
 50
106.9667186665826932
 51
150.5712309074783946
  0
ARC
  5
1660F
  8
0
 10
3916.3940565081647946
 20
182.9803779928973029
 30
0.0
 40
0.712380633164801
 50
90.0317319544929404
 51
109.662631622456999
  0
ARC
  5
16610
  8
0
 10
3916.6939630832648618
 20
182.6028188643134911
 30
0.0
 40
1.0040041065901499
 50
180.8149745096162917
 51
207.0329018031794135
  0
ARC
  5
16611
  8
0
 10
3916.333077679184953
 20
182.4474205080840079
 30
0.0
 40
0.6124534947361445
 50
209.4287690925216054
 51
253.0332813334173068
  0
ARC
  5
16612
  8
0
 10
3916.411020595448008
 20
182.7844396950985981
 30
0.0
 40
0.9578443925915642
 50
254.4569173959449131
 51
268.9615951294537126
  0
ARC
  5
16613
  8
0
 10
3913.4409076426459251
 20
182.7564221285429937
 30
0.0
 40
1.3746012673650809
 50
45.6909820314472768
 51
134.3090179685526948
  0
ARC
  5
16614
  8
0
 10
3913.4409076426459251
 20
182.7564221285429937
 30
0.0
 40
1.1918042397499991
 50
55.6227483265927702
 51
124.3772516734072013
  0
ARC
  5
16615
  8
0
 10
3912.151141537246076
 20
183.7208043294789945
 30
0.0
 40
0.0197
 50
359.9999999999968168
 51
90.4998243429263454
  0
ARC
  5
16616
  8
0
 10
3912.2494288940060869
 20
183.7205287894360879
 30
0.0
 40
0.0195348595760508
 50
90.4091459403627624
 51
180.2005903363028096
  0
LINE
  5
16617
  8
0
 10
3912.2298941541462227
 20
183.6215360833429884
 30
0.0
 11
3912.1824415229721126
 21
183.6223642402464122
 31
0.0
  0
ARC
  5
16618
  8
0
 10
3912.1826476209462271
 20
183.6341734655430002
 30
0.0
 40
0.0118110235999994
 50
180.0001591908975911
 51
269.0001695071748031
  0
LINE
  5
16619
  8
0
 10
3912.2492893978569555
 20
183.7400631509430013
 30
0.0
 11
3920.537755554837986
 21
183.7400631509430013
 31
0.0
  0
LINE
  5
1661A
  8
0
 10
3910.1220673870598148
 20
181.7900522768663905
 30
0.0
 11
3912.1509696848911517
 21
181.7723406771958139
 31
0.0
  0
ARC
  5
1661B
  8
0
 10
3910.1231025590091122
 20
181.8118372885018061
 30
0.0
 40
0.0218095922227332
 50
187.9137628158617019
 51
267.2794871438584892
  0
ARC
  5
1661C
  8
0
 10
3923.3118728470708447
 20
182.7546067344324001
 30
0.0
 40
13.2423882700807596
 50
179.9961010650139883
 51
183.8330241617364038
  0
ARC
  5
1661D
  8
0
 10
3910.1130922653301241
 20
181.8703033228707966
 30
0.0
 40
0.0140171924071212
 50
183.8330241617364038
 51
214.2127561674782896
  0
LINE
  5
1661E
  8
0
 10
3910.1015006721918326
 20
181.8088344900004074
 30
0.0
 11
3910.1015006721918326
 21
182.7564221285429937
 31
0.0
  0
ARC
  5
1661F
  8
0
 10
3923.3118728470708447
 20
182.7564221285429937
 30
0.0
 40
13.2423882700807596
 50
180.0
 51
180.0038989349860117
  0
ARC
  5
16620
  8
0
 10
3913.4409076426459251
 20
182.7564221285429937
 30
0.0
 40
1.3746012673650809
 50
225.6909820314473052
 51
314.3090179685527232
  0
ARC
  5
16621
  8
0
 10
3913.4409076426459251
 20
182.7564221285429937
 30
0.0
 40
1.1918042397499991
 50
235.6227483265928129
 51
304.3772516734072155
  0
ARC
  5
16622
  8
0
 10
3912.151141537246076
 20
181.7920399276071066
 30
0.0
 40
0.0197
 50
269.500175657073612
 51
0.0000000000032569
  0
ARC
  5
16623
  8
0
 10
3912.2494288940060869
 20
181.7923154676498996
 30
0.0
 40
0.0195348595760498
 50
179.7994096636938934
 51
269.5908540596373086
  0
LINE
  5
16624
  8
0
 10
3912.2298941541462227
 20
181.8913081737429991
 30
0.0
 11
3912.1824415229721126
 21
181.8904800168396036
 31
0.0
  0
ARC
  5
16625
  8
0
 10
3912.1826476209462271
 20
181.8786707915429872
 30
0.0
 40
0.0118110235999994
 50
90.9998304928251969
 51
179.9998408091022952
  0
LINE
  5
16626
  8
0
 10
3912.2492893978569555
 20
181.7727811061429861
 30
0.0
 11
3915.9064290377727957
 21
181.7727811061429861
 31
0.0
  0
LINE
  5
16627
  8
0
 10
3911.6649887375251637
 20
183.7840472595430015
 30
0.0
 11
3910.5108034174891145
 21
183.7840472595430015
 31
0.0
  0
ARC
  5
16628
  8
0
 10
3910.5491574700949968
 20
184.2628125108278141
 30
0.0
 40
0.4802990726506701
 50
253.0365047700537957
 51
265.4197963230719211
  0
ARC
  5
16629
  8
0
 10
3911.6121078277901688
 20
184.3325576909192023
 30
0.0
 40
0.5510536125848129
 50
275.5067647624903771
 51
290.674346254549107
  0
ARC
  5
1662A
  8
0
 10
3916.6231816011090814
 20
180.3210462279583908
 30
0.0
 40
1.6190331663021249
 50
114.1543930110254053
 51
116.2765387867015932
  0
ARC
  5
1662B
  8
0
 10
3916.1234388599032172
 20
181.4436800884629122
 30
0.0
 40
0.3902118158886334
 50
100.084427073086303
 51
114.6521509268689982
  0
ARC
  5
1662C
  8
0
 10
3916.1820412665829281
 20
180.9053556787526134
 30
0.0
 40
0.9311988723143203
 50
89.7857237992473358
 51
97.8341564883997705
  0
ARC
  5
1662D
  8
0
 10
3916.489046493168189
 20
186.2667770460053021
 30
0.0
 40
4.4406142696321691
 50
266.0806908176771799
 51
268.2928038412711089
  0
LINE
  5
1662E
  8
0
 10
3917.0972634040458615
 20
182.9243058540984066
 30
0.0
 11
3917.0972634040458615
 21
182.5885384029876093
 31
0.0
  0
LINE
  5
1662F
  8
0
 10
3920.6046738853460738
 20
183.7208043294789945
 30
0.0
 11
3920.6046738853460738
 21
181.7920399276071066
 31
0.0
  0
LINE
  5
16630
  8
0
 10
3920.5574297908460721
 20
183.7204603987784139
 30
0.0
 11
3920.5574297908460721
 21
181.7923838583076872
 31
0.0
  0
LINE
  5
16631
  8
0
 10
3922.3782996641461978
 20
184.0994832949430133
 30
0.0
 11
3922.3782996641461978
 21
183.8034108472913886
 31
0.0
  0
ARC
  5
16632
  8
0
 10
3922.4570996641459715
 20
183.8034108472913886
 30
0.0
 40
0.0788
 50
180.0
 51
269.5001896131611829
  0
LINE
  5
16633
  8
0
 10
3920.9806619020309881
 20
184.1113027543237877
 30
0.0
 11
3920.9806633492248693
 21
183.8169907171752868
 31
0.0
  0
ARC
  5
16634
  8
0
 10
3920.9018633492269146
 20
183.8169903296993084
 30
0.0
 40
0.0788
 50
269.500175657073612
 51
0.0002817352867052
  0
LINE
  5
16635
  8
0
 10
3921.0005335342648323
 20
184.1310233959081017
 30
0.0
 11
3922.358785202045965
 21
184.1191681636429962
 31
0.0
  0
ARC
  5
16636
  8
0
 10
3921.0009893035908135
 20
184.1106919267328124
 30
0.0
 40
0.0203365770105332
 50
91.284180975586537
 51
178.2788102763398115
  0
ARC
  5
16637
  8
0
 10
3922.3585495741181148
 20
184.0994193758000108
 30
0.0
 40
0.0197501934620654
 50
0.185431273122719
 51
89.316421575973834
  0
LINE
  5
16638
  8
0
 10
3920.6245457377021921
 20
183.7405035798902873
 30
0.0
 11
3920.901175939804034
 21
183.7381933280539954
 31
0.0
  0
LINE
  5
16639
  8
0
 10
3922.6652565579320253
 20
183.7227919802197107
 30
0.0
 11
3922.4564122739179766
 21
183.7246138454787001
 31
0.0
  0
ARC
  5
1663A
  8
0
 10
3922.6642214229182173
 20
183.7020408010226049
 30
0.0
 40
0.0216913979665104
 50
5.2080066064468431
 51
87.3508655640801237
  0
ARC
  5
1663B
  8
0
 10
3909.4754510979219049
 20
182.7582375226535873
 30
0.0
 40
13.2423882700807596
 50
359.9961010650139883
 51
3.8330241617380332
  0
ARC
  5
1663C
  8
0
 10
3922.6742316796630803
 20
183.6425409342151909
 30
0.0
 40
0.0140171924071212
 50
3.8330241617364078
 51
34.2127561674783465
  0
LINE
  5
1663D
  8
0
 10
3922.6858232728000075
 20
183.7040097670856937
 30
0.0
 11
3922.6858232728000075
 21
182.7564221285429937
 31
0.0
  0
ARC
  5
1663E
  8
0
 10
3909.4754510979219049
 20
182.7564221285429937
 30
0.0
 40
13.2423882700807596
 50
0.0
 51
0.0038989349860322
  0
ARC
  5
1663F
  8
0
 10
3916.0933608617269783
 20
182.9100253927726101
 30
0.0
 40
1.0040041065901499
 50
0.8149745096162765
 51
27.0329018031794384
  0
ARC
  5
16640
  8
0
 10
3916.4542462658068871
 20
183.065423749002008
 30
0.0
 40
0.6124534947361445
 50
29.428769092521641
 51
73.0332813334173068
  0
ARC
  5
16641
  8
0
 10
3916.3932674368270455
 20
182.9803779928973029
 30
0.0
 40
0.712380633164801
 50
70.3373683775430152
 51
89.9682680455070738
  0
ARC
  5
16642
  8
0
 10
3916.0933608617269783
 20
182.6028188643134911
 30
0.0
 40
1.0040041065901499
 50
332.9670981968204728
 51
359.1850254903837936
  0
ARC
  5
16643
  8
0
 10
3916.4542462658068871
 20
182.4474205080840079
 30
0.0
 40
0.6124534947361445
 50
286.9667186665827217
 51
330.571230907478423
  0
ARC
  5
16644
  8
0
 10
3916.3897439873271651
 20
182.6922031579067038
 30
0.0
 40
0.8654594193825746
 50
270.2593822149696052
 51
286.3221052596369987
  0
ARC
  5
16645
  8
0
 10
3919.346416302345915
 20
182.7564221285429937
 30
0.0
 40
1.3746012673650809
 50
45.6909820314472768
 51
134.3090179685526948
  0
ARC
  5
16646
  8
0
 10
3919.346416302345915
 20
182.7564221285429937
 30
0.0
 40
1.1918042397499991
 50
55.6227483265927702
 51
124.3772516734072013
  0
ARC
  5
16647
  8
0
 10
3920.6243738853459035
 20
183.7208043294789945
 30
0.0
 40
0.0197
 50
89.5001756570736546
 51
180.0000000000032117
  0
ARC
  5
16648
  8
0
 10
3920.5378950509871174
 20
183.7205287894360879
 30
0.0
 40
0.0195348595760529
 50
359.7994096637070243
 51
90.4091459403627624
  0
LINE
  5
16649
  8
0
 10
3920.5574297908460721
 20
183.6233885095400922
 30
0.0
 11
3920.5926567309620623
 21
183.6227736211191086
 31
0.0
  0
ARC
  5
1664A
  8
0
 10
3920.5928543454879218
 20
183.6346042979770914
 30
0.0
 40
0.0118323271768582
 50
269.0430449930690884
 51
357.9131561346674744
  0
LINE
  5
1664B
  8
0
 10
3922.6652565579320253
 20
181.7900522768663905
 30
0.0
 11
3920.6245457377021921
 21
181.7723406771958139
 31
0.0
  0
ARC
  5
1664C
  8
0
 10
3922.6642213859840922
 20
181.8118372885018061
 30
0.0
 40
0.0218095922227332
 50
272.7205128561413972
 51
352.0862371841383265
  0
ARC
  5
1664D
  8
0
 10
3909.4754510979219049
 20
182.7546067344324001
 30
0.0
 40
13.2423882700807596
 50
356.1669758382619762
 51
0.0038989349860322
  0
ARC
  5
1664E
  8
0
 10
3922.6742316796630803
 20
181.8703033228707966
 30
0.0
 40
0.0140171924071212
 50
325.7872438325215967
 51
356.1669758382635109
  0
LINE
  5
1664F
  8
0
 10
3922.6858232728000075
 20
181.8088344900004074
 30
0.0
 11
3922.6858232728000075
 21
182.7564221285429937
 31
0.0
  0
ARC
  5
16650
  8
0
 10
3909.4754510979219049
 20
182.7564221285429937
 30
0.0
 40
13.2423882700807596
 50
359.9961010650139883
 51
0.0
  0
ARC
  5
16651
  8
0
 10
3919.346416302345915
 20
182.7564221285429937
 30
0.0
 40
1.3746012673650809
 50
225.6909820314473052
 51
314.3090179685527232
  0
ARC
  5
16652
  8
0
 10
3919.346416302345915
 20
182.7564221285429937
 30
0.0
 40
1.1918042397499991
 50
235.6227483265928129
 51
304.3772516734072155
  0
ARC
  5
16653
  8
0
 10
3920.6243738853459035
 20
181.7920399276071066
 30
0.0
 40
0.0197
 50
179.9999999999967031
 51
270.499824342926388
  0
ARC
  5
16654
  8
0
 10
3920.5378950509871174
 20
181.7923154676498996
 30
0.0
 40
0.0195348595760531
 50
270.4091459403887825
 51
0.2005903362963151
  0
LINE
  5
16655
  8
0
 10
3920.5574297908460721
 20
181.8894557475429963
 30
0.0
 11
3920.5926567309461461
 21
181.8900706360429922
 31
0.0
  0
ARC
  5
16656
  8
0
 10
3920.5928542725500847
 20
181.8782398822681046
 30
0.0
 40
0.0118324028653905
 50
2.0872028421018611
 51
90.9565957228222857
  0
LINE
  5
16657
  8
0
 10
3921.1223352074671311
 20
183.7840472595430015
 30
0.0
 11
3922.2765205275031803
 21
183.7840472595430015
 31
0.0
  0
ARC
  5
16658
  8
0
 10
3922.2381664748968433
 20
184.2628125108278141
 30
0.0
 40
0.4802990726506834
 50
274.5802036769280789
 51
286.9634952299462043
  0
ARC
  5
16659
  8
0
 10
3921.175216117202126
 20
184.3325576909192023
 30
0.0
 40
0.5510536125848129
 50
249.325653745450893
 51
264.4932352375096229
  0
ARC
  5
1665A
  8
0
 10
3916.1641423438832135
 20
180.3210462279583908
 30
0.0
 40
1.6190331663021249
 50
63.7234612132983713
 51
65.8456069889746374
  0
ARC
  5
1665B
  8
0
 10
3916.6638850850899871
 20
181.4436800884629122
 30
0.0
 40
0.3902118158886334
 50
65.3478490731309449
 51
79.9155729269136827
  0
ARC
  5
1665C
  8
0
 10
3916.6051667868277946
 20
180.9042361490674864
 30
0.0
 40
0.9323237506626147
 50
82.1681658196276175
 51
90.1940783490441333
  0
ARC
  5
1665D
  8
0
 10
3916.6248467136088038
 20
179.9034880931598082
 30
0.0
 40
1.933201361556804
 50
90.6768827697413542
 51
94.5827962252275682
  0
LINE
  5
1665F
  8
0
 10
3920.5380345471348846
 20
181.7727811061429861
 30
0.0
 11
3916.8808949072190444
 21
181.7727811061429861
 31
0.0
  0
ENDSEC
  0
EOF
