  0
SECTION
  2
HEADER
  9
$ACADVER
  1
AC1009
  9
$INSBASE
 10
1248.5552642329200808
 20
663.7660030261085922
 30
0.0
  9
$EXTMIN
 10
1247.648438534097977
 20
659.6518030261086096
 30
0.0
  9
$EXTMAX
 10
1249.8695835588819136
 20
665.0807030261086084
 30
0.0
  9
$LIMMIN
 10
0.0
 20
0.0
  9
$LIMMAX
 10
11.6929133858000007
 20
8.2677165353999982
  9
$ORTHOMODE
 70
     0
  9
$REGENMODE
 70
     1
  9
$FILLMODE
 70
     1
  9
$QTEXTMODE
 70
     0
  9
$MIRRTEXT
 70
     0
  9
$DRAGMODE
 70
     2
  9
$LTSCALE
 40
0.6431102362
  9
$OSMODE
 70
  4095
  9
$ATTMODE
 70
     1
  9
$TEXTSIZE
 40
0.2
  9
$TRACEWID
 40
0.05
  9
$TEXTSTYLE
  7
STANDARD
  9
$CLAYER
  8
0
  9
$CELTYPE
  6
BYLAYER
  9
$CECOLOR
 62
   256
  9
$DIMSCALE
 40
1.0
  9
$DIMASZ
 40
0.1875
  9
$DIMEXO
 40
0.0625
  9
$DIMDLI
 40
0.4443307087
  9
$DIMRND
 40
0.0
  9
$DIMDLE
 40
0.0
  9
$DIMEXE
 40
0.125
  9
$DIMTP
 40
0.01
  9
$DIMTM
 40
0.01
  9
$DIMTXT
 40
0.15625
  9
$DIMCEN
 40
0.1052362205
  9
$DIMTSZ
 40
0.0
  9
$DIMTOL
 70
     1
  9
$DIMLIM
 70
     0
  9
$DIMTIH
 70
     1
  9
$DIMTOH
 70
     1
  9
$DIMSE1
 70
     0
  9
$DIMSE2
 70
     0
  9
$DIMTAD
 70
     0
  9
$DIMZIN
 70
     0
  9
$DIMBLK
  1
_FILLED
  9
$DIMASO
 70
     1
  9
$DIMSHO
 70
     1
  9
$DIMPOST
  1

  9
$DIMAPOST
  1

  9
$DIMALT
 70
     1
  9
$DIMALTD
 70
     2
  9
$DIMALTF
 40
25.3999999999999986
  9
$DIMLFAC
 40
1.0
  9
$DIMTOFL
 70
     0
  9
$DIMTVP
 40
0.0
  9
$DIMTIX
 70
     0
  9
$DIMSOXD
 70
     0
  9
$DIMSAH
 70
     0
  9
$DIMBLK1
  1

  9
$DIMBLK2
  1

  9
$DIMSTYLE
  2
STANDARD
  9
$DIMCLRD
 70
     0
  9
$DIMCLRE
 70
     0
  9
$DIMCLRT
 70
     0
  9
$DIMTFAC
 40
1.0
  9
$DIMGAP
 40
0.09
  9
$LUNITS
 70
     2
  9
$LUPREC
 70
     4
  9
$SKETCHINC
 40
0.1
  9
$FILLETRAD
 40
0.0
  9
$AUNITS
 70
     0
  9
$AUPREC
 70
     0
  9
$MENU
  1
.
  9
$ELEVATION
 40
0.0
  9
$PELEVATION
 40
0.0
  9
$THICKNESS
 40
0.0
  9
$LIMCHECK
 70
     0
  9
$BLIPMODE
 70
     0
  9
$CHAMFERA
 40
0.0
  9
$CHAMFERB
 40
0.0
  9
$SKPOLY
 70
     0
  9
$TDCREATE
 40
2459868.5124768521636724
  9
$TDUPDATE
 40
2459935.6026273150928319
  9
$TDINDWG
 40
0.3976041667
  9
$TDUSRTIMER
 40
0.3976041667
  9
$USRTIMER
 70
     1
  9
$ANGBASE
 50
0.0
  9
$ANGDIR
 70
     0
  9
$PDMODE
 70
     0
  9
$PDSIZE
 40
0.3125
  9
$PLINEWID
 40
0.0
  9
$COORDS
 70
     1
  9
$SPLFRAME
 70
     0
  9
$SPLINETYPE
 70
     6
  9
$SPLINESEGS
 70
     8
  9
$ATTDIA
 70
     1
  9
$ATTREQ
 70
     1
  9
$HANDLING
 70
     1
  9
$HANDSEED
  5
810C
  9
$SURFTAB1
 70
     6
  9
$SURFTAB2
 70
     6
  9
$SURFTYPE
 70
     6
  9
$SURFU
 70
     6
  9
$SURFV
 70
     6
  9
$UCSNAME
  2

  9
$UCSORG
 10
0.0
 20
0.0
 30
0.0
  9
$UCSXDIR
 10
1.0
 20
0.0
 30
0.0
  9
$UCSYDIR
 10
0.0
 20
1.0
 30
0.0
  9
$PUCSNAME
  2

  9
$PUCSORG
 10
0.0
 20
0.0
 30
0.0
  9
$PUCSXDIR
 10
1.0
 20
0.0
 30
0.0
  9
$PUCSYDIR
 10
0.0
 20
1.0
 30
0.0
  9
$USERI1
 70
     0
  9
$USERI2
 70
     0
  9
$USERI3
 70
     0
  9
$USERI4
 70
     0
  9
$USERI5
 70
     0
  9
$USERR1
 40
0.0
  9
$USERR2
 40
0.0
  9
$USERR3
 40
0.0
  9
$USERR4
 40
0.0
  9
$USERR5
 40
0.0
  9
$WORLDVIEW
 70
     1
  9
$SHADEDGE
 70
     3
  9
$SHADEDIF
 70
    70
  9
$TILEMODE
 70
     1
  9
$MAXACTVP
 70
    64
  9
$PLIMCHECK
 70
     0
  9
$PEXTMIN
 10
1.0000000000000000E+20
 20
1.0000000000000000E+20
 30
1.0000000000000000E+20
  9
$PEXTMAX
 10
-1.0000000000000000E+20
 20
-1.0000000000000000E+20
 30
-1.0000000000000000E+20
  9
$PLIMMIN
 10
0.0
 20
0.0
  9
$PLIMMAX
 10
12.0
 20
9.0
  9
$UNITMODE
 70
     0
  9
$VISRETAIN
 70
     1
  9
$PLINEGEN
 70
     0
  9
$PSLTSCALE
 70
     1
  0
ENDSEC
  0
SECTION
  2
TABLES
  0
TABLE
  2
VPORT
 70
     1
  0
VPORT
  2
*ACTIVE
 70
     0
 10
0.0
 20
0.0
 11
1.0
 21
1.0
 12
1252.9846091617050661
 22
661.8367488027835179
 13
0.0
 23
0.0
 14
1.0
 24
1.0
 15
0.0
 25
0.0
 16
0.0
 26
0.0
 36
1.0
 17
0.0
 27
0.0
 37
0.0
 40
13.2536829669980492
 41
2.5251322751322749
 42
50.0
 43
0.0
 44
0.0
 50
0.0
 51
0.0
 71
     0
 72
   100
 73
     1
 74
     1
 75
     0
 76
     0
 77
     0
 78
     0
  0
ENDTAB
  0
TABLE
  2
LTYPE
 70
     1
  0
LTYPE
  2
CONTINUOUS
 70
     0
  3
Solid line
 72
    65
 73
     0
 40
0.0
  0
ENDTAB
  0
TABLE
  2
LAYER
 70
     2
  0
LAYER
  2
0
 70
     0
 62
     7
  6
CONTINUOUS
  0
LAYER
  2
DEFPOINTS
 70
     0
 62
     7
  6
CONTINUOUS
  0
ENDTAB
  0
TABLE
  2
STYLE
 70
     1
  0
STYLE
  2
STANDARD
 70
     0
 40
0.0
 41
0.8
 50
0.0
 71
     0
 42
0.2
  3
txt
  4

  0
ENDTAB
  0
TABLE
  2
VIEW
 70
     0
  0
ENDTAB
  0
TABLE
  2
UCS
 70
     0
  0
ENDTAB
  0
TABLE
  2
APPID
 70
    12
  0
APPID
  2
ACAD
 70
     0
  0
APPID
  2
ACAD_DSTYLE_DIMRADIAL_EXTENSION
 70
     0
  0
APPID
  2
ACAD_NAV_VCDISPLAY
 70
     0
  0
APPID
  2
ACAD_MLEADERVER
 70
     0
  0
APPID
  2
ACAD_EXEMPT_FROM_CAD_STANDARDS
 70
     0
  0
APPID
  2
ACAECLAYERSTANDARD
 70
     0
  0
APPID
  2
ACCMTRANSPARENCY
 70
     0
  0
APPID
  2
ACAD_DSTYLE_DIMJAG
 70
     0
  0
APPID
  2
ACAD_DSTYLE_DIMTALN
 70
     0
  0
APPID
  2
ACDBATTR
 70
     0
  0
APPID
  2
ACADANNOTATIVE
 70
     0
  0
APPID
  2
DCO15
 70
     0
  0
ENDTAB
  0
TABLE
  2
DIMSTYLE
 70
     1
  0
DIMSTYLE
  2
STANDARD
 70
     0
  3

  4

  5
_FILLED
  6
_FILLED
  7
_FILLED
 40
1.0
 41
0.1875
 42
0.0625
 43
0.38
 44
0.125
 45
0.0
 46
0.0
 47
0.01
 48
0.01
140
0.15625
141
0.09
142
0.0
143
25.3999999999999986
144
1.0
145
0.0
146
1.0
147
0.09
 71
     1
 72
     0
 73
     1
 74
     1
 75
     0
 76
     0
 77
     0
 78
     4
170
     1
171
     2
172
     0
173
     0
174
     0
175
     0
176
     0
177
     0
178
     0
  0
ENDTAB
  0
ENDSEC
  0
SECTION
  2
BLOCKS
  0
BLOCK
  8
0
  2
$MODEL_SPACE
 70
     0
 10
0.0
 20
0.0
 30
0.0
  3
$MODEL_SPACE
  1

  0
ENDBLK
  5
21
  8
0
  0
BLOCK
 67
     1
  8
0
  2
$PAPER_SPACE
 70
     0
 10
0.0
 20
0.0
 30
0.0
  3
$PAPER_SPACE
  1

  0
ENDBLK
  5
1D
 67
     1
  8
0
  0
BLOCK
  8
0
  2
_FILLED
 70
     0
 10
0.0
 20
0.0
 30
0.0
  3
_FILLED
  1

  0
SOLID
  5
212
  8
0
  6
BYBLOCK
 62
     0
 10
0.0
 20
0.0
 30
0.0
 11
-1.0
 21
0.1666666667
 31
0.0
 12
-1.0
 22
-0.1666666667
 32
0.0
 13
-1.0
 23
-0.1666666667
 33
0.0
  0
ENDBLK
  5
213
  8
0
  6
BYBLOCK
 62
     0
  0
ENDSEC
  0
SECTION
  2
ENTITIES
  0
LINE
  5
D45
  8
0
 10
-1.607698385787991
 20
273788.254113320785109
 30
0.0
 11
-1.607698385787991
 21
273788.2541133213089779
 31
0.0
  0
LINE
  5
7F0B
  8
0
 10
1248.4383325768139912
 20
664.6715030261085531
 30
0.0
 11
1248.4379660902980049
 21
664.6673140657520662
 31
0.0
  0
LINE
  5
7F0C
  8
0
 10
1248.4077642329050377
 20
664.6715030261085531
 30
0.0
 11
1248.7027642329348964
 21
664.6715030261085531
 31
0.0
  0
ARC
  5
7F0D
  8
0
 10
1248.5571052794618936
 20
664.551408715430739
 30
0.0
 40
0.1916387007990443
 50
90.5370711695653227
 51
141.1951007298542038
  0
LINE
  5
7F5A
  8
0
 10
1248.2403082178138902
 20
660.5966998765086373
 30
0.0
 11
1248.4143398502139917
 21
660.5966998765086373
 31
0.0
  0
ARC
  5
7F5B
  8
0
 10
1248.2403082178138902
 20
660.5179998765086111
 30
0.0
 40
0.0787
 50
90.0
 51
180.0
  0
LINE
  5
7F5C
  8
0
 10
1248.3683011312139115
 20
660.5966998765086373
 30
0.0
 11
1248.3683011312139115
 21
660.6951250734084624
 31
0.0
  0
ARC
  5
7F5D
  8
0
 10
1248.2879225597689583
 20
660.6944879290713288
 30
0.0
 40
0.0803810966614093
 50
0.4541623002231981
 51
80.9356606441279638
  0
LINE
  5
7FA1
  8
0
 10
1249.1471298493149789
 20
664.4552480330085018
 30
0.0
 11
1249.4822402532870456
 21
664.7903584368357315
 31
0.0
  0
LINE
  5
7FA2
  8
0
 10
1249.2444255884399809
 20
664.3576718245332131
 30
0.0
 11
1249.5796762270870204
 21
664.6929224630357567
 31
0.0
  0
LINE
  5
7FA3
  8
0
 10
1249.4544014035989221
 20
664.8181972864931595
 30
0.0
 11
1249.607515076728987
 21
664.6650836134238034
 31
0.0
  0
LINE
  5
7FA4
  8
0
 10
1249.8580435660610419
 20
664.9156121027551762
 30
0.0
 11
1249.6075150767139803
 21
664.6650836134084557
 31
0.0
  0
LINE
  5
7FA5
  8
0
 10
1249.7049298928538974
 20
665.0687257758487476
 30
0.0
 11
1249.4544014035989221
 21
664.8181972864931595
 31
0.0
  0
LINE
  5
7FA6
  8
0
 10
1249.8580435660460353
 20
664.97133211712719
 30
0.0
 11
1249.7606499072030601
 21
665.0687257758689839
 31
0.0
  0
ARC
  5
7FA7
  8
0
 10
1249.8301810490600019
 20
664.9434737912641822
 30
0.0
 40
0.0394029635965139
 50
315.0008518574941263
 51
359.7250247214881824
  0
ARC
  5
7FA8
  8
0
 10
1249.8301812588199482
 20
664.9434705692907528
 30
0.0
 40
0.0394027157919658
 50
0.2631969833388463
 51
44.9992191891295974
  0
ARC
  5
7FA9
  8
0
 10
1249.7308119723170421
 20
665.037950861503532
 30
0.0
 40
0.0428648773762456
 50
45.8856322491832316
 51
85.8440662904435641
  0
ARC
  5
7FAA
  8
0
 10
1249.7347414188438961
 20
665.0379861261669703
 30
0.0
 40
0.0428211763545182
 50
93.9993512229635684
 51
134.1218435340655049
  0
LINE
  5
7FAB
  8
0
 10
1248.0640259404140124
 20
660.7738652308086102
 30
0.0
 11
1248.0640259404140124
 21
662.7076747412478426
 31
0.0
  0
LINE
  5
7FAC
  8
0
 10
1248.4143398502139917
 20
660.7738652308086102
 30
0.0
 11
1248.0640259404140124
 21
660.7738652308086102
 31
0.0
  0
ARC
  5
7FAD
  8
0
 10
1247.3807547964470359
 20
662.6986320454867609
 30
0.0
 40
0.6833309787538399
 50
0.7582320158236558
 51
38.8648456252205392
  0
LINE
  5
7FAE
  8
0
 10
1248.4143398502139917
 20
660.2869913434443561
 30
0.0
 11
1248.4143398502139917
 21
662.8009317397983295
 31
0.0
  0
LINE
  5
7FAF
  8
0
 10
1248.4212781288379119
 20
660.2813110994014778
 30
0.0
 11
1248.6892503370011127
 21
660.2813110994014778
 31
0.0
  0
ARC
  5
7FB0
  8
0
 10
1248.5437613627150313
 20
661.6283781133646471
 30
0.0
 40
1.3526239990066491
 50
264.8046178691427031
 51
270.4872557781670821
  0
ARC
  5
7FB2
  8
0
 10
1248.4216831083219859
 20
660.2885348075803904
 30
0.0
 40
0.0075037138260509
 50
191.8700908949666086
 51
233.9823902587556006
  0
ARC
  5
7FB3
  8
0
 10
1248.4222124312329925
 20
660.2920873043103711
 30
0.0
 40
0.0108166313242691
 50
242.8148817293333082
 51
265.0448182558191093
  0
ARC
  5
7FB4
  8
0
 10
1248.3169581961199128
 20
662.7768569160607512
 30
0.0
 40
0.1120110397122318
 50
49.1906244760448885
 51
71.5957642658649149
  0
ARC
  5
7FB5
  8
0
 10
1248.332460271572927
 20
662.8055768213872625
 30
0.0
 40
0.0804502907225293
 50
3.3590227802827459
 51
44.1729706175074313
  0
ARC
  5
7FB6
  8
0
 10
1248.5170301435889542
 20
662.822941894753626
 30
0.0
 40
0.1050225845925834
 50
186.9188022417582999
 51
192.0974734352637938
  0
LINE
  5
7FB7
  8
0
 10
1248.672285433613979
 20
664.6715030261085531
 30
0.0
 11
1248.6726529539000694
 21
664.6673022497083139
 31
0.0
  0
ARC
  5
7FB8
  8
0
 10
1248.5535971668250568
 20
664.551769638574001
 30
0.0
 40
0.1912770182281404
 50
38.7533078858081126
 51
89.4872397932481221
  0
LINE
  5
7FB9
  8
0
 10
1248.8703097926140799
 20
660.5966998765086373
 30
0.0
 11
1248.6962781602139785
 21
660.5966998765086373
 31
0.0
  0
ARC
  5
7FBA
  8
0
 10
1248.8703097926140799
 20
660.5179998765086111
 30
0.0
 40
0.0787
 50
0.0
 51
90.0
  0
LINE
  5
7FBB
  8
0
 10
1248.7423168792140586
 20
660.5966998765086373
 30
0.0
 11
1248.7423168792140586
 21
660.6951250734084624
 31
0.0
  0
ARC
  5
7FBC
  8
0
 10
1248.8226954506590118
 20
660.6944879290713288
 30
0.0
 40
0.0803810966614093
 50
99.0643393558720504
 51
179.5458376997767971
  0
LINE
  5
7FBD
  8
0
 10
1249.0465920700139577
 20
660.7738652308086102
 30
0.0
 11
1249.0465920700139577
 21
662.7076747412478426
 31
0.0
  0
LINE
  5
7FBE
  8
0
 10
1248.6962781602139785
 20
660.7738652308086102
 30
0.0
 11
1249.0465920700139577
 21
660.7738652308086102
 31
0.0
  0
ARC
  5
7FBF
  8
0
 10
1249.732787266224932
 20
662.69807316719357
 30
0.0
 40
0.6862623678506357
 50
141.434669620333608
 51
179.1983421422422111
  0
LINE
  5
7FC0
  8
0
 10
1248.6962781602139785
 20
660.2869913434443561
 30
0.0
 11
1248.6962781602139785
 21
662.8009317397983295
 31
0.0
  0
ARC
  5
7FC1
  8
0
 10
1248.5668992785190312
 20
661.625162893586662
 30
0.0
 40
1.3494100289558271
 50
269.5059713108728943
 51
275.202155041816809
  0
ARC
  5
7FC2
  8
0
 10
1248.6889349021059843
 20
660.2885348075803904
 30
0.0
 40
0.0075037138260509
 50
306.0176097412444278
 51
348.1299091050333914
  0
ARC
  5
7FC3
  8
0
 10
1248.6884732745950259
 20
660.2919160550319475
 30
0.0
 40
0.0106333865681434
 50
274.1907739324298063
 51
297.2822190585208091
  0
ARC
  5
7FC4
  8
0
 10
1248.7968578250608971
 20
662.7722025882427488
 30
0.0
 40
0.1176255281212397
 50
109.8339825932741007
 51
130.5067496041691015
  0
ARC
  5
7FC5
  8
0
 10
1248.7781577388550431
 20
662.8055768213872625
 30
0.0
 40
0.0804502907225293
 50
135.8270293824926114
 51
176.640977219717314
  0
ARC
  5
7FC6
  8
0
 10
1248.5935878668399255
 20
662.822941894753626
 30
0.0
 40
0.1050225845925834
 50
347.9025265647362062
 51
353.0811977582416716
  0
LINE
  5
7FCD
  8
0
 10
1249.8695835588819136
 20
664.943651571094847
 30
0.0
 11
1249.8695835588819136
 21
664.9432846883412367
 31
0.0
  0
ARC
  5
7FDF
  8
0
 10
1248.5552642329200808
 20
663.7677875104714076
 30
0.0
 40
0.9071421486833191
 50
1.513439405357103
 51
85.0183804182955214
  0
ARC
  5
7FE0
  8
0
 10
1248.5552642329200808
 20
663.7677875104714076
 30
0.0
 40
0.9071421486833191
 50
94.981619581704507
 51
178.4865605946428957
  0
ARC
  5
7FE1
  8
0
 10
1248.5552642329200808
 20
663.7675824343499471
 30
0.0
 40
0.9071421486833185
 50
181.5134394053505957
 51
358.4865605946494043
  0
LINE
  5
7FE3
  8
0
 10
1249.462089931743094
 20
663.7436235138245593
 30
0.0
 11
1249.462089931743094
 21
663.7917464309970228
 31
0.0
  0
LINE
  5
7FE5
  8
0
 10
1247.648438534097977
 20
663.7436235138245593
 30
0.0
 11
1247.648438534097977
 21
663.7917464309970228
 31
0.0
  0
LINE
  5
7FEB
  8
0
 10
1248.1616082178140914
 20
660.5179998765086111
 30
0.0
 11
1248.1616082178140914
 21
659.6518030261086096
 31
0.0
  0
LINE
  5
7FEC
  8
0
 10
1248.9490097926150156
 20
660.5179998765086111
 30
0.0
 11
1248.9490097926150156
 21
659.6518030261086096
 31
0.0
  0
LINE
  5
7FED
  8
0
 10
1249.7317548482760685
 20
665.0807030261086084
 30
0.0
 11
1249.7339184388079047
 21
665.0807030261086084
 31
0.0
  0
LINE
  5
7FF1
  8
0
 10
1248.1616082178140914
 20
659.6518030261086096
 30
0.0
 11
1248.9490097926150156
 21
659.6518030261086096
 31
0.0
  0
ATTDEF
  5
7FF8
  8
DEFPOINTS
 10
1248.5570099696360558
 20
663.7630751669936444
 30
0.0
 40
0.001
  1
K-37045D
  3

  2
MODELNUMBER
 70
     0
1001
ACDBATTR
1070
     0
1070
     1
  0
ATTDEF
  5
7FF9
  8
DEFPOINTS
 10
1248.556884159979063
 20
663.7614083266146281
 30
0.0
 40
0.001
  1
CUFF
  3

  2
TRADENAME
 70
     0
1001
ACDBATTR
1070
     0
1070
     1
  0
ATTDEF
  5
7FFA
  8
DEFPOINTS
 10
1248.5570099696360558
 20
663.7597418336603141
 30
0.0
 40
0.001
  1
BIDET FAUCET
  3

  2
PRODUCT
 70
     0
1001
ACDBATTR
1070
     0
1070
     1
  0
ENDSEC
  0
EOF
