  0
SECTION
  2
HEADER
  9
$ACADVER
  1
AC1009
  9
$INSBASE
 10
4787.0805344625450743
 20
538.6266228078166023
 30
0.0
  9
$EXTMIN
 10
4784.3693679011439599
 20
538.2143085872597794
 30
0.0
  9
$EXTMAX
 10
4787.0912031210928035
 20
539.0389370283759263
 30
0.0
  9
$LIMMIN
 10
0.0
 20
0.0
  9
$LIMMAX
 10
11.6929133858000007
 20
8.2677165353999982
  9
$ORTHOMODE
 70
     0
  9
$REGENMODE
 70
     1
  9
$FILLMODE
 70
     1
  9
$QTEXTMODE
 70
     0
  9
$MIRRTEXT
 70
     0
  9
$DRAGMODE
 70
     2
  9
$LTSCALE
 40
0.6431102362
  9
$OSMODE
 70
     7
  9
$ATTMODE
 70
     1
  9
$TEXTSIZE
 40
0.2
  9
$TRACEWID
 40
0.05
  9
$TEXTSTYLE
  7
STANDARD
  9
$CLAYER
  8
0
  9
$CELTYPE
  6
BYLAYER
  9
$CECOLOR
 62
   256
  9
$DIMSCALE
 40
1.0
  9
$DIMASZ
 40
0.1875
  9
$DIMEXO
 40
0.0625
  9
$DIMDLI
 40
0.4443307087
  9
$DIMRND
 40
0.0
  9
$DIMDLE
 40
0.0
  9
$DIMEXE
 40
0.125
  9
$DIMTP
 40
0.01
  9
$DIMTM
 40
0.01
  9
$DIMTXT
 40
2.0
  9
$DIMCEN
 40
0.1052362205
  9
$DIMTSZ
 40
0.0
  9
$DIMTOL
 70
     1
  9
$DIMLIM
 70
     0
  9
$DIMTIH
 70
     1
  9
$DIMTOH
 70
     1
  9
$DIMSE1
 70
     0
  9
$DIMSE2
 70
     0
  9
$DIMTAD
 70
     0
  9
$DIMZIN
 70
     0
  9
$DIMBLK
  1

  9
$DIMASO
 70
     1
  9
$DIMSHO
 70
     1
  9
$DIMPOST
  1
\X
  9
$DIMAPOST
  1

  9
$DIMALT
 70
     1
  9
$DIMALTD
 70
     2
  9
$DIMALTF
 40
25.3999999999999986
  9
$DIMLFAC
 40
1.0
  9
$DIMTOFL
 70
     0
  9
$DIMTVP
 40
0.0
  9
$DIMTIX
 70
     0
  9
$DIMSOXD
 70
     0
  9
$DIMSAH
 70
     0
  9
$DIMBLK1
  1

  9
$DIMBLK2
  1

  9
$DIMSTYLE
  2
STANDARD
  9
$DIMCLRD
 70
     0
  9
$DIMCLRE
 70
     0
  9
$DIMCLRT
 70
     0
  9
$DIMTFAC
 40
1.0
  9
$DIMGAP
 40
0.09
  9
$LUNITS
 70
     2
  9
$LUPREC
 70
     4
  9
$SKETCHINC
 40
0.1
  9
$FILLETRAD
 40
0.0
  9
$AUNITS
 70
     0
  9
$AUPREC
 70
     0
  9
$MENU
  1
.
  9
$ELEVATION
 40
0.0
  9
$PELEVATION
 40
0.0
  9
$THICKNESS
 40
0.0
  9
$LIMCHECK
 70
     0
  9
$BLIPMODE
 70
     0
  9
$CHAMFERA
 40
0.0
  9
$CHAMFERB
 40
0.0
  9
$SKPOLY
 70
     0
  9
$TDCREATE
 40
2458060.468368056230247
  9
$TDUPDATE
 40
2459383.8064236110076308
  9
$TDINDWG
 40
1.6368950694
  9
$TDUSRTIMER
 40
1.6368950694
  9
$USRTIMER
 70
     1
  9
$ANGBASE
 50
0.0
  9
$ANGDIR
 70
     0
  9
$PDMODE
 70
     0
  9
$PDSIZE
 40
0.3125
  9
$PLINEWID
 40
0.0
  9
$COORDS
 70
     1
  9
$SPLFRAME
 70
     0
  9
$SPLINETYPE
 70
     6
  9
$SPLINESEGS
 70
     8
  9
$ATTDIA
 70
     1
  9
$ATTREQ
 70
     1
  9
$HANDLING
 70
     1
  9
$HANDSEED
  5
1E5BA
  9
$SURFTAB1
 70
     6
  9
$SURFTAB2
 70
     6
  9
$SURFTYPE
 70
     6
  9
$SURFU
 70
     6
  9
$SURFV
 70
     6
  9
$UCSNAME
  2

  9
$UCSORG
 10
0.0
 20
0.0
 30
0.0
  9
$UCSXDIR
 10
1.0
 20
0.0
 30
0.0
  9
$UCSYDIR
 10
0.0
 20
1.0
 30
0.0
  9
$PUCSNAME
  2

  9
$PUCSORG
 10
0.0
 20
0.0
 30
0.0
  9
$PUCSXDIR
 10
1.0
 20
0.0
 30
0.0
  9
$PUCSYDIR
 10
0.0
 20
1.0
 30
0.0
  9
$USERI1
 70
     0
  9
$USERI2
 70
     0
  9
$USERI3
 70
     0
  9
$USERI4
 70
     0
  9
$USERI5
 70
     0
  9
$USERR1
 40
0.0
  9
$USERR2
 40
0.0
  9
$USERR3
 40
0.0
  9
$USERR4
 40
0.0
  9
$USERR5
 40
0.0
  9
$WORLDVIEW
 70
     1
  9
$SHADEDGE
 70
     3
  9
$SHADEDIF
 70
    70
  9
$TILEMODE
 70
     1
  9
$MAXACTVP
 70
    64
  9
$PLIMCHECK
 70
     0
  9
$PEXTMIN
 10
1.0000000000000000E+20
 20
1.0000000000000000E+20
 30
1.0000000000000000E+20
  9
$PEXTMAX
 10
-1.0000000000000000E+20
 20
-1.0000000000000000E+20
 30
-1.0000000000000000E+20
  9
$PLIMMIN
 10
0.0
 20
0.0
  9
$PLIMMAX
 10
12.0
 20
9.0
  9
$UNITMODE
 70
     0
  9
$VISRETAIN
 70
     1
  9
$PLINEGEN
 70
     0
  9
$PSLTSCALE
 70
     1
  0
ENDSEC
  0
SECTION
  2
TABLES
  0
TABLE
  2
VPORT
 70
     1
  0
VPORT
  2
*ACTIVE
 70
     0
 10
0.0
 20
0.0
 11
1.0
 21
1.0
 12
874.3649290658066775
 22
406.0470177052787903
 13
0.0
 23
0.0
 14
1.0
 24
1.0
 15
0.0
 25
0.0
 16
0.0
 26
0.0
 36
60.4960186965801583
 17
3911.3653564453120453
 27
132.5796051025390057
 37
0.0
 40
1.1639253103058891
 41
2.3461538461538458
 42
50.0
 43
0.0
 44
0.0
 50
0.0
 51
0.0
 71
     0
 72
   100
 73
     1
 74
     1
 75
     0
 76
     0
 77
     0
 78
     0
  0
ENDTAB
  0
TABLE
  2
LTYPE
 70
     2
  0
LTYPE
  2
CONTINUOUS
 70
     0
  3
Solid line
 72
    65
 73
     0
 40
0.0
  0
LTYPE
  2
PHANTOM2
 70
     0
  3
___ _ _ ___ _ _ ___ _ _ ___ _ _
 72
    65
 73
     6
 40
1.25
 49
0.625
 49
-0.125
 49
0.125
 49
-0.125
 49
0.125
 49
-0.125
  0
ENDTAB
  0
TABLE
  2
LAYER
 70
     2
  0
LAYER
  2
0
 70
     0
 62
   255
  6
CONTINUOUS
  0
LAYER
  2
DEFPOINTS
 70
     0
 62
     7
  6
CONTINUOUS
  0
ENDTAB
  0
TABLE
  2
STYLE
 70
     1
  0
STYLE
  2
STANDARD
 70
     0
 40
0.0
 41
0.8
 50
0.0
 71
     0
 42
0.2
  3
txt
  4

  0
ENDTAB
  0
TABLE
  2
VIEW
 70
     0
  0
ENDTAB
  0
TABLE
  2
UCS
 70
     0
  0
ENDTAB
  0
TABLE
  2
APPID
 70
    11
  0
APPID
  2
ACAD
 70
     0
  0
APPID
  2
ACAD_MLEADERVER
 70
     0
  0
APPID
  2
ACAD_EXEMPT_FROM_CAD_STANDARDS
 70
     0
  0
APPID
  2
ACAD_NAV_VCDISPLAY
 70
     0
  0
APPID
  2
ACAECLAYERSTANDARD
 70
     0
  0
APPID
  2
ACCMTRANSPARENCY
 70
     0
  0
APPID
  2
ACAD_DSTYLE_DIMJAG
 70
     0
  0
APPID
  2
ACAD_DSTYLE_DIMTALN
 70
     0
  0
APPID
  2
ACDBATTR
 70
     0
  0
APPID
  2
ACADANNOTATIVE
 70
     0
  0
APPID
  2
DCO15
 70
     0
  0
ENDTAB
  0
TABLE
  2
DIMSTYLE
 70
     1
  0
DIMSTYLE
  2
STANDARD
 70
     0
  3

  4

  5

  6

  7

 40
1.0
 41
0.1875
 42
0.0625
 43
0.38
 44
0.125
 45
0.0
 46
0.0
 47
0.01
 48
0.01
140
0.15625
141
0.09
142
0.0
143
25.3999999999999986
144
1.0
145
0.0
146
1.0
147
0.09
 71
     1
 72
     0
 73
     1
 74
     1
 75
     0
 76
     0
 77
     0
 78
     4
170
     0
171
     2
172
     0
173
     0
174
     0
175
     0
176
     0
177
     0
178
     0
  0
ENDTAB
  0
ENDSEC
  0
SECTION
  2
BLOCKS
  0
BLOCK
  8
0
  2
$MODEL_SPACE
 70
     0
 10
0.0
 20
0.0
 30
0.0
  3
$MODEL_SPACE
  1

  0
ENDBLK
  5
21
  8
0
  0
BLOCK
 67
     1
  8
0
  2
$PAPER_SPACE
 70
     0
 10
0.0
 20
0.0
 30
0.0
  3
$PAPER_SPACE
  1

  0
ENDBLK
  5
1D
 67
     1
  8
0
  0
ENDSEC
  0
SECTION
  2
ENTITIES
  0
ATTDEF
  5
159BF
  8
DEFPOINTS
 10
4787.0805364544248732
 20
538.6299590045741752
 30
0.0
 40
0.001
  1
K-37059T
  3

  2
MODELNUMBER
 70
     0
1001
ACDBATTR
1070
     0
1070
     1
  0
ATTDEF
  5
159C0
  8
DEFPOINTS
 10
4787.0805364544248732
 20
538.6282921641950452
 30
0.0
 40
0.001
  1
AIRFOIL
  3

  2
TRADENAME
 70
     0
1001
ACDBATTR
1070
     0
1070
     1
  0
ATTDEF
  5
159C1
  8
DEFPOINTS
 10
4787.0805364544248732
 20
538.6266256712408449
 30
0.0
 40
0.001
  1
TOWEL BAR
  3

  2
PRODUCT
 70
     0
1001
ACDBATTR
1070
     0
1070
     1
  0
LINE
  5
1E51E
  8
0
 10
4787.0805344625450743
 20
539.0389370283664903
 30
0.0
 11
4787.0805344625450743
 21
538.2143085872666006
 31
0.0
  0
ARC
  5
1E51F
  8
0
 10
4819.240979414586036
 20
116.4546645172497961
 30
0.0
 40
423.8062783787694912
 50
94.352061180328576
 51
94.4283362612635955
  0
ARC
  5
1E520
  8
0
 10
4801.2010934593436104
 20
352.2522647188142173
 30
0.0
 40
187.319839355493599
 50
94.495750896952643
 51
94.6672472569480448
  0
ARC
  5
1E521
  8
0
 10
4788.2976683824317661
 20
509.1571459915140281
 30
0.0
 40
29.8854550135670891
 50
94.4880285115948055
 51
96.091573889408366
  0
ARC
  5
1E522
  8
0
 10
4786.6264571647598132
 20
524.7866043462764765
 30
0.0
 40
14.1669024830646499
 50
96.0785896458024524
 51
97.4856540808324752
  0
ARC
  5
1E523
  8
0
 10
4784.9311367949121632
 20
537.85641724886068
 30
0.0
 40
0.9878554225868668
 50
98.7522701303619783
 51
122.2131171007038972
  0
ARC
  5
1E524
  8
0
 10
4819.2409794113409589
 20
960.7985810561534663
 30
0.0
 40
423.806278336415005
 50
265.5716637387363903
 51
265.647938819671424
  0
ARC
  5
1E525
  8
0
 10
4801.2010934593436104
 20
725.000980896819101
 30
0.0
 40
187.319839355493599
 50
265.3327527430520263
 51
265.5042491030473002
  0
ARC
  5
1E526
  8
0
 10
4788.2976683824317661
 20
568.0960996241192333
 30
0.0
 40
29.8854550135670891
 50
263.9084261105916767
 51
265.511971488405095
  0
ARC
  5
1E527
  8
0
 10
4786.6264571647598132
 20
552.4666412693567281
 30
0.0
 40
14.1669024830646499
 50
262.5143459191676243
 51
263.921410354197576
  0
ARC
  5
1E528
  8
0
 10
4784.9311367949121632
 20
539.3968283667724108
 30
0.0
 40
0.9878554225868668
 50
237.7868828992961028
 51
261.2477298696380217
  0
ARC
  5
1E529
  8
0
 10
4784.4481109461339656
 20
538.6266228078166023
 30
0.0
 40
0.0787430449884615
 50
123.5951888765337969
 51
236.4048111234679936
  0
ARC
  5
1E52B
  8
0
 10
4786.5914893051931358
 20
537.7348314616539255
 30
0.0
 40
0.5754933331729337
 50
80.5968682495541486
 51
91.7650941798635529
  0
ARC
  5
1E52C
  8
0
 10
4786.6816026247297486
 20
539.0893849996718927
 30
0.0
 40
0.8198198037715791
 50
261.7818407702300192
 51
270.4686000787630746
  0
ARC
  5
1E52D
  8
0
 10
4786.6752026583881161
 20
538.8756464616679978
 30
0.0
 40
0.5866585086512429
 50
261.4707287433186025
 51
269.8759888526072928
  0
LINE
  5
1E52E
  8
0
 10
4786.5256115994252468
 20
538.3037888882665811
 30
0.0
 11
4786.6779764327247904
 21
538.3037888882665811
 31
0.0
  0
ARC
  5
1E52F
  8
0
 10
4786.5936953512418768
 20
537.9685674219816747
 30
0.0
 40
0.3420655327852233
 50
93.3405402173514744
 51
103.0905271197987929
  0
ARC
  5
1E530
  8
0
 10
4786.6570360011219236
 20
538.1105114033506425
 30
0.0
 40
0.1941801330559902
 50
65.0894333166306751
 51
81.5669156188470339
  0
ARC
  5
1E531
  8
0
 10
4786.6883521596746505
 20
538.4688205725320813
 30
0.0
 40
0.1992279630182733
 50
269.987167844000794
 51
284.4757362677937067
  0
ARC
  5
1E532
  8
0
 10
4786.6785283717836137
 20
538.4339914313559348
 30
0.0
 40
0.1450749069876182
 50
268.1847616663382041
 51
286.1091265332249804
  0
ARC
  5
1E533
  8
0
 10
4786.6321371206331605
 20
538.5967976642261874
 30
0.0
 40
0.3045089583287963
 50
254.2033015035729022
 51
261.7025169784097898
  0
ARC
  5
1E534
  8
0
 10
4786.5958298516761715
 20
538.5085319047590247
 30
0.0
 40
0.2326783784294184
 50
249.7678863439122949
 51
262.240674242155194
  0
ARC
  5
1E535
  8
0
 10
4786.5181605104908158
 20
538.2958009795397629
 30
0.0
 40
0.0062513979704902
 50
108.0760257646227984
 51
243.4272287065714124
  0
ARC
  5
1E536
  8
0
 10
4786.7364278773293336
 20
538.281401188918835
 30
0.0
 40
0.0057488055667151
 50
287.4644183548861065
 51
65.3531001775079261
  0
LINE
  5
1E537
  8
0
 10
4787.0805344625450743
 20
538.6266228078166023
 30
0.0
 11
4784.3693679011439599
 21
538.6266228078166023
 31
0.0
  0
ENDSEC
  0
EOF
