  0
SECTION
  2
HEADER
  9
$ACADVER
  1
AC1009
  9
$INSBASE
 10
4788.2587966087739915
 20
545.9658608385010439
 30
0.0
  9
$EXTMIN
 10
4783.7759764934726263
 20
545.5535793181011286
 30
0.0
  9
$EXTMAX
 10
4788.2694648407259592
 20
546.3781423589010728
 30
0.0
  9
$LIMMIN
 10
0.0
 20
0.0
  9
$LIMMAX
 10
11.6929133858000007
 20
8.2677165353999982
  9
$ORTHOMODE
 70
     0
  9
$REGENMODE
 70
     1
  9
$FILLMODE
 70
     1
  9
$QTEXTMODE
 70
     0
  9
$MIRRTEXT
 70
     0
  9
$DRAGMODE
 70
     2
  9
$LTSCALE
 40
0.6431102362
  9
$OSMODE
 70
     7
  9
$ATTMODE
 70
     1
  9
$TEXTSIZE
 40
0.2
  9
$TRACEWID
 40
0.05
  9
$TEXTSTYLE
  7
STANDARD
  9
$CLAYER
  8
0
  9
$CELTYPE
  6
BYLAYER
  9
$CECOLOR
 62
   256
  9
$DIMSCALE
 40
1.0
  9
$DIMASZ
 40
0.1875
  9
$DIMEXO
 40
0.0625
  9
$DIMDLI
 40
0.4443307087
  9
$DIMRND
 40
0.0
  9
$DIMDLE
 40
0.0
  9
$DIMEXE
 40
0.125
  9
$DIMTP
 40
0.01
  9
$DIMTM
 40
0.01
  9
$DIMTXT
 40
2.0
  9
$DIMCEN
 40
0.1052362205
  9
$DIMTSZ
 40
0.0
  9
$DIMTOL
 70
     1
  9
$DIMLIM
 70
     0
  9
$DIMTIH
 70
     1
  9
$DIMTOH
 70
     1
  9
$DIMSE1
 70
     0
  9
$DIMSE2
 70
     0
  9
$DIMTAD
 70
     0
  9
$DIMZIN
 70
     0
  9
$DIMBLK
  1

  9
$DIMASO
 70
     1
  9
$DIMSHO
 70
     1
  9
$DIMPOST
  1
\X
  9
$DIMAPOST
  1

  9
$DIMALT
 70
     1
  9
$DIMALTD
 70
     2
  9
$DIMALTF
 40
25.3999999999999986
  9
$DIMLFAC
 40
1.0
  9
$DIMTOFL
 70
     0
  9
$DIMTVP
 40
0.0
  9
$DIMTIX
 70
     0
  9
$DIMSOXD
 70
     0
  9
$DIMSAH
 70
     0
  9
$DIMBLK1
  1

  9
$DIMBLK2
  1

  9
$DIMSTYLE
  2
STANDARD
  9
$DIMCLRD
 70
     0
  9
$DIMCLRE
 70
     0
  9
$DIMCLRT
 70
     0
  9
$DIMTFAC
 40
1.0
  9
$DIMGAP
 40
0.09
  9
$LUNITS
 70
     2
  9
$LUPREC
 70
     4
  9
$SKETCHINC
 40
0.1
  9
$FILLETRAD
 40
0.0
  9
$AUNITS
 70
     0
  9
$AUPREC
 70
     0
  9
$MENU
  1
.
  9
$ELEVATION
 40
0.0
  9
$PELEVATION
 40
0.0
  9
$THICKNESS
 40
0.0
  9
$LIMCHECK
 70
     0
  9
$BLIPMODE
 70
     0
  9
$CHAMFERA
 40
0.0
  9
$CHAMFERB
 40
0.0
  9
$SKPOLY
 70
     0
  9
$TDCREATE
 40
2458060.468368056230247
  9
$TDUPDATE
 40
2459383.9102314817719162
  9
$TDINDWG
 40
1.6570571064999999
  9
$TDUSRTIMER
 40
1.6570571064999999
  9
$USRTIMER
 70
     1
  9
$ANGBASE
 50
0.0
  9
$ANGDIR
 70
     0
  9
$PDMODE
 70
     0
  9
$PDSIZE
 40
0.3125
  9
$PLINEWID
 40
0.0
  9
$COORDS
 70
     1
  9
$SPLFRAME
 70
     0
  9
$SPLINETYPE
 70
     6
  9
$SPLINESEGS
 70
     8
  9
$ATTDIA
 70
     1
  9
$ATTREQ
 70
     1
  9
$HANDLING
 70
     1
  9
$HANDSEED
  5
1E87E
  9
$SURFTAB1
 70
     6
  9
$SURFTAB2
 70
     6
  9
$SURFTYPE
 70
     6
  9
$SURFU
 70
     6
  9
$SURFV
 70
     6
  9
$UCSNAME
  2

  9
$UCSORG
 10
0.0
 20
0.0
 30
0.0
  9
$UCSXDIR
 10
1.0
 20
0.0
 30
0.0
  9
$UCSYDIR
 10
0.0
 20
1.0
 30
0.0
  9
$PUCSNAME
  2

  9
$PUCSORG
 10
0.0
 20
0.0
 30
0.0
  9
$PUCSXDIR
 10
1.0
 20
0.0
 30
0.0
  9
$PUCSYDIR
 10
0.0
 20
1.0
 30
0.0
  9
$USERI1
 70
     0
  9
$USERI2
 70
     0
  9
$USERI3
 70
     0
  9
$USERI4
 70
     0
  9
$USERI5
 70
     0
  9
$USERR1
 40
0.0
  9
$USERR2
 40
0.0
  9
$USERR3
 40
0.0
  9
$USERR4
 40
0.0
  9
$USERR5
 40
0.0
  9
$WORLDVIEW
 70
     1
  9
$SHADEDGE
 70
     3
  9
$SHADEDIF
 70
    70
  9
$TILEMODE
 70
     1
  9
$MAXACTVP
 70
    64
  9
$PLIMCHECK
 70
     0
  9
$PEXTMIN
 10
1.0000000000000000E+20
 20
1.0000000000000000E+20
 30
1.0000000000000000E+20
  9
$PEXTMAX
 10
-1.0000000000000000E+20
 20
-1.0000000000000000E+20
 30
-1.0000000000000000E+20
  9
$PLIMMIN
 10
0.0
 20
0.0
  9
$PLIMMAX
 10
12.0
 20
9.0
  9
$UNITMODE
 70
     0
  9
$VISRETAIN
 70
     1
  9
$PLINEGEN
 70
     0
  9
$PSLTSCALE
 70
     1
  0
ENDSEC
  0
SECTION
  2
TABLES
  0
TABLE
  2
VPORT
 70
     1
  0
VPORT
  2
*ACTIVE
 70
     0
 10
0.0
 20
0.0
 11
1.0
 21
1.0
 12
874.6573642217872475
 22
413.3862557359620951
 13
0.0
 23
0.0
 14
1.0
 24
1.0
 15
0.0
 25
0.0
 16
0.0
 26
0.0
 36
60.4960186965801583
 17
3911.3653564453120453
 27
132.5796051025390057
 37
0.0
 40
1.921528820186946
 41
2.3461538461538458
 42
50.0
 43
0.0
 44
0.0
 50
0.0
 51
0.0
 71
     0
 72
   100
 73
     1
 74
     1
 75
     0
 76
     0
 77
     0
 78
     0
  0
ENDTAB
  0
TABLE
  2
LTYPE
 70
     2
  0
LTYPE
  2
CONTINUOUS
 70
     0
  3
Solid line
 72
    65
 73
     0
 40
0.0
  0
LTYPE
  2
PHANTOM2
 70
     0
  3
___ _ _ ___ _ _ ___ _ _ ___ _ _
 72
    65
 73
     6
 40
1.25
 49
0.625
 49
-0.125
 49
0.125
 49
-0.125
 49
0.125
 49
-0.125
  0
ENDTAB
  0
TABLE
  2
LAYER
 70
     2
  0
LAYER
  2
0
 70
     0
 62
   255
  6
CONTINUOUS
  0
LAYER
  2
DEFPOINTS
 70
     0
 62
     7
  6
CONTINUOUS
  0
ENDTAB
  0
TABLE
  2
STYLE
 70
     1
  0
STYLE
  2
STANDARD
 70
     0
 40
0.0
 41
0.8
 50
0.0
 71
     0
 42
0.2
  3
txt
  4

  0
ENDTAB
  0
TABLE
  2
VIEW
 70
     0
  0
ENDTAB
  0
TABLE
  2
UCS
 70
     0
  0
ENDTAB
  0
TABLE
  2
APPID
 70
    11
  0
APPID
  2
ACAD
 70
     0
  0
APPID
  2
ACAD_MLEADERVER
 70
     0
  0
APPID
  2
ACAD_EXEMPT_FROM_CAD_STANDARDS
 70
     0
  0
APPID
  2
ACAD_NAV_VCDISPLAY
 70
     0
  0
APPID
  2
ACAECLAYERSTANDARD
 70
     0
  0
APPID
  2
ACCMTRANSPARENCY
 70
     0
  0
APPID
  2
ACAD_DSTYLE_DIMJAG
 70
     0
  0
APPID
  2
ACAD_DSTYLE_DIMTALN
 70
     0
  0
APPID
  2
ACDBATTR
 70
     0
  0
APPID
  2
ACADANNOTATIVE
 70
     0
  0
APPID
  2
DCO15
 70
     0
  0
ENDTAB
  0
TABLE
  2
DIMSTYLE
 70
     1
  0
DIMSTYLE
  2
STANDARD
 70
     0
  3

  4

  5

  6

  7

 40
1.0
 41
0.1875
 42
0.0625
 43
0.38
 44
0.125
 45
0.0
 46
0.0
 47
0.01
 48
0.01
140
0.15625
141
0.09
142
0.0
143
25.3999999999999986
144
1.0
145
0.0
146
1.0
147
0.09
 71
     1
 72
     0
 73
     1
 74
     1
 75
     0
 76
     0
 77
     0
 78
     4
170
     0
171
     2
172
     0
173
     0
174
     0
175
     0
176
     0
177
     0
178
     0
  0
ENDTAB
  0
ENDSEC
  0
SECTION
  2
BLOCKS
  0
BLOCK
  8
0
  2
$MODEL_SPACE
 70
     0
 10
0.0
 20
0.0
 30
0.0
  3
$MODEL_SPACE
  1

  0
ENDBLK
  5
21
  8
0
  0
BLOCK
 67
     1
  8
0
  2
$PAPER_SPACE
 70
     0
 10
0.0
 20
0.0
 30
0.0
  3
$PAPER_SPACE
  1

  0
ENDBLK
  5
1D
 67
     1
  8
0
  0
ENDSEC
  0
SECTION
  2
ENTITIES
  0
ATTDEF
  5
159BF
  8
DEFPOINTS
 10
4788.2587981740571195
 20
545.9691955930403537
 30
0.0
 40
0.001
  1
K-37061X
  3

  2
MODELNUMBER
 70
     0
1001
ACDBATTR
1070
     0
1070
     1
  0
ATTDEF
  5
159C0
  8
DEFPOINTS
 10
4788.2587981740571195
 20
545.9675287526613374
 30
0.0
 40
0.001
  1
AIRFOIL
  3

  2
TRADENAME
 70
     0
1001
ACDBATTR
1070
     0
1070
     1
  0
ATTDEF
  5
159C1
  8
DEFPOINTS
 10
4788.2587981740571195
 20
545.9658622597071371
 30
0.0
 40
0.001
  1
TOWEL BAR
  3

  2
PRODUCT
 70
     0
1001
ACDBATTR
1070
     0
1070
     1
  0
LINE
  5
1E79C
  8
0
 10
4788.2587966087739915
 20
546.3781423589010728
 30
0.0
 11
4788.2587966087739915
 21
545.5535793181011286
 31
0.0
  0
LINE
  5
1E79D
  8
0
 10
4786.4091528701737843
 20
546.3781423589010728
 30
0.0
 11
4788.2587966087739915
 21
546.3781423589010728
 31
0.0
  0
LINE
  5
1E79E
  8
0
 10
4786.4091528701737843
 20
545.5535793181011286
 30
0.0
 11
4788.2587966087739915
 21
545.5535793181011286
 31
0.0
  0
ARC
  5
1E79F
  8
0
 10
4786.8523857298550865
 20
521.4911616108828412
 30
0.0
 40
24.8909273856988804
 50
91.0203201391513943
 51
91.9519953394774774
  0
ARC
  5
1E7A0
  8
0
 10
4786.4848524724739036
 20
531.6970668698987765
 30
0.0
 40
14.6784386704036809
 50
91.875157518677625
 51
96.0905046528410622
  0
ARC
  5
1E7A1
  8
0
 10
4785.7306647771265489
 20
538.6515233415644843
 30
0.0
 40
7.683227045998084
 50
96.0005114561797654
 51
101.4092882122894963
  0
ARC
  5
1E7A2
  8
0
 10
4784.4574315886438853
 20
544.9262728826912507
 30
0.0
 40
1.2806240563226201
 50
101.1039077295150008
 51
120.2977967235722048
  0
ARC
  5
1E7A3
  8
0
 10
4786.852385729855996
 20
570.4405600661631297
 30
0.0
 40
24.890927385742561
 50
268.0480046605225084
 51
268.9796798608485915
  0
ARC
  5
1E7A4
  8
0
 10
4786.4848524724739036
 20
560.2346548071036523
 30
0.0
 40
14.6784386704036809
 50
263.9094953471590088
 51
268.1248424813223892
  0
ARC
  5
1E7A5
  8
0
 10
4785.7306647771265489
 20
553.2801983354379445
 30
0.0
 40
7.683227045998084
 50
258.5907117877105179
 51
263.9994885438201777
  0
ARC
  5
1E7A6
  8
0
 10
4784.4574315886438853
 20
547.0054487943110644
 30
0.0
 40
1.2806240563226201
 50
239.7022032764278094
 51
258.896092270484985
  0
ARC
  5
1E7A7
  8
0
 10
4783.8554452729204058
 20
545.9658608385010439
 30
0.0
 40
0.0794687794465774
 50
123.6900934294323946
 51
236.3099065705692965
  0
ARC
  5
1E7A8
  8
0
 10
4787.806375094991381
 20
545.1353429085600055
 30
0.0
 40
0.4903676771385341
 50
81.6630886442635244
 51
99.0835144563146173
  0
ARC
  5
1E7A9
  8
0
 10
4787.8064056025568789
 20
546.2799132419730768
 30
0.0
 40
0.6980020427360858
 50
264.2930801523340847
 51
275.1444799541347948
  0
ARC
  5
1E7AA
  8
0
 10
4787.806292118231795
 20
546.0947553868240902
 30
0.0
 40
0.4933807501114372
 50
263.6033742836959846
 51
275.7874329195103087
  0
ARC
  5
1E7AB
  8
0
 10
4787.7640438575508597
 20
545.7287574366052922
 30
0.0
 40
0.124960282040191
 50
245.0955348264292866
 51
264.15784440000931
  0
ARC
  5
1E7AC
  8
0
 10
4787.8450459455307282
 20
545.7383880535130629
 30
0.0
 40
0.1349474662786493
 50
274.6745874001530865
 51
294.2838791645501146
  0
ARC
  5
1E7AD
  8
0
 10
4787.9188305917014077
 20
545.6018598212124289
 30
0.0
 40
0.0053433601016772
 50
296.9672106737314152
 51
58.5117863796560229
  0
ARC
  5
1E7AE
  8
0
 10
4787.8613328782421377
 20
545.4939262793138823
 30
0.0
 40
0.1276273569156549
 50
61.811069034421358
 51
82.7337196323413337
  0
ARC
  5
1E7AF
  8
0
 10
4787.8576820857997518
 20
545.7490331079826547
 30
0.0
 40
0.1646990889901204
 50
273.9382071660028828
 51
292.7049935432863776
  0
ARC
  5
1E7B0
  8
0
 10
4787.6929646729995511
 20
545.6019331020195295
 30
0.0
 40
0.0050367182842537
 50
125.5086641586266012
 51
231.1145136373382059
  0
ARC
  5
1E7B1
  8
0
 10
4787.7463569166120578
 20
545.5067572645161817
 30
0.0
 40
0.1141375526956328
 50
98.7678354641606404
 51
119.5655881188427969
  0
ARC
  5
1E7B2
  8
0
 10
4787.748401960632691
 20
545.7223612399817512
 30
0.0
 40
0.1374644289558724
 50
244.7679070071588967
 51
265.2406118577217171
  0
ARC
  5
1E7B3
  8
0
 10
4786.3194469056188609
 20
545.2834129678656154
 30
0.0
 40
0.3385162051686049
 50
74.1666727250111677
 51
101.867117934048494
  0
ARC
  5
1E7B4
  8
0
 10
4786.33877711635796
 20
545.9601002749262761
 30
0.0
 40
0.3720111662003478
 50
255.7354884675233961
 51
281.406141871882312
  0
ARC
  5
1E7B5
  8
0
 10
4786.410026660533731
 20
545.6021799852758249
 30
0.0
 40
0.0071316562335292
 50
288.9867815500604138
 51
75.5386102316655439
  0
ARC
  5
1E7B6
  8
0
 10
4786.2506999972756603
 20
545.6067264335597429
 30
0.0
 40
0.0080146599567875
 50
96.2061913610084218
 51
243.4212935943963885
  0
LINE
  5
1E7B8
  8
0
 10
4788.2587966087739915
 20
545.9658608385010439
 30
0.0
 11
4783.7759764934726263
 21
545.9658608385010439
 31
0.0
  0
ENDSEC
  0
EOF
