  0
SECTION
  2
HEADER
  9
$ACADVER
  1
AC1009
  9
$INSBASE
 10
4490.8557938326048316
 20
271.2774182879697946
 30
0.0
  9
$EXTMIN
 10
4486.5421280534701509
 20
271.2652232024919954
 30
-0.0000000000000058
  9
$EXTMAX
 10
4498.8521937345385595
 20
277.5359775983646955
 30
0.0000000000000104
  9
$LIMMIN
 10
0.0
 20
0.0
  9
$LIMMAX
 10
11.6929133858000007
 20
8.2677165353999982
  9
$ORTHOMODE
 70
     0
  9
$REGENMODE
 70
     1
  9
$FILLMODE
 70
     1
  9
$QTEXTMODE
 70
     0
  9
$MIRRTEXT
 70
     0
  9
$DRAGMODE
 70
     2
  9
$LTSCALE
 40
0.6431102362
  9
$OSMODE
 70
   311
  9
$ATTMODE
 70
     1
  9
$TEXTSIZE
 40
0.2
  9
$TRACEWID
 40
0.05
  9
$TEXTSTYLE
  7
STANDARD
  9
$CLAYER
  8
0
  9
$CELTYPE
  6
BYLAYER
  9
$CECOLOR
 62
   256
  9
$DIMSCALE
 40
1.0
  9
$DIMASZ
 40
0.1875
  9
$DIMEXO
 40
0.0625
  9
$DIMDLI
 40
0.4443307087
  9
$DIMRND
 40
0.0
  9
$DIMDLE
 40
0.0
  9
$DIMEXE
 40
0.125
  9
$DIMTP
 40
0.01
  9
$DIMTM
 40
0.01
  9
$DIMTXT
 40
2.0
  9
$DIMCEN
 40
0.1052362205
  9
$DIMTSZ
 40
0.0
  9
$DIMTOL
 70
     1
  9
$DIMLIM
 70
     0
  9
$DIMTIH
 70
     1
  9
$DIMTOH
 70
     1
  9
$DIMSE1
 70
     0
  9
$DIMSE2
 70
     0
  9
$DIMTAD
 70
     0
  9
$DIMZIN
 70
     0
  9
$DIMBLK
  1

  9
$DIMASO
 70
     1
  9
$DIMSHO
 70
     1
  9
$DIMPOST
  1
\X
  9
$DIMAPOST
  1

  9
$DIMALT
 70
     1
  9
$DIMALTD
 70
     2
  9
$DIMALTF
 40
25.3999999999999986
  9
$DIMLFAC
 40
1.0
  9
$DIMTOFL
 70
     0
  9
$DIMTVP
 40
0.0
  9
$DIMTIX
 70
     0
  9
$DIMSOXD
 70
     0
  9
$DIMSAH
 70
     0
  9
$DIMBLK1
  1

  9
$DIMBLK2
  1

  9
$DIMSTYLE
  2
STANDARD
  9
$DIMCLRD
 70
     0
  9
$DIMCLRE
 70
     0
  9
$DIMCLRT
 70
     0
  9
$DIMTFAC
 40
1.0
  9
$DIMGAP
 40
0.09
  9
$LUNITS
 70
     2
  9
$LUPREC
 70
     4
  9
$SKETCHINC
 40
0.1
  9
$FILLETRAD
 40
0.0
  9
$AUNITS
 70
     0
  9
$AUPREC
 70
     0
  9
$MENU
  1
.
  9
$ELEVATION
 40
0.0
  9
$PELEVATION
 40
0.0
  9
$THICKNESS
 40
0.0
  9
$LIMCHECK
 70
     0
  9
$BLIPMODE
 70
     0
  9
$CHAMFERA
 40
0.0
  9
$CHAMFERB
 40
0.0
  9
$SKPOLY
 70
     0
  9
$TDCREATE
 40
2458060.468368056230247
  9
$TDUPDATE
 40
2459366.1273726848885417
  9
$TDINDWG
 40
0.5343704861
  9
$TDUSRTIMER
 40
0.5343704861
  9
$USRTIMER
 70
     1
  9
$ANGBASE
 50
0.0
  9
$ANGDIR
 70
     0
  9
$PDMODE
 70
     0
  9
$PDSIZE
 40
0.3125
  9
$PLINEWID
 40
0.0
  9
$COORDS
 70
     2
  9
$SPLFRAME
 70
     0
  9
$SPLINETYPE
 70
     6
  9
$SPLINESEGS
 70
     8
  9
$ATTDIA
 70
     1
  9
$ATTREQ
 70
     1
  9
$HANDLING
 70
     1
  9
$HANDSEED
  5
218E8
  9
$SURFTAB1
 70
     6
  9
$SURFTAB2
 70
     6
  9
$SURFTYPE
 70
     6
  9
$SURFU
 70
     6
  9
$SURFV
 70
     6
  9
$UCSNAME
  2

  9
$UCSORG
 10
0.0
 20
0.0
 30
0.0
  9
$UCSXDIR
 10
1.0
 20
0.0
 30
0.0
  9
$UCSYDIR
 10
0.0
 20
1.0
 30
0.0
  9
$PUCSNAME
  2

  9
$PUCSORG
 10
0.0
 20
0.0
 30
0.0
  9
$PUCSXDIR
 10
1.0
 20
0.0
 30
0.0
  9
$PUCSYDIR
 10
0.0
 20
1.0
 30
0.0
  9
$USERI1
 70
     0
  9
$USERI2
 70
     0
  9
$USERI3
 70
     0
  9
$USERI4
 70
     0
  9
$USERI5
 70
     0
  9
$USERR1
 40
0.0
  9
$USERR2
 40
0.0
  9
$USERR3
 40
0.0
  9
$USERR4
 40
0.0
  9
$USERR5
 40
0.0
  9
$WORLDVIEW
 70
     1
  9
$SHADEDGE
 70
     3
  9
$SHADEDIF
 70
    70
  9
$TILEMODE
 70
     1
  9
$MAXACTVP
 70
    64
  9
$PLIMCHECK
 70
     0
  9
$PEXTMIN
 10
1.0000000000000000E+20
 20
1.0000000000000000E+20
 30
1.0000000000000000E+20
  9
$PEXTMAX
 10
-1.0000000000000000E+20
 20
-1.0000000000000000E+20
 30
-1.0000000000000000E+20
  9
$PLIMMIN
 10
0.0
 20
0.0
  9
$PLIMMAX
 10
12.0
 20
9.0
  9
$UNITMODE
 70
     0
  9
$VISRETAIN
 70
     1
  9
$PLINEGEN
 70
     0
  9
$PSLTSCALE
 70
     1
  0
ENDSEC
  0
SECTION
  2
TABLES
  0
TABLE
  2
VPORT
 70
     1
  0
VPORT
  2
*ACTIVE
 70
     0
 10
0.0
 20
0.0
 11
1.0
 21
1.0
 12
581.3318042686728404
 22
141.820995243832499
 13
0.0
 23
0.0
 14
1.0
 24
1.0
 15
0.0
 25
0.0
 16
0.0
 26
0.0
 36
60.4960186965801583
 17
3911.3653564453120453
 27
132.5796051025390057
 37
0.0
 40
9.1220278724654502
 41
2.5843270868824528
 42
50.0
 43
0.0
 44
0.0
 50
0.0
 51
0.0
 71
     0
 72
   100
 73
     1
 74
     1
 75
     0
 76
     0
 77
     0
 78
     0
  0
ENDTAB
  0
TABLE
  2
LTYPE
 70
     2
  0
LTYPE
  2
CONTINUOUS
 70
     0
  3
Solid line
 72
    65
 73
     0
 40
0.0
  0
LTYPE
  2
PHANTOM2
 70
     0
  3
___ _ _ ___ _ _ ___ _ _ ___ _ _
 72
    65
 73
     6
 40
1.25
 49
0.625
 49
-0.125
 49
0.125
 49
-0.125
 49
0.125
 49
-0.125
  0
ENDTAB
  0
TABLE
  2
LAYER
 70
     2
  0
LAYER
  2
0
 70
     0
 62
   255
  6
CONTINUOUS
  0
LAYER
  2
DEFPOINTS
 70
     0
 62
     7
  6
CONTINUOUS
  0
ENDTAB
  0
TABLE
  2
STYLE
 70
     1
  0
STYLE
  2
STANDARD
 70
     0
 40
0.0
 41
0.8
 50
0.0
 71
     0
 42
0.2
  3
txt
  4

  0
ENDTAB
  0
TABLE
  2
VIEW
 70
     1
  0
ENDTAB
  0
TABLE
  2
UCS
 70
     0
  0
ENDTAB
  0
TABLE
  2
APPID
 70
    11
  0
APPID
  2
ACAD
 70
     0
  0
APPID
  2
ACAD_MLEADERVER
 70
     0
  0
APPID
  2
ACAD_EXEMPT_FROM_CAD_STANDARDS
 70
     0
  0
APPID
  2
ACAD_NAV_VCDISPLAY
 70
     0
  0
APPID
  2
ACAECLAYERSTANDARD
 70
     0
  0
APPID
  2
ACCMTRANSPARENCY
 70
     0
  0
APPID
  2
ACAD_DSTYLE_DIMJAG
 70
     0
  0
APPID
  2
ACAD_DSTYLE_DIMTALN
 70
     0
  0
APPID
  2
ACDBATTR
 70
     0
  0
APPID
  2
ACADANNOTATIVE
 70
     0
  0
APPID
  2
DCO15
 70
     0
  0
ENDTAB
  0
TABLE
  2
DIMSTYLE
 70
     1
  0
DIMSTYLE
  2
STANDARD
 70
     0
  3

  4

  5

  6

  7

 40
1.0
 41
0.1875
 42
0.0625
 43
0.38
 44
0.125
 45
0.0
 46
0.0
 47
0.01
 48
0.01
140
0.15625
141
0.09
142
0.0
143
25.3999999999999986
144
1.0
145
0.0
146
1.0
147
0.09
 71
     1
 72
     0
 73
     1
 74
     1
 75
     0
 76
     0
 77
     0
 78
     4
170
     0
171
     2
172
     0
173
     0
174
     0
175
     0
176
     0
177
     0
178
     0
  0
ENDTAB
  0
ENDSEC
  0
SECTION
  2
BLOCKS
  0
BLOCK
  8
0
  2
$MODEL_SPACE
 70
     0
 10
0.0
 20
0.0
 30
0.0
  3
$MODEL_SPACE
  1

  0
ENDBLK
  5
21
  8
0
  0
BLOCK
 67
     1
  8
0
  2
$PAPER_SPACE
 70
     0
 10
0.0
 20
0.0
 30
0.0
  3
$PAPER_SPACE
  1

  0
ENDBLK
  5
1D
 67
     1
  8
0
  0
BLOCK
  8
0
  2
_CLOSED
 70
     0
 10
0.0
 20
0.0
 30
0.0
  3
_CLOSED
  1

  0
LINE
  5
21627
  8
0
  6
BYBLOCK
 62
     0
 10
0.0
 20
0.0
 30
0.0
 11
-1.0
 21
0.1666666667
 31
0.0
  0
LINE
  5
21628
  8
0
  6
BYBLOCK
 62
     0
 10
-1.0
 20
0.1666666667
 30
0.0
 11
-1.0
 21
-0.1666666667
 31
0.0
  0
LINE
  5
21629
  8
0
  6
BYBLOCK
 62
     0
 10
-1.0
 20
-0.1666666667
 30
0.0
 11
0.0
 21
0.0
 31
0.0
  0
LINE
  5
2162A
  8
0
  6
BYBLOCK
 62
     0
 10
-1.0
 20
0.0
 30
0.0
 11
0.0
 21
0.0
 31
0.0
  0
ENDBLK
  5
2162B
  8
0
  6
BYBLOCK
 62
     0
  0
ENDSEC
  0
SECTION
  2
ENTITIES
  0
ATTDEF
  5
2159D
  8
DEFPOINTS
 10
4490.855913763703029
 20
271.2763705694533769
 30
0.0
 40
0.001
  1
K-37263T-4
  3

  2
MODELNUMBER
 70
     0
1001
ACDBATTR
1070
     0
1070
     1
  0
ATTDEF
  5
2159E
  8
DEFPOINTS
 10
4490.8557879540448994
 20
271.2747037290743037
 30
0.0
 40
0.001
  1
AIRFOIL
  3

  2
TRADENAME
 70
     0
1001
ACDBATTR
1070
     0
1070
     1
  0
ATTDEF
  5
2159F
  8
DEFPOINTS
 10
4490.855913763703029
 20
271.2730372361201034
 30
0.0
 40
0.001
  1
BATHROOM SINK FAUCET
  3

  2
PRODUCT
 70
     0
1001
ACDBATTR
1070
     0
1070
     1
  0
LINE
  5
2173D
  8
0
 10
4487.958670772755795
 20
276.6897642284583867
 30
0.0
 11
4487.9555995600558163
 21
276.7312280826698156
 31
0.0
  0
LINE
  5
2173E
  8
0
 10
4487.9257345162550337
 20
276.7389449629698106
 30
0.0
 11
4487.9257345162550337
 21
276.7943996781921783
 31
0.0
  0
LINE
  5
2173F
  8
0
 10
4488.0473703182551617
 20
276.6624796598698026
 30
0.0
 11
4488.0473703363122695
 21
276.6821434517195257
 31
0.0
  0
LINE
  5
21740
  8
0
 10
4488.7046712064548046
 20
275.0924819857697798
 30
0.0
 11
4488.6714810770554323
 21
271.2893323825697962
 31
0.0
  0
LINE
  5
21741
  8
0
 10
4488.8810520632550833
 20
275.104189941569814
 30
0.0
 11
4488.8810520632550833
 21
275.1160009651698033
 31
0.0
  0
LINE
  5
21742
  8
0
 10
4496.2838001284553684
 20
271.5283701143698067
 30
0.0
 11
4495.975095385356326
 21
271.4946181701698151
 31
0.0
  0
LINE
  5
21743
  8
0
 10
4488.6832969133556617
 20
271.2774182879697946
 30
0.0
 11
4493.0282907518558204
 21
271.2774182879697946
 31
0.0
  0
LINE
  5
21744
  8
0
 10
4496.4772299034539174
 20
271.5291171415054237
 30
0.0
 11
4496.2838001284553684
 21
271.5283701143698067
 31
0.0
  0
LINE
  5
21745
  8
0
 10
4497.234281648945398
 20
271.5291624309897998
 30
0.0
 11
4496.4772299034539174
 21
271.5291171415054237
 31
0.0
  0
LINE
  5
21746
  8
0
 10
4496.663978655322353
 20
271.6067255261230002
 30
0.0
 11
4497.0476103655682891
 21
271.6067255259698072
 31
0.0
  0
LINE
  5
21747
  8
0
 10
4497.4232060182557689
 20
271.5285928817697823
 30
0.0
 11
4497.234281648945398
 21
271.5291624309897998
 31
0.0
  0
LINE
  5
21748
  8
0
 10
4497.4277877952554263
 20
271.5283773139698269
 30
0.0
 11
4497.4232060182557689
 21
271.5285928817697823
 31
0.0
  0
LINE
  5
21749
  8
0
 10
4497.7487773017110158
 20
271.4929897694826764
 30
0.0
 11
4497.4277877952554263
 21
271.5283773139698269
 31
0.0
  0
LINE
  5
2174A
  8
0
 10
4492.9951066929552326
 20
275.104189941569814
 30
0.0
 11
4488.71648097225534
 21
275.104189941569814
 31
0.0
  0
LINE
  5
2174B
  8
0
 10
4488.7159832739553167
 20
275.1160009651698033
 30
0.0
 11
4492.9956043912488894
 21
275.1160009651698033
 31
0.0
  0
LINE
  5
2174C
  8
0
 10
4495.5814051138549985
 20
271.430762594769817
 30
0.0
 11
4495.5776965879558702
 21
271.4500951469697725
 31
0.0
  0
LINE
  5
2174D
  8
0
 10
4495.0839298553373737
 20
271.3016256427698067
 30
0.0
 11
4495.0839299500366906
 21
271.2872488348697857
 31
0.0
  0
LINE
  5
2174E
  8
0
 10
4489.9418285656556691
 20
277.5209112204283883
 30
0.0
 11
4489.1727736825550892
 21
277.5003979663698033
 31
0.0
  0
LINE
  5
2174F
  8
0
 10
4495.9725094089990307
 20
271.4942736972150783
 30
0.0
 11
4495.9699223853731382
 21
271.5137879918627277
 31
0.0
  0
LINE
  5
21750
  8
0
 10
4496.6786291558546509
 20
271.8328009099698193
 30
0.0
 11
4496.6786291558546509
 21
271.6257558755697801
 31
0.0
  0
LINE
  5
21751
  8
0
 10
4497.0329598645548685
 20
271.6257558752698174
 30
0.0
 11
4497.0329598645548685
 21
271.8328162602697944
 31
0.0
  0
LINE
  5
21752
  8
0
 10
4497.7390770935107867
 20
271.4940591706385931
 30
0.0
 11
4497.7416993570695922
 21
271.5135692796632725
 31
0.0
  0
LINE
  5
21753
  8
0
 10
4498.6276565998250589
 20
271.2872721466698067
 30
0.0
 11
4498.6276565051230136
 21
271.3016486681697756
 31
0.0
  0
LINE
  5
21754
  8
0
 10
4498.1302957324542149
 20
271.4307539856565086
 30
0.0
 11
4498.1338899145548567
 21
271.449312251214792
 31
0.0
  0
ARC
  5
21755
  8
0
 10
4487.8389381873894308
 20
284.7365938639493947
 30
0.0
 40
7.8814570863414133
 50
270.0617743225400886
 51
271.7806198976185215
  0
ARC
  5
21756
  8
0
 10
4488.4799893548552063
 20
282.0127196808697931
 30
0.0
 40
5.2939220156999989
 50
264.3824546506031083
 51
265.0150367587850724
  0
ARC
  5
21757
  8
0
 10
4488.3444204087545586
 20
277.2581523970698072
 30
0.0
 40
0.6882492965000001
 50
236.2003078217182122
 51
239.0498268493051057
  0
ARC
  5
21758
  8
0
 10
4488.3871474881898394
 20
277.2253825866011994
 30
0.0
 40
0.6575015057665797
 50
236.3794764077499053
 51
238.8841503079295876
  0
ARC
  5
21759
  8
0
 10
4488.2838218468550622
 20
277.2186957159697727
 30
0.0
 40
0.6000556351
 50
233.6725626417029105
 51
236.9713318772404023
  0
ARC
  5
2175A
  8
0
 10
4488.1065033279783165
 20
277.0334748512789815
 30
0.0
 40
0.3068988723688112
 50
231.5609360170585944
 51
233.9126808272282858
  0
ARC
  5
2175B
  8
0
 10
4487.993155215556726
 20
276.6959880540090921
 30
0.0
 40
0.0282176007609315
 50
264.5169568170582011
 51
265.8461800897094918
  0
ARC
  5
2175C
  8
0
 10
4491.2205869892750343
 20
336.2298420862575767
 30
0.0
 40
59.7331073693185317
 50
268.0352347182544008
 51
268.8111328053731768
  0
ARC
  5
2175D
  8
0
 10
4490.3419551215392858
 20
424.108933891941092
 30
0.0
 40
147.3644080967052901
 50
269.420061139007089
 51
270.064675667999893
  0
ARC
  5
2175E
  8
0
 10
4496.8006156314513646
 20
264.5432945244489815
 30
0.0
 40
7.0335411533872083
 50
79.0729239212202941
 51
80.6866626111822143
  0
ARC
  5
2175F
  8
0
 10
4496.8960439204256545
 20
264.5711309377418274
 30
0.0
 40
6.9844700344294388
 50
97.5768918497968372
 51
100.8491061864340992
  0
ARC
  5
21760
  8
0
 10
4496.8104863982343886
 20
264.5432020259959245
 30
0.0
 40
7.0128645128591502
 50
79.0510695412365862
 51
80.6851480033323583
  0
ARC
  5
21761
  8
0
 10
4496.8103098385818157
 20
264.6025588047592123
 30
0.0
 40
6.9734892427955533
 50
80.6864610720899833
 51
82.3245547387896153
  0
ARC
  5
21762
  8
0
 10
4496.8204398825846511
 20
264.6042417915414262
 30
0.0
 40
6.95101856329988
 50
80.684672906340154
 51
82.3249779418171101
  0
ARC
  5
21763
  8
0
 10
4496.855794510155647
 20
270.8816691987698277
 30
0.0
 40
0.7500000000000128
 50
59.6919106224236629
 51
75.1817041380153768
  0
ARC
  5
21764
  8
0
 10
4496.855794510155647
 20
270.8816691987698277
 30
0.0
 40
0.750000000000047
 50
104.8182958162207967
 51
120.3149446456242941
  0
ARC
  5
21765
  8
0
 10
4497.05264267945131
 20
271.8328148207953063
 30
0.0
 40
0.0196828149490783
 50
106.5556186419105984
 51
179.9958097552689082
  0
ARC
  5
21766
  8
0
 10
4496.6589441161186187
 20
271.6257558756843196
 30
0.0
 40
0.0196850397362583
 50
284.818302554300999
 51
359.9999996669083089
  0
ARC
  5
21767
  8
0
 10
4497.0526449034932739
 20
271.625755875146524
 30
0.0
 40
0.0196850390377943
 50
179.9999996412049086
 51
255.1817007544204898
  0
LINE
  5
21768
  8
0
 10
4496.6657193093551541
 20
271.8551150671697769
 30
0.0
 11
4496.6647092295552284
 21
271.8516223748698053
 31
0.0
  0
LINE
  5
21769
  8
0
 10
4491.2032871410556254
 20
276.7446196808697891
 30
0.0
 11
4490.5083005241549472
 21
276.7446196808697891
 31
0.0
  0
ARC
  5
2176A
  8
0
 10
4490.8557938326048316
 20
330.6559948067337018
 30
0.0
 40
54.0736618546680603
 50
266.9837400069122282
 51
273.0162599930877718
  0
ARC
  5
2176B
  8
0
 10
4502.2044152116668556
 20
304.5216277408562178
 30
0.0
 40
31.27126268963546
 50
242.9662818558014976
 51
243.0059911173142098
  0
ARC
  5
2176C
  8
0
 10
4488.1453168613297748
 20
276.6782891274021949
 30
0.0
 40
0.1545588762352759
 50
183.8748025562329076
 51
184.1558724602093093
  0
ARC
  5
2176D
  8
0
 10
4490.8557938326048316
 20
328.2903783297908262
 30
0.0
 40
51.7021063003885217
 50
269.4459093606726015
 51
270.5540906393273985
  0
ARC
  5
2176E
  8
0
 10
4490.8590185978382578
 20
328.5957031406841793
 30
0.0
 40
52.0074480199964384
 50
268.7113387270687781
 51
269.4456097532928993
  0
ARC
  5
2176F
  8
0
 10
4490.8691627309326577
 20
329.0357571394159208
 30
0.0
 40
52.447618856973321
 50
268.0146505124333203
 51
268.7110711024228067
  0
ARC
  5
21770
  8
0
 10
4490.8806228535750051
 20
329.3730197610724986
 30
0.0
 40
52.7850760504349381
 50
267.3350960225595827
 51
268.0149011075757244
  0
ARC
  5
21771
  8
0
 10
4490.8826965303724137
 20
329.418704452141526
 30
0.0
 40
52.8308077501981472
 50
266.9235694536549772
 51
267.3351531291526157
  0
ARC
  5
21772
  8
0
 10
4488.7168460060011057
 20
275.0920115251051925
 30
0.0
 40
0.0121838859655232
 50
91.7168597356049844
 51
177.78706781550909
  0
ARC
  5
21773
  8
0
 10
4488.7159855612053434
 20
275.1278120028412104
 30
0.0
 40
0.0118110378928958
 50
176.9000718072549887
 51
269.9889044603852994
  0
ARC
  5
21774
  8
0
 10
4487.8825631984809661
 20
275.1740091010050264
 30
0.0
 40
0.8228907188428125
 50
356.8262631706402885
 51
13.0959127670290698
  0
ARC
  5
21775
  8
0
 10
4487.5328216033121862
 20
275.0932579302407817
 30
0.0
 40
1.181833178336851
 50
13.0671112814546593
 51
32.2626709410786319
  0
ARC
  5
21776
  8
0
 10
4486.865517153152723
 20
274.62094736033049
 30
0.0
 40
1.9986989989401041
 50
33.5006543668604593
 51
51.6635644707826813
  0
ARC
  5
21777
  8
0
 10
4485.761757279477024
 20
273.2684052770375729
 30
0.0
 40
3.7443427345687752
 50
51.2532018722095373
 51
58.6288250676098812
  0
ARC
  5
21778
  8
0
 10
4485.2815267609403236
 20
272.4752674108680139
 30
0.0
 40
4.67153335532974
 50
58.6639622729552599
 51
62.6944613908462287
  0
ARC
  5
21779
  8
0
 10
4485.6462485678248413
 20
273.192667938321506
 30
0.0
 40
3.8667631230106858
 50
62.620149442681587
 51
65.8412493404932917
  0
ARC
  5
2177A
  8
0
 10
4488.8801742750902122
 20
275.1239442430330087
 30
0.0
 40
0.00796207657368
 50
273.9379842132493081
 51
329.1669650017931872
  0
ARC
  5
2177B
  8
0
 10
4488.8737427565083635
 20
275.1279982362066221
 30
0.0
 40
0.0155635141816422
 50
328.4872776087947841
 51
13.94345517625257
  0
ARC
  5
2177C
  8
0
 10
4487.3713234035240021
 20
274.9358926513855863
 30
0.0
 40
1.5301109195932181
 50
7.3540970114473332
 51
12.5610320634791996
  0
ARC
  5
2177D
  8
0
 10
4487.61406764664207
 20
274.9877191144760218
 30
0.0
 40
1.2819074914877251
 50
12.6596261078969601
 51
28.2630799194227293
  0
ARC
  5
2177E
  8
0
 10
4488.8989945797411565
 20
275.1196918609368254
 30
0.0
 40
0.0036939131128903
 50
183.3003348608673093
 51
267.6840115371126103
  0
ARC
  5
2177F
  8
0
 10
3535.5194586390689437
 20
117.4831369369102987
 30
0.0
 40
966.3201975775549499
 50
9.3886513182146043
 51
9.3959176915826461
  0
ARC
  5
21780
  8
0
 10
4487.6505161411951121
 20
274.9918345747494186
 30
0.0
 40
1.2497567194479591
 50
11.4715146521614404
 51
21.1072372190634496
  0
ARC
  5
21781
  8
0
 10
4487.9184922815838945
 20
275.1053831475696256
 30
0.0
 40
0.958915466297663
 50
20.5438848387683706
 51
30.6845930165735794
  0
ARC
  5
21782
  8
0
 10
4486.9608062218258056
 20
274.5058775425454201
 30
0.0
 40
2.088622754282401
 50
31.4211755473572296
 51
56.9828140403260477
  0
ARC
  5
21783
  8
0
 10
4485.6484323897184368
 20
272.7299414677148093
 30
0.0
 40
4.2949098738482361
 50
55.2116745176893815
 51
68.1415257464523734
  0
ARC
  5
21784
  8
0
 10
4490.855793832699419
 20
322.3740343337739205
 30
0.0
 40
45.8727785325410196
 50
268.9075969379609887
 51
271.0924030618826919
  0
ARC
  5
21785
  8
0
 10
4489.8312522289415938
 20
299.5643184778247132
 30
0.0
 40
23.0418811374386685
 50
266.1449406690580872
 51
268.3620843483607246
  0
ARC
  5
21786
  8
0
 10
4488.8518379634333542
 20
285.1795521386608812
 30
0.0
 40
8.6238201051256986
 50
261.6115913849487242
 51
266.2118523522793794
  0
ARC
  5
21787
  8
0
 10
4488.120064046736843
 20
280.2393840403237846
 30
0.0
 40
3.6297507558047548
 50
255.7857501601912986
 51
261.6630397798829222
  0
ARC
  5
21788
  8
0
 10
4487.6177768293164263
 20
278.3045292951142073
 30
0.0
 40
1.6308398105083191
 50
245.3692185092654086
 51
256.2006249336968153
  0
ARC
  5
21789
  8
0
 10
4486.9435666230519928
 20
276.8341415146185795
 30
0.0
 40
0.0132492316084972
 50
183.4697679945957987
 51
245.5986002259963072
  0
ARC
  5
2178A
  8
0
 10
4487.1128820718486168
 20
277.2671745992975048
 30
0.0
 40
0.4753827914635588
 50
218.1910555570408974
 51
247.6480957600053898
  0
ARC
  5
2178B
  8
0
 10
4490.8557938326066505
 20
669.9155655874232025
 30
0.0
 40
393.0663973057534122
 50
269.5959390244365181
 51
270.4040609755634819
  0
ARC
  5
2178C
  8
0
 10
4486.9606742751348065
 20
378.3632285962269748
 30
0.0
 40
101.5119604799936042
 50
270.2475472648097821
 51
270.5005157325167033
  0
ARC
  5
2178D
  8
0
 10
4487.4600243991999378
 20
272.135865629793102
 30
0.0
 40
4.7167414010836106
 50
90.7381835582461065
 51
93.2740593594497085
  0
ARC
  5
2178E
  8
0
 10
4487.5328222949410701
 20
271.0105528842198055
 30
0.0
 40
5.8443810708757171
 50
93.3565092145479412
 51
94.2876155789918187
  0
ARC
  5
2178F
  8
0
 10
4486.2781956788712705
 20
287.5985326209690811
 30
0.0
 40
10.7909795977055296
 50
273.9880733363817171
 51
274.3457298065964096
  0
ARC
  5
21790
  8
0
 10
4486.9522715783677995
 20
277.849475246701104
 30
0.0
 40
1.018663251390749
 50
271.0611684649816198
 51
274.302590217043587
  0
ARC
  5
21791
  8
0
 10
4486.9639447179843046
 20
277.0611178156871119
 30
0.0
 40
0.2302434768709457
 50
261.6079552005443247
 51
271.7900916951130057
  0
ARC
  5
21792
  8
0
 10
4486.8131856215695734
 20
277.016228546804598
 30
0.0
 40
0.0855157736483206
 50
147.2486211530521985
 51
210.169145888570597
  0
ARC
  5
21793
  8
0
 10
4490.8557938326048316
 20
231.3308162451432111
 30
0.0
 40
46.1991364241266069
 50
88.8664340315618091
 51
91.1335659684382051
  0
ARC
  5
21794
  8
0
 10
4489.5476634553988333
 20
260.7418903473086971
 30
0.0
 40
16.7627002586072607
 50
91.2814995448547393
 51
95.8615827178730342
  0
ARC
  5
21795
  8
0
 10
4488.203621850098898
 20
273.5543296503490751
 30
0.0
 40
3.8800945225526711
 50
95.4401875884402955
 51
106.6171168893545058
  0
ARC
  5
21796
  8
0
 10
4487.3927495547741273
 20
276.2988622907133731
 30
0.0
 40
1.0183226997869399
 50
107.0592941863413046
 51
122.2782980893152995
  0
ARC
  5
21797
  8
0
 10
4487.1314606927107889
 20
276.7390490782584038
 30
0.0
 40
0.5068218340346679
 50
123.8796812616585044
 51
140.3438344554969035
  0
ARC
  5
21798
  8
0
 10
4490.8557938326457588
 20
807.0320185548076779
 30
0.0
 40
530.3886529140727362
 50
269.8710977417176196
 51
270.1289022582823804
  0
ARC
  5
21799
  8
0
 10
4489.6814270125560142
 20
332.0782976996709976
 30
0.0
 40
55.4335930056140427
 50
269.0513482862733099
 51
269.9804815991610099
  0
ARC
  5
2179A
  8
0
 10
4488.8613112776920389
 20
287.608012353543586
 30
0.0
 40
10.9561449021040094
 50
265.7395246434981004
 51
269.4892661437992274
  0
ARC
  5
2179B
  8
0
 10
4488.0255853682319866
 20
276.4617931907504271
 30
0.0
 40
0.2214245296786858
 50
84.3537907338395456
 51
88.2240837896547845
  0
ARC
  5
2179C
  8
0
 10
4488.032261319992358
 20
276.6429487911619844
 30
0.0
 40
0.0401630049079169
 50
89.7344663798301099
 51
98.4625458311290203
  0
ARC
  5
2179D
  8
0
 10
4488.0276780110098116
 20
276.6713624675783194
 30
0.0
 40
0.0113896356068771
 50
96.6916758696848859
 51
116.9716043416606936
  0
ARC
  5
2179E
  8
0
 10
4488.0238051026299217
 20
276.6791063021952937
 30
0.0
 40
0.0027322047777742
 50
118.2414693222163038
 51
142.1852761805670013
  0
ARC
  5
2179F
  8
0
 10
4488.0226397394735613
 20
276.6800222877109832
 30
0.0
 40
0.0012500042059857
 50
142.6037827215496065
 51
183.7873444200768063
  0
ARC
  5
217A0
  8
0
 10
4488.0230463831849193
 20
276.6801149996222193
 30
0.0
 40
0.0016631799479062
 50
186.0495166365309103
 51
215.9607558377138048
  0
ARC
  5
217A1
  8
0
 10
4488.0260460281133419
 20
276.6825031344322952
 30
0.0
 40
0.0054962144141356
 50
217.7490530194623943
 51
237.5327599517563044
  0
ARC
  5
217A2
  8
0
 10
4488.8569087065716303
 20
286.7345221845844208
 30
0.0
 40
9.9824497210628298
 50
264.7704077102717974
 51
269.9625346712318219
  0
ARC
  5
217A3
  8
0
 10
4487.9305483594098405
 20
276.6334780812700274
 30
0.0
 40
0.1609935819898215
 50
84.120819392654397
 51
91.7134472570035655
  0
ARC
  5
217A4
  8
0
 10
4487.9261614784290941
 20
276.75210327020568
 30
0.0
 40
0.0422985629218674
 50
90.578354070987217
 51
104.3055047326858045
  0
ARC
  5
217A5
  8
0
 10
4487.9486711932677281
 20
276.6237289840361768
 30
0.0
 40
0.1212038421811525
 50
83.7911565170965247
 51
94.101908301103677
  0
ARC
  5
217A6
  8
0
 10
4487.9417663705016821
 20
276.707881478819786
 30
0.0
 40
0.0367832403760394
 50
92.7502770446518241
 51
109.8075823688557051
  0
ARC
  5
217A7
  8
0
 10
4487.9320653427676007
 20
276.7350005686686245
 30
0.0
 40
0.0079815575540314
 50
110.2567127953235939
 51
133.3593280724624037
  0
ARC
  5
217A8
  8
0
 10
4487.928417759830154
 20
276.7388406893044817
 30
0.0
 40
0.0026852689022622
 50
133.028556832670688
 51
177.7745456219647906
  0
ARC
  5
217A9
  8
0
 10
4487.9285870452658855
 20
276.7390140242799248
 30
0.0
 40
0.002853364894881
 50
181.3868916798309101
 51
210.3911907475803105
  0
ARC
  5
217AA
  8
0
 10
4487.93266377632699
 20
276.7416488458922004
 30
0.0
 40
0.0077057492017997
 50
211.9554465060832058
 51
235.9523091449109131
  0
ARC
  5
217AB
  8
0
 10
4488.5914777215766662
 20
283.454510656724608
 30
0.0
 40
6.7399621677302832
 50
265.1358920742111991
 51
266.7554544006454762
  0
ARC
  5
217AC
  8
0
 10
4488.7554697964496881
 20
286.2340636266205252
 30
0.0
 40
9.5243434296242473
 50
266.7168769064873004
 51
267.4671796405783084
  0
ARC
  5
217AD
  8
0
 10
4489.0358598152361083
 20
293.2075405382390727
 30
0.0
 40
16.5034224959916216
 50
267.5645741557880228
 51
268.9049016211459957
  0
ARC
  5
217AE
  8
0
 10
4489.9854291430901867
 20
362.4587161651264182
 30
0.0
 40
85.7609135871185941
 50
269.1548514228829845
 51
270.0221612510828209
  0
ARC
  5
217AF
  8
0
 10
4490.8557938326321164
 20
1328.3507527050380759
 30
0.0
 40
1051.6532769458528946
 50
269.954388332757901
 51
270.045611667242099
  0
ARC
  5
217B0
  8
0
 10
4490.8557938326193835
 20
817.4556087707995857
 30
0.0
 40
540.7636315261895561
 50
269.8585262227418866
 51
270.1414737772581134
  0
ARC
  5
217B1
  8
0
 10
4489.3773966744038262
 20
303.1277528458941788
 30
0.0
 40
26.4345147430108405
 50
267.7689543254285809
 51
270.3102822937947849
  0
ARC
  5
217B2
  8
0
 10
4488.6540735419903285
 20
284.2010703394036
 30
0.0
 40
7.4940339403824741
 50
265.2434868617507959
 51
267.6617122049827913
  0
ARC
  5
217B3
  8
0
 10
4487.894539566673302
 20
275.3904436472633961
 30
0.0
 40
1.3494882203222249
 50
84.1256018206484839
 51
86.321518750262797
  0
ARC
  5
217B4
  8
0
 10
4487.9779292569592144
 20
276.6367562409561174
 30
0.0
 40
0.1004460611545823
 50
88.1800076406612021
 51
96.1509630953330827
  0
ARC
  5
217B5
  8
0
 10
4487.9701667871522659
 20
276.7044614155498152
 30
0.0
 40
0.0323022486678991
 50
95.3292041479756165
 51
109.3713632061331964
  0
ARC
  5
217B6
  8
0
 10
4487.9621965721580636
 20
276.7266799602804213
 30
0.0
 40
0.008699172017389
 50
108.3876567383172045
 51
130.7276648404859998
  0
ARC
  5
217B7
  8
0
 10
4487.9577177992487123
 20
276.7313883428107033
 30
0.0
 40
0.0021242929626654
 50
166.4621874835264066
 51
184.3265981962900071
  0
ARC
  5
217B8
  8
0
 10
4487.9584521075321391
 20
276.73109811315868
 30
0.0
 40
0.0029082293861251
 50
131.6154296915213138
 51
164.2891345478450091
  0
ARC
  5
217B9
  8
0
 10
4490.8557938326048316
 20
1872.9522630467340605
 30
0.0
 40
1596.3010445209840782
 50
269.9792217404353778
 51
270.0207782595646222
  0
ARC
  5
217BA
  8
0
 10
4490.0269755322442506
 20
371.7704160085730791
 30
0.0
 40
95.1194208426442032
 50
269.3488472662143067
 51
270.1505418156589826
  0
ARC
  5
217BB
  8
0
 10
4488.9315924856327911
 20
288.4254550570396987
 30
0.0
 40
11.7683260584573208
 50
265.6770012183575886
 51
270.0700939177961004
  0
ARC
  5
217BC
  8
0
 10
4491.8496903864634078
 20
321.6205772616128797
 30
0.0
 40
45.0908121025590489
 50
265.087592225625599
 51
265.1590912960023729
  0
ARC
  5
217BD
  8
0
 10
4487.9812984768796014
 20
276.5939021120265124
 30
0.0
 40
0.1017428952744332
 50
85.9732861630559881
 51
96.201513899970692
  0
ARC
  5
217BE
  8
0
 10
4487.9725344182515983
 20
276.6658216510739976
 30
0.0
 40
0.0293126707620255
 50
94.3567572763274853
 51
111.7287088041906031
  0
ARC
  5
217BF
  8
0
 10
4487.9637399943685523
 20
276.6874683138142927
 30
0.0
 40
0.005950297993665
 50
110.2293382249774965
 51
141.5175218555430092
  0
ARC
  5
217C0
  8
0
 10
4487.9608307315293132
 20
276.6898962171894141
 30
0.0
 40
0.0021639877390907
 50
143.9063486619901937
 51
183.496828505631612
  0
ARC
  5
217C1
  8
0
 10
4487.9612744763389856
 20
276.690007742581372
 30
0.0
 40
0.0026150662471862
 50
185.3431054338643094
 51
207.9156085583450135
  0
ARC
  5
217C2
  8
0
 10
4487.9652030420129449
 20
276.6925112516516947
 30
0.0
 40
0.0072681411438118
 50
210.8569751810557875
 51
239.8582973388097912
  0
ARC
  5
217C3
  8
0
 10
4498.6178030360697448
 20
271.2872698726126259
 30
0.0
 40
0.0098535640161605
 50
268.8515500051308891
 51
0.0132230207296093
  0
ARC
  5
217C4
  8
0
 10
4495.0937822990908899
 20
271.2872686066684764
 30
0.0
 40
0.0098523688938223
 50
180.1149816245736872
 51
271.1688867168190882
  0
ARC
  5
217C5
  8
0
 10
4497.3248321489782029
 20
-71587.2410983745357953
 30
0.0
 40
71858.561789503772161
 50
89.9989730543882303
 51
90.0017749109923244
  0
ARC
  5
217C6
  8
0
 10
4499.2438111565197687
 20
254.2651742605212064
 30
0.0
 40
17.5519412283155383
 50
102.043896412740196
 51
103.659842713961396
  0
ARC
  5
217C7
  8
0
 10
4494.4210837472237472
 20
254.1011944499011008
 30
0.0
 40
17.7223336876538085
 50
76.3186787719269972
 51
77.8786604820019051
  0
ARC
  5
217C8
  8
0
 10
4498.6080853359408138
 20
271.3016835018207189
 30
0.0
 40
0.0195712001872102
 50
359.8980224558860073
 51
76.0756278478960155
  0
ARC
  5
217C9
  8
0
 10
4496.8962489967134388
 20
264.5698663964050183
 30
0.0
 40
7.0054356120616337
 50
97.5984568974319444
 51
100.8488346696625939
  0
ARC
  5
217CA
  8
0
 10
4496.6580548366173389
 20
271.8321427749676786
 30
0.0
 40
0.0205848428178506
 50
1.8321628923675961
 51
71.1394071743116854
  0
ARC
  5
217CB
  8
0
 10
4496.7292170404562057
 20
271.8263987623897719
 30
0.0
 40
0.0696892245266568
 50
126.7366054361657035
 51
155.6655463586307064
  0
ARC
  5
217CC
  8
0
 10
4496.8714812291409544
 20
271.640009629625979
 30
0.0
 40
0.3041642750825488
 50
110.9674811968291976
 51
127.2119341079256003
  0
ARC
  5
217CD
  8
0
 10
4496.8611274599770695
 20
271.6816281952574741
 30
0.0
 40
0.2616487318046136
 50
93.5598324433183564
 51
112.1116225040878049
  0
ARC
  5
217CE
  8
0
 10
4496.8540023017876592
 20
271.6962802315077852
 30
0.0
 40
0.2466605343590468
 50
68.7872192372376645
 51
92.1191236692222759
  0
ARC
  5
217CF
  8
0
 10
4496.8272767648695663
 20
271.6133395923880016
 30
0.0
 40
0.3336904557702109
 50
58.3583799064767135
 51
69.6622405787450987
  0
ARC
  5
217D0
  8
0
 10
4496.9382169445370891
 20
271.7812831321627982
 30
0.0
 40
0.1326644652813487
 50
41.7578872751200905
 51
61.0995433719345513
  0
ARC
  5
217D1
  8
0
 10
4497.0005449506415971
 20
271.8378471429729188
 30
0.0
 40
0.048504005702716
 50
16.5722475187561784
 51
40.9483026448454766
  0
ARC
  5
217D2
  8
0
 10
4497.0012560661707539
 20
272.0130438810871851
 30
0.0
 40
0.1677301391031813
 50
285.8385116888181869
 51
323.7235049767891155
  0
ARC
  5
217D3
  8
0
 10
4496.9905574281965528
 20
272.0253934139479952
 30
0.0
 40
0.1836978572506905
 50
322.5925863876789776
 51
354.8623321008197991
  0
ARC
  5
217D4
  8
0
 10
4458.1111099343943351
 20
274.0475790711187756
 30
0.0
 40
39.1155685312300108
 50
357.012489733530515
 51
2.294811497453257
  0
ARC
  5
217D5
  8
0
 10
4482.6824534633524308
 20
275.0495976126218807
 30
0.0
 40
14.5238188249389104
 50
2.226381571399715
 51
3.3475684005838922
  0
ARC
  5
217D6
  8
0
 10
4496.4574585382533769
 20
275.8600219828501281
 30
0.0
 40
0.7250104063158935
 50
2.9777449600382351
 51
12.0098112325842497
  0
ARC
  5
217D7
  8
0
 10
4496.9455824097740333
 20
275.9563073177826027
 30
0.0
 40
0.2276556188944438
 50
13.8701794678853503
 51
42.2940012858035601
  0
ARC
  5
217D8
  8
0
 10
4496.9963175802367914
 20
275.998840877851876
 30
0.0
 40
0.1615266335243995
 50
43.2444429148353322
 51
75.6241513693243519
  0
ARC
  5
217D9
  8
0
 10
4496.8500731697404262
 20
274.8804605079545809
 30
0.0
 40
1.2910340315888189
 50
85.4433703105655553
 51
94.0489163471970642
  0
ARC
  5
217DA
  8
0
 10
4496.9045111658506357
 20
275.5382665594344758
 30
0.0
 40
0.6309855063621799
 50
77.9330373578412008
 51
85.625607776133819
  0
ARC
  5
217DB
  8
0
 10
4496.9281335017331003
 20
274.7915116207303754
 30
0.0
 40
1.3871209780107621
 50
97.0070869972200853
 51
100.4804212839406006
  0
ARC
  5
217DC
  8
0
 10
4496.7233254410966765
 20
275.9866288710458093
 30
0.0
 40
0.1754184402907658
 50
105.7136655506499068
 51
133.0668181604524136
  0
ARC
  5
217DD
  8
0
 10
4496.7239066084903243
 20
275.9816838907489114
 30
0.0
 40
0.1794521688396863
 50
132.124222023838513
 51
158.3988140634801027
  0
ARC
  5
217DE
  8
0
 10
4496.9799179682813701
 20
275.8999792541546867
 30
0.0
 40
0.4479358740376308
 50
160.7379992884264936
 51
175.4921473110682086
  0
ARC
  5
217DF
  8
0
 10
4524.2775074963610678
 20
274.3469680934070993
 30
0.0
 40
27.7895614109846392
 50
176.7236711318140863
 51
179.3617375161555003
  0
ARC
  5
217E0
  8
0
 10
4535.5487874029277009
 20
274.0465763156685171
 30
0.0
 40
39.0638793660465069
 50
179.1053303071795995
 51
181.4152123282038076
  0
ARC
  5
217E1
  8
0
 10
4532.9225045527382463
 20
273.9427455404563148
 30
0.0
 40
36.4358540498123133
 50
181.353984697371402
 51
183.0423546487159001
  0
ARC
  5
217E2
  8
0
 10
4496.7180779557929782
 20
272.0242892541047013
 30
0.0
 40
0.1807265120545755
 50
184.8709955190635981
 51
252.8244103211573872
  0
ARC
  5
217E3
  8
0
 10
4488.6836592735990052
 20
271.2895939012236113
 30
0.0
 40
0.012181004188999
 50
181.2301995988505894
 51
268.2953149303647251
  0
ARC
  5
217E4
  8
0
 10
4495.1035156562920747
 20
271.3016483156059167
 30
0.0
 40
0.0195858140780643
 50
103.9478747290978049
 51
180.0663264799526075
  0
LINE
  5
217E5
  8
0
 10
4493.7529168924547776
 20
276.6897642284583867
 30
0.0
 11
4493.7559881051556658
 21
276.7312280826698156
 31
0.0
  0
LINE
  5
217E6
  8
0
 10
4493.7858531489546294
 20
276.7389449629698106
 30
0.0
 11
4493.7858531489546294
 21
276.7943996781921783
 31
0.0
  0
LINE
  5
217E7
  8
0
 10
4493.6642173469563204
 20
276.6624796598698026
 30
0.0
 11
4493.6642173288973936
 21
276.6821434517195257
 31
0.0
  0
LINE
  5
217E8
  8
0
 10
4493.006916458755768
 20
275.0924819857697798
 30
0.0
 11
4493.0401065881551403
 21
271.2893323825697962
 31
0.0
  0
LINE
  5
217E9
  8
0
 10
4492.8305356019563988
 20
275.104189941569814
 30
0.0
 11
4492.8305356019563988
 21
275.1160009651698033
 31
0.0
  0
LINE
  5
217EA
  8
0
 10
4491.769759099555813
 20
277.5209112204283883
 30
0.0
 11
4492.5388139826563929
 21
277.5003979663698033
 31
0.0
  0
ARC
  5
217EB
  8
0
 10
4493.8726494778247798
 20
284.7365938642665242
 30
0.0
 40
7.8814570866586102
 50
268.219380102433604
 51
269.9382256774597977
  0
ARC
  5
217EC
  8
0
 10
4493.2315983103553663
 20
282.0127196808697931
 30
0.0
 40
5.2939220156999989
 50
274.9849632412149276
 51
275.6175453493968917
  0
ARC
  5
217ED
  8
0
 10
4493.3671672564551045
 20
277.2581523970698072
 30
0.0
 40
0.6882492965000001
 50
300.950173150694809
 51
303.7996921782817026
  0
ARC
  5
217EE
  8
0
 10
4493.3244401770189143
 20
277.2253825866011994
 30
0.0
 40
0.6575015057665797
 50
301.1158496920704124
 51
303.6205235922500947
  0
ARC
  5
217EF
  8
0
 10
4493.4277658183546009
 20
277.2186957159697727
 30
0.0
 40
0.6000556351
 50
303.0286681227595977
 51
306.327437358297118
  0
ARC
  5
217F0
  8
0
 10
4493.6050843372331656
 20
277.0334748512789815
 30
0.0
 40
0.3068988723688112
 50
306.0873191727736753
 51
308.4390639829413772
  0
ARC
  5
217F1
  8
0
 10
4493.7184324496547561
 20
276.6959880540090921
 30
0.0
 40
0.0282176007609315
 50
274.1538199102905082
 51
275.4830431829417989
  0
ARC
  5
217F2
  8
0
 10
4490.4910006759364478
 20
336.2298420862575767
 30
0.0
 40
59.7331073693185317
 50
271.1888671946268232
 51
271.9647652817455992
  0
ARC
  5
217F3
  8
0
 10
4491.3696325436712868
 20
424.108933891941092
 30
0.0
 40
147.3644080967052901
 50
269.9353243319999933
 51
270.579938860992911
  0
ARC
  5
217F4
  8
0
 10
4479.5071724535428075
 20
304.5216277408562178
 30
0.0
 40
31.27126268963546
 50
296.9940088826858187
 51
297.033718144198474
  0
ARC
  5
217F5
  8
0
 10
4493.5662708038807978
 20
276.6782891274021949
 30
0.0
 40
0.1545588762352759
 50
355.844127539790577
 51
356.1251974437669787
  0
ARC
  5
217F6
  8
0
 10
4490.8525690673732242
 20
328.5957031406841793
 30
0.0
 40
52.0074480199964384
 50
270.554390246706987
 51
271.2886612729312219
  0
ARC
  5
217F7
  8
0
 10
4490.8424249342770054
 20
329.0357571394159208
 30
0.0
 40
52.447618856973321
 50
271.288928897577307
 51
271.9853494875666797
  0
ARC
  5
217F8
  8
0
 10
4490.830964811634658
 20
329.3730197610724986
 30
0.0
 40
52.7850760504349381
 50
271.9850988924242756
 51
272.6649039774404173
  0
ARC
  5
217F9
  8
0
 10
4490.8288911348399779
 20
329.418704452141526
 30
0.0
 40
52.8308077501981472
 50
272.6648468708473843
 51
273.0764305463450228
  0
ARC
  5
217FA
  8
0
 10
4492.9947416592085574
 20
275.0920115251051925
 30
0.0
 40
0.0121838859655232
 50
2.2129321844908669
 51
88.2831402643950298
  0
ARC
  5
217FB
  8
0
 10
4492.9956021040043197
 20
275.1278120028412104
 30
0.0
 40
0.0118110378928958
 50
270.0110955396147006
 51
3.0999281927450122
  0
ARC
  5
217FC
  8
0
 10
4493.829024466728697
 20
275.1740091010050264
 30
0.0
 40
0.8228907188428125
 50
166.9040872329709089
 51
183.1737368293597115
  0
ARC
  5
217FD
  8
0
 10
4494.1787660618992959
 20
275.0932579302407817
 30
0.0
 40
1.181833178336851
 50
147.7373290589214037
 51
166.9328887185453141
  0
ARC
  5
217FE
  8
0
 10
4494.8460705120578496
 20
274.62094736033049
 30
0.0
 40
1.9986989989401041
 50
128.3364355292173116
 51
146.4993456331395123
  0
ARC
  5
217FF
  8
0
 10
4495.9498303857326391
 20
273.2684052770375729
 30
0.0
 40
3.7443427345687752
 50
121.3711749323901046
 51
128.746798127790413
  0
ARC
  5
21800
  8
0
 10
4496.4300609042711585
 20
272.4752674108680139
 30
0.0
 40
4.67153335532974
 50
117.3055386091537997
 51
121.3360377270446975
  0
ARC
  5
21801
  8
0
 10
4496.0653390973839123
 20
273.192667938321506
 30
0.0
 40
3.8667631230106858
 50
114.1587506595066941
 51
117.3798505573184059
  0
ARC
  5
21802
  8
0
 10
4492.8314133901203604
 20
275.1239442430330087
 30
0.0
 40
0.00796207657368
 50
210.8330349982066991
 51
266.0620157867508055
  0
ARC
  5
21803
  8
0
 10
4492.8378449087012996
 20
275.1279982362066221
 30
0.0
 40
0.0155635141816422
 50
166.0565448237474016
 51
211.5127223912051875
  0
ARC
  5
21804
  8
0
 10
4494.340264261685661
 20
274.9358926513855863
 30
0.0
 40
1.5301109195932181
 50
167.438967936520811
 51
172.6459029885527059
  0
ARC
  5
21805
  8
0
 10
4494.0975200185666836
 20
274.9877191144760218
 30
0.0
 40
1.2819074914877251
 50
151.7369200805773062
 51
167.3403738921030026
  0
ARC
  5
21806
  8
0
 10
4492.8125930854703256
 20
275.1196918609368254
 30
0.0
 40
0.0036939131128903
 50
272.3159884628873897
 51
356.6996651391327191
  0
ARC
  5
21807
  8
0
 10
5446.1921290261434478
 20
117.4831369369102987
 30
0.0
 40
966.3201975775549499
 50
170.6040823084173041
 51
170.6113486817853016
  0
ARC
  5
21808
  8
0
 10
4494.061071524014551
 20
274.9918345747494186
 30
0.0
 40
1.2497567194479591
 50
158.8927627809364935
 51
168.5284853478385116
  0
ARC
  5
21809
  8
0
 10
4493.7930953836248591
 20
275.1053831475696256
 30
0.0
 40
0.958915466297663
 50
149.3154069834264135
 51
159.4561151612315939
  0
ARC
  5
2180A
  8
0
 10
4494.750781443384767
 20
274.5058775425454201
 30
0.0
 40
2.088622754282401
 50
123.0171859596738955
 51
148.5788244526428059
  0
ARC
  5
2180B
  8
0
 10
4496.0631552754921358
 20
272.7299414677148093
 30
0.0
 40
4.2949098738482361
 50
111.8584742535475982
 51
124.7883254823105972
  0
ARC
  5
2180C
  8
0
 10
4491.8803354362680693
 20
299.5643184778247132
 30
0.0
 40
23.0418811374386685
 50
271.6379156516392754
 51
273.8550593309417991
  0
ARC
  5
2180D
  8
0
 10
4492.8597497017781279
 20
285.1795521386608812
 30
0.0
 40
8.6238201051256986
 50
273.7881476477205069
 51
278.3884086150512758
  0
ARC
  5
2180E
  8
0
 10
4493.5915236184746391
 20
280.2393840403237846
 30
0.0
 40
3.6297507558047548
 50
278.3369602201171915
 51
284.2142498398085877
  0
ARC
  5
2180F
  8
0
 10
4494.0938108358941463
 20
278.3045292951142073
 30
0.0
 40
1.6308398105083191
 50
283.7993750663032984
 51
294.6307814907345914
  0
ARC
  5
21810
  8
0
 10
4494.7680210421576703
 20
276.8341415146185795
 30
0.0
 40
0.0132492316084972
 50
294.4013997740037212
 51
356.5302320054041161
  0
ARC
  5
21811
  8
0
 10
4494.5987055933610463
 20
277.2671745992975048
 30
0.0
 40
0.4753827914635595
 50
292.3519042399944965
 51
321.8089444429592163
  0
ARC
  5
21812
  8
0
 10
4494.7509133900757661
 20
378.3632285962269748
 30
0.0
 40
101.5119604799936042
 50
269.4994842674832967
 51
269.7524527351902179
  0
ARC
  5
21813
  8
0
 10
4494.2515632660097253
 20
272.135865629793102
 30
0.0
 40
4.7167414010836106
 50
86.7259406405502915
 51
89.2618164417538935
  0
ARC
  5
21814
  8
0
 10
4494.1787653702704119
 20
271.0105528842198055
 30
0.0
 40
5.8443810708757171
 50
85.7123844210081955
 51
86.6434907854520446
  0
ARC
  5
21815
  8
0
 10
4495.4333919863402116
 20
287.5985326209690811
 30
0.0
 40
10.7909795977055296
 50
265.6542701934035904
 51
266.0119266636182829
  0
ARC
  5
21816
  8
0
 10
4494.7593160868427731
 20
277.849475246701104
 30
0.0
 40
1.018663251390749
 50
265.6974097829562993
 51
268.9388315350183802
  0
ARC
  5
21817
  8
0
 10
4494.7476429472253585
 20
277.0611178156871119
 30
0.0
 40
0.2302434768709457
 50
268.2099083048869943
 51
278.3920447994556753
  0
ARC
  5
21818
  8
0
 10
4494.8984020436409992
 20
277.016228546804598
 30
0.0
 40
0.0855157736483206
 50
329.830854111429403
 51
32.7513788469477873
  0
ARC
  5
21819
  8
0
 10
4492.1639242098126488
 20
260.7418903473086971
 30
0.0
 40
16.7627002586072607
 50
84.13841728212698
 51
88.7185004551452749
  0
ARC
  5
2181A
  8
0
 10
4493.5079658151116746
 20
273.5543296503490751
 30
0.0
 40
3.8800945225526711
 50
73.3828831106454373
 51
84.5598124115597187
  0
ARC
  5
2181B
  8
0
 10
4494.3188381104364453
 20
276.2988622907133731
 30
0.0
 40
1.0183226997869399
 50
57.7217019106846507
 51
72.9407058136587239
  0
ARC
  5
2181C
  8
0
 10
4494.5801269724997837
 20
276.7390490782585175
 30
0.0
 40
0.5068218340345864
 50
39.6561655445030681
 51
56.1203187383415099
  0
ARC
  5
2181D
  8
0
 10
4492.0301606526527394
 20
332.0782976996709976
 30
0.0
 40
55.4335930056140427
 50
270.0195184008391038
 51
270.9486517137266901
  0
ARC
  5
2181E
  8
0
 10
4492.8502763875176242
 20
287.608012353543586
 30
0.0
 40
10.9561449021040094
 50
270.5107338562007726
 51
274.2604753565017859
  0
ARC
  5
2181F
  8
0
 10
4493.6860022969785859
 20
276.4617931907504271
 30
0.0
 40
0.2214245296786858
 50
91.7759162103452155
 51
95.646209266160497
  0
ARC
  5
21820
  8
0
 10
4493.6793263452191241
 20
276.6429487911619844
 30
0.0
 40
0.0401630049079169
 50
81.537454168870994
 51
90.2655336201699043
  0
ARC
  5
21821
  8
0
 10
4493.6839096541998515
 20
276.6713624675783194
 30
0.0
 40
0.0113896356068771
 50
63.0283956583392424
 51
83.3083241303151283
  0
ARC
  5
21822
  8
0
 10
4493.6877825625806508
 20
276.6791063021952937
 30
0.0
 40
0.0027322047777742
 50
37.8147238194329773
 51
61.7585306777837104
  0
ARC
  5
21823
  8
0
 10
4493.6889479257351923
 20
276.6800222877109832
 30
0.0
 40
0.0012500042059857
 50
356.2126555799231937
 51
37.3962172784504006
  0
ARC
  5
21824
  8
0
 10
4493.6885412820247439
 20
276.6801149996222193
 30
0.0
 40
0.0016631799479062
 50
324.0392441622861952
 51
353.9504833634691181
  0
ARC
  5
21825
  8
0
 10
4493.6855416370972307
 20
276.6825031344322952
 30
0.0
 40
0.0054962144141356
 50
302.4672400482436956
 51
322.250946980537492
  0
ARC
  5
21826
  8
0
 10
4492.8511022761558706
 20
286.8879454919709815
 30
0.0
 40
10.1358759305714994
 50
270.0571163898492841
 51
275.1705171257933102
  0
ARC
  5
21827
  8
0
 10
4493.7810393057998226
 20
276.6334780812700274
 30
0.0
 40
0.1609935819898215
 50
88.2865527429964629
 51
95.879180607345603
  0
ARC
  5
21828
  8
0
 10
4493.776554613917142
 20
276.6841851264467209
 30
0.0
 40
0.1106061036757137
 50
79.9386271371132722
 51
85.1775140592357332
  0
ARC
  5
21829
  8
0
 10
4493.7629164719428445
 20
276.6237289840361768
 30
0.0
 40
0.1212038421811525
 50
85.8980916988963088
 51
96.2088434829034895
  0
ARC
  5
2182A
  8
0
 10
4493.7698212947088905
 20
276.707881478819786
 30
0.0
 40
0.0367832403760394
 50
70.1924176311442523
 51
87.2497229553481901
  0
ARC
  5
2182B
  8
0
 10
4493.7795223224429719
 20
276.7350005686686245
 30
0.0
 40
0.0079815575540314
 50
46.6406719275376176
 51
69.743287204676335
  0
ARC
  5
2182C
  8
0
 10
4493.7831699053813281
 20
276.7388406893044817
 30
0.0
 40
0.0026852689022622
 50
2.2254543780352489
 51
46.9714431673293191
  0
ARC
  5
2182D
  8
0
 10
4493.7830006199437776
 20
276.7390140242799248
 30
0.0
 40
0.002853364894881
 50
329.6088092524196895
 51
358.6131083201690899
  0
ARC
  5
2182E
  8
0
 10
4493.7789238888854015
 20
276.7416488458922004
 30
0.0
 40
0.0077057492017997
 50
304.0476908550890016
 51
328.0445534939166805
  0
ARC
  5
2182F
  8
0
 10
4493.1201099436329969
 20
283.454510656724608
 30
0.0
 40
6.7399621677302832
 50
273.2445455993545238
 51
274.8641079257886872
  0
ARC
  5
21830
  8
0
 10
4492.956117868759975
 20
286.2340636266205252
 30
0.0
 40
9.5243434296242473
 50
272.5328203594215779
 51
273.2831230935126996
  0
ARC
  5
21831
  8
0
 10
4492.6757278499762833
 20
293.2075405382390727
 30
0.0
 40
16.5034224959916216
 50
271.0950983788538906
 51
272.4354258442119772
  0
ARC
  5
21832
  8
0
 10
4491.7261585221203859
 20
362.4587161651264182
 30
0.0
 40
85.7609135871185941
 50
269.9778387489171791
 51
270.8451485771170155
  0
ARC
  5
21833
  8
0
 10
4492.3341909908058369
 20
303.1277528458941788
 30
0.0
 40
26.4345147430108405
 50
269.6897177062052151
 51
272.2310456745714191
  0
ARC
  5
21834
  8
0
 10
4493.0575141232202441
 20
284.2010703394036
 30
0.0
 40
7.4940339403824741
 50
272.3382877950172087
 51
274.7565131382493178
  0
ARC
  5
21835
  8
0
 10
4493.8170480985372706
 20
275.3904436472633961
 30
0.0
 40
1.3494882203222249
 50
93.6784812497372172
 51
95.8743981793515161
  0
ARC
  5
21836
  8
0
 10
4493.7336584082522677
 20
276.6367562409561174
 30
0.0
 40
0.1004460611545823
 50
83.8490369046669031
 51
91.8199923593387837
  0
ARC
  5
21837
  8
0
 10
4493.7414208780573972
 20
276.7044614155498152
 30
0.0
 40
0.0323022486678991
 50
70.6286367938668036
 51
84.6707958520243835
  0
ARC
  5
21838
  8
0
 10
4493.7493910930534184
 20
276.7266799602804213
 30
0.0
 40
0.008699172017389
 50
49.2723351595139718
 51
71.6123432616827387
  0
ARC
  5
21839
  8
0
 10
4493.7538698659627698
 20
276.7313883428107033
 30
0.0
 40
0.0021242929626654
 50
355.6734018037100213
 51
13.5378125164735295
  0
ARC
  5
2183A
  8
0
 10
4493.7531355576784335
 20
276.73109811315868
 30
0.0
 40
0.0029082293861251
 50
15.7108654521549695
 51
48.3845703084787218
  0
ARC
  5
2183B
  8
0
 10
4491.6846121329672314
 20
371.7704160085730791
 30
0.0
 40
95.1194208426442032
 50
269.8494581843409037
 51
270.6511527337856933
  0
ARC
  5
2183C
  8
0
 10
4492.779995179576872
 20
288.4254550570396987
 30
0.0
 40
11.7683260584573208
 50
269.9299060822040133
 51
274.3229987816424114
  0
ARC
  5
2183D
  8
0
 10
4489.8618972787471648
 20
321.6205772616128797
 30
0.0
 40
45.0908121025590489
 50
274.8409087039975134
 51
274.912407774374401
  0
ARC
  5
2183E
  8
0
 10
4493.7302891883291522
 20
276.5939021120265124
 30
0.0
 40
0.1017428952744332
 50
83.7984861000293222
 51
94.0267138369440261
  0
ARC
  5
2183F
  8
0
 10
4493.7390532469571554
 20
276.6658216510739976
 30
0.0
 40
0.0293126707620255
 50
68.2712911958094111
 51
85.6432427236725147
  0
ARC
  5
21840
  8
0
 10
4493.7478476708411108
 20
276.6874683138142927
 30
0.0
 40
0.005950297993665
 50
38.4824781444569481
 51
69.7706617750224609
  0
ARC
  5
21841
  8
0
 10
4493.7507569336803499
 20
276.6898962171894141
 30
0.0
 40
0.0021639877390907
 50
356.5031714943684165
 51
36.0936513380097566
  0
ARC
  5
21842
  8
0
 10
4493.750313188871587
 20
276.690007742581372
 30
0.0
 40
0.0026150662471862
 50
332.0843914416549865
 51
354.656894566135577
  0
ARC
  5
21843
  8
0
 10
4493.7463846231967182
 20
276.6925112516516947
 30
0.0
 40
0.0072681411438118
 50
300.1417026611902088
 51
329.1430248189441841
  0
ARC
  5
21844
  8
0
 10
4493.0279283916133863
 20
271.2895939012236113
 30
0.0
 40
0.012181004188999
 50
271.7046850696352749
 51
358.7698004011493254
  0
LINE
  5
21846
  8
0
 10
4495.0939832825570193
 20
271.2774182879697946
 30
0.0
 11
4498.6176055421556157
 21
271.2774182879697946
 31
0.0
  0
LINE
  5
21847
  8
0
 10
4486.7322022570369882
 20
277.016228546804598
 30
0.0
 11
4494.9839178172896936
 21
277.016228546804598
 31
0.0
  0
ENDSEC
  0
EOF
