  0
SECTION
  2
HEADER
  9
$ACADVER
  1
AC1009
  9
$INSBASE
 10
4469.5932245344747571
 20
262.9327609031300881
 30
0.0
  9
$EXTMIN
 10
4457.3308254947532987
 20
262.3286151605461214
 30
-0.0000000349181948
  9
$EXTMAX
 10
4469.6319954293576302
 20
267.2377222496303943
 30
0.0000000814935746
  9
$LIMMIN
 10
0.0
 20
0.0
  9
$LIMMAX
 10
11.6929133858000007
 20
8.2677165353999982
  9
$ORTHOMODE
 70
     0
  9
$REGENMODE
 70
     1
  9
$FILLMODE
 70
     1
  9
$QTEXTMODE
 70
     0
  9
$MIRRTEXT
 70
     0
  9
$DRAGMODE
 70
     2
  9
$LTSCALE
 40
0.6431102362
  9
$OSMODE
 70
   695
  9
$ATTMODE
 70
     1
  9
$TEXTSIZE
 40
0.2
  9
$TRACEWID
 40
0.05
  9
$TEXTSTYLE
  7
STANDARD
  9
$CLAYER
  8
0
  9
$CELTYPE
  6
BYLAYER
  9
$CECOLOR
 62
   256
  9
$DIMSCALE
 40
1.0
  9
$DIMASZ
 40
0.1875
  9
$DIMEXO
 40
0.0625
  9
$DIMDLI
 40
0.4443307087
  9
$DIMRND
 40
0.0
  9
$DIMDLE
 40
0.0
  9
$DIMEXE
 40
0.125
  9
$DIMTP
 40
0.01
  9
$DIMTM
 40
0.01
  9
$DIMTXT
 40
2.0
  9
$DIMCEN
 40
0.1052362205
  9
$DIMTSZ
 40
0.0
  9
$DIMTOL
 70
     1
  9
$DIMLIM
 70
     0
  9
$DIMTIH
 70
     1
  9
$DIMTOH
 70
     1
  9
$DIMSE1
 70
     0
  9
$DIMSE2
 70
     0
  9
$DIMTAD
 70
     0
  9
$DIMZIN
 70
     0
  9
$DIMBLK
  1

  9
$DIMASO
 70
     1
  9
$DIMSHO
 70
     1
  9
$DIMPOST
  1
\X
  9
$DIMAPOST
  1

  9
$DIMALT
 70
     1
  9
$DIMALTD
 70
     2
  9
$DIMALTF
 40
25.3999999999999986
  9
$DIMLFAC
 40
1.0
  9
$DIMTOFL
 70
     0
  9
$DIMTVP
 40
0.0
  9
$DIMTIX
 70
     0
  9
$DIMSOXD
 70
     0
  9
$DIMSAH
 70
     0
  9
$DIMBLK1
  1

  9
$DIMBLK2
  1

  9
$DIMSTYLE
  2
STANDARD
  9
$DIMCLRD
 70
     0
  9
$DIMCLRE
 70
     0
  9
$DIMCLRT
 70
     0
  9
$DIMTFAC
 40
1.0
  9
$DIMGAP
 40
0.09
  9
$LUNITS
 70
     2
  9
$LUPREC
 70
     4
  9
$SKETCHINC
 40
0.1
  9
$FILLETRAD
 40
0.0
  9
$AUNITS
 70
     0
  9
$AUPREC
 70
     0
  9
$MENU
  1
.
  9
$ELEVATION
 40
0.0
  9
$PELEVATION
 40
0.0
  9
$THICKNESS
 40
0.0
  9
$LIMCHECK
 70
     0
  9
$BLIPMODE
 70
     0
  9
$CHAMFERA
 40
0.0
  9
$CHAMFERB
 40
0.0
  9
$SKPOLY
 70
     0
  9
$TDCREATE
 40
2458060.468368056230247
  9
$TDUPDATE
 40
2459359.6338425930589437
  9
$TDINDWG
 40
0.5339306713
  9
$TDUSRTIMER
 40
0.5339306713
  9
$USRTIMER
 70
     1
  9
$ANGBASE
 50
0.0
  9
$ANGDIR
 70
     0
  9
$PDMODE
 70
     0
  9
$PDSIZE
 40
0.3125
  9
$PLINEWID
 40
0.0
  9
$COORDS
 70
     1
  9
$SPLFRAME
 70
     0
  9
$SPLINETYPE
 70
     6
  9
$SPLINESEGS
 70
     8
  9
$ATTDIA
 70
     1
  9
$ATTREQ
 70
     1
  9
$HANDLING
 70
     1
  9
$HANDSEED
  5
21930
  9
$SURFTAB1
 70
     6
  9
$SURFTAB2
 70
     6
  9
$SURFTYPE
 70
     6
  9
$SURFU
 70
     6
  9
$SURFV
 70
     6
  9
$UCSNAME
  2

  9
$UCSORG
 10
0.0
 20
0.0
 30
0.0
  9
$UCSXDIR
 10
1.0
 20
0.0
 30
0.0
  9
$UCSYDIR
 10
0.0
 20
1.0
 30
0.0
  9
$PUCSNAME
  2

  9
$PUCSORG
 10
0.0
 20
0.0
 30
0.0
  9
$PUCSXDIR
 10
1.0
 20
0.0
 30
0.0
  9
$PUCSYDIR
 10
0.0
 20
1.0
 30
0.0
  9
$USERI1
 70
     0
  9
$USERI2
 70
     0
  9
$USERI3
 70
     0
  9
$USERI4
 70
     0
  9
$USERI5
 70
     0
  9
$USERR1
 40
0.0
  9
$USERR2
 40
0.0
  9
$USERR3
 40
0.0
  9
$USERR4
 40
0.0
  9
$USERR5
 40
0.0
  9
$WORLDVIEW
 70
     1
  9
$SHADEDGE
 70
     3
  9
$SHADEDIF
 70
    70
  9
$TILEMODE
 70
     1
  9
$MAXACTVP
 70
    64
  9
$PLIMCHECK
 70
     0
  9
$PEXTMIN
 10
1.0000000000000000E+20
 20
1.0000000000000000E+20
 30
1.0000000000000000E+20
  9
$PEXTMAX
 10
-1.0000000000000000E+20
 20
-1.0000000000000000E+20
 30
-1.0000000000000000E+20
  9
$PLIMMIN
 10
0.0
 20
0.0
  9
$PLIMMAX
 10
12.0
 20
9.0
  9
$UNITMODE
 70
     0
  9
$VISRETAIN
 70
     1
  9
$PLINEGEN
 70
     0
  9
$PSLTSCALE
 70
     1
  0
ENDSEC
  0
SECTION
  2
TABLES
  0
TABLE
  2
VPORT
 70
     1
  0
VPORT
  2
*ACTIVE
 70
     0
 10
0.0
 20
0.0
 11
1.0
 21
1.0
 12
552.116053994682602
 22
132.20356359484731
 13
0.0
 23
0.0
 14
1.0
 24
1.0
 15
0.0
 25
0.0
 16
0.0
 26
0.0
 36
60.4960186965801583
 17
3911.3653564453120453
 27
132.5796051025390057
 37
0.0
 40
7.558618115343875
 41
2.3198804185351261
 42
50.0
 43
0.0
 44
0.0
 50
0.0
 51
0.0
 71
     0
 72
   100
 73
     1
 74
     1
 75
     0
 76
     0
 77
     0
 78
     0
  0
ENDTAB
  0
TABLE
  2
LTYPE
 70
     2
  0
LTYPE
  2
CONTINUOUS
 70
     0
  3
Solid line
 72
    65
 73
     0
 40
0.0
  0
LTYPE
  2
PHANTOM2
 70
     0
  3
___ _ _ ___ _ _ ___ _ _ ___ _ _
 72
    65
 73
     6
 40
1.25
 49
0.625
 49
-0.125
 49
0.125
 49
-0.125
 49
0.125
 49
-0.125
  0
ENDTAB
  0
TABLE
  2
LAYER
 70
     2
  0
LAYER
  2
0
 70
     0
 62
   255
  6
CONTINUOUS
  0
LAYER
  2
DEFPOINTS
 70
     0
 62
     7
  6
CONTINUOUS
  0
ENDTAB
  0
TABLE
  2
STYLE
 70
     1
  0
STYLE
  2
STANDARD
 70
     0
 40
0.0
 41
0.8
 50
0.0
 71
     0
 42
0.2
  3
txt
  4

  0
ENDTAB
  0
TABLE
  2
VIEW
 70
     0
  0
ENDTAB
  0
TABLE
  2
UCS
 70
     0
  0
ENDTAB
  0
TABLE
  2
APPID
 70
    11
  0
APPID
  2
ACAD
 70
     0
  0
APPID
  2
ACAD_MLEADERVER
 70
     0
  0
APPID
  2
ACAD_EXEMPT_FROM_CAD_STANDARDS
 70
     0
  0
APPID
  2
ACAD_NAV_VCDISPLAY
 70
     0
  0
APPID
  2
ACAECLAYERSTANDARD
 70
     0
  0
APPID
  2
ACCMTRANSPARENCY
 70
     0
  0
APPID
  2
ACAD_DSTYLE_DIMJAG
 70
     0
  0
APPID
  2
ACAD_DSTYLE_DIMTALN
 70
     0
  0
APPID
  2
ACDBATTR
 70
     0
  0
APPID
  2
ACADANNOTATIVE
 70
     0
  0
APPID
  2
DCO15
 70
     0
  0
ENDTAB
  0
TABLE
  2
DIMSTYLE
 70
     1
  0
DIMSTYLE
  2
STANDARD
 70
     0
  3

  4

  5

  6

  7

 40
1.0
 41
0.1875
 42
0.0625
 43
0.38
 44
0.125
 45
0.0
 46
0.0
 47
0.01
 48
0.01
140
0.15625
141
0.09
142
0.0
143
25.3999999999999986
144
1.0
145
0.0
146
1.0
147
0.09
 71
     1
 72
     0
 73
     1
 74
     1
 75
     0
 76
     0
 77
     0
 78
     4
170
     0
171
     2
172
     0
173
     0
174
     0
175
     0
176
     0
177
     0
178
     0
  0
ENDTAB
  0
ENDSEC
  0
SECTION
  2
BLOCKS
  0
BLOCK
  8
0
  2
$MODEL_SPACE
 70
     0
 10
0.0
 20
0.0
 30
0.0
  3
$MODEL_SPACE
  1

  0
ENDBLK
  5
21
  8
0
  0
BLOCK
 67
     1
  8
0
  2
$PAPER_SPACE
 70
     0
 10
0.0
 20
0.0
 30
0.0
  3
$PAPER_SPACE
  1

  0
ENDBLK
  5
1D
 67
     1
  8
0
  0
ENDSEC
  0
SECTION
  2
ENTITIES
  0
ATTDEF
  5
20106
  8
DEFPOINTS
 10
4469.5934781944597489
 20
262.9362854939674889
 30
0.0
 40
0.001
  1
K-37265X-4
  3

  2
MODELNUMBER
 70
     0
1001
ACDBATTR
1070
     0
1070
     1
  0
ATTDEF
  5
20107
  8
DEFPOINTS
 10
4469.5933523848016193
 20
262.9346186535884158
 30
0.0
 40
0.001
  1
AIRFOIL
  3

  2
TRADENAME
 70
     0
1001
ACDBATTR
1070
     0
1070
     1
  0
ATTDEF
  5
20108
  8
DEFPOINTS
 10
4469.5934781944597489
 20
262.9329521606342155
 30
0.0
 40
0.001
  1
BATHROOM SINK FAUCET
  3

  2
PRODUCT
 70
     0
1001
ACDBATTR
1070
     0
1070
     1
  0
LINE
  5
215F2
  8
0
 10
4457.5854786054742362
 20
262.3623963438444093
 30
0.0
 11
4457.5854786054742362
 21
262.347997922944387
 31
0.0
  0
LINE
  5
215F3
  8
0
 10
4459.1798387038743385
 20
262.6864933670444202
 30
0.0
 11
4459.1798387113840363
 21
262.9939942616023245
 31
0.0
  0
LINE
  5
215F4
  8
0
 10
4459.5341694124736023
 20
262.6864933580444017
 30
0.0
 11
4459.5341714200330898
 21
262.9944631044791095
 31
0.0
  0
LINE
  5
215F5
  8
0
 10
4461.1287858761743337
 20
262.3479983239444095
 30
0.0
 11
4461.1287858761743337
 21
262.3616214841443934
 31
0.0
  0
LINE
  5
215F6
  8
0
 10
4465.1435990879754172
 20
262.7691475549444249
 30
0.0
 11
4465.1435564480743778
 21
262.7691443593444092
 31
0.0
  0
LINE
  5
215F7
  8
0
 10
4457.5953211703754278
 20
262.3381557751444006
 30
0.0
 11
4461.1189436860740898
 21
262.3381557751444006
 31
0.0
  0
LINE
  5
215F8
  8
0
 10
4469.3889091893743171
 20
262.4210321606444154
 30
0.0
 11
4469.5814131982742765
 21
262.4209292475443931
 31
0.0
  0
LINE
  5
215F9
  8
0
 10
4465.0645495083736023
 20
262.7646427135445037
 30
0.0
 11
4465.070743188574852
 21
262.7638287554839849
 31
0.0
  0
LINE
  5
215FA
  8
0
 10
4465.0616148938743208
 20
262.7655008919444981
 30
0.0
 11
4465.0645495083736023
 21
262.7646427135445037
 31
0.0
  0
LINE
  5
215FB
  8
0
 10
4465.1167537235487544
 20
262.7404381837221194
 30
0.0
 11
4465.1213620106536837
 21
262.7381253305078985
 31
0.0
  0
LINE
  5
215FC
  8
0
 10
4465.6699779125747227
 20
262.6357524220443906
 30
0.0
 11
4465.6699779125747227
 21
262.6058145795444148
 31
0.0
  0
LINE
  5
215FD
  8
0
 10
4465.3763685138746951
 20
262.662905999744396
 30
0.0
 11
4465.4164755214742399
 21
262.7088374778443836
 31
0.0
  0
LINE
  5
215FE
  8
0
 10
4469.5932245344747571
 20
262.4327419044444127
 30
0.0
 11
4469.5932245344747571
 21
263.440683198144427
 31
0.0
  0
ARC
  5
215FF
  8
0
 10
4469.5347263549738273
 20
179.4480643686443955
 30
0.0
 40
83.9965589082000008
 50
89.9627827598030478
 51
90.2099935115747371
  0
ARC
  5
21600
  8
0
 10
4469.5772719118849636
 20
322.5774592728955099
 30
0.0
 40
60.1572494404756384
 50
268.1828529804041068
 51
269.4611967802607069
  0
ARC
  5
21601
  8
0
 10
4465.2595640209738121
 20
259.0892864198444272
 30
0.0
 40
3.655898753799999
 50
89.4881474134141968
 51
89.8876077746190703
  0
ARC
  5
21602
  8
0
 10
4466.3997862482738128
 20
266.0326694604444242
 30
0.0
 40
3.4630266310999991
 50
257.5125826845041956
 51
258.2547533865994751
  0
ARC
  5
21603
  8
0
 10
4466.1865759960173818
 20
265.1108206545575854
 30
0.0
 40
2.5168996189504651
 50
253.6082192337487129
 51
257.7138092614230231
  0
ARC
  5
21604
  8
0
 10
4459.357004061974294
 20
261.9424066859444906
 30
0.0
 40
0.7499999999998838
 50
59.6867277484848202
 51
75.1817040185144378
  0
ARC
  5
21605
  8
0
 10
4459.3570032938841905
 20
261.9424092592273041
 30
0.0
 40
0.7499973157073222
 50
104.8182894891499046
 51
120.313310997714396
  0
ARC
  5
21606
  8
0
 10
4459.3568045227748371
 20
262.9438917777443976
 30
0.0
 40
0.0503535709
 50
243.7131939490816137
 51
296.3326612445777073
  0
ARC
  5
21607
  8
0
 10
4465.1364557516735658
 20
262.7744323616444149
 30
0.0
 40
0.0392908901
 50
189.5624392316886997
 51
239.9046774822114116
  0
ARC
  5
21608
  8
0
 10
4459.5538544377632206
 20
262.6864933527418771
 30
0.0
 40
0.0196850252888979
 50
179.9999846130509127
 51
255.1817475553077941
  0
ARC
  5
21609
  8
0
 10
4459.1601536502603267
 20
262.6864933723819036
 30
0.0
 40
0.0196850536139197
 50
284.8183405629815752
 51
359.9999845112438948
  0
ARC
  5
2160A
  8
0
 10
4469.5813990485821705
 20
262.4327547319284122
 30
0.0
 40
0.0118254928493126
 50
270.0685567902896196
 51
359.9378494540875977
  0
LINE
  5
2160B
  8
0
 10
4469.3889106535743849
 20
262.4210321588444117
 30
0.0
 11
4469.5814131985744098
 21
262.4209292484443949
 31
0.0
  0
ARC
  5
2160C
  8
0
 10
4461.1186249139627762
 20
262.3483167257456898
 30
0.0
 40
0.0101659496742854
 50
271.7969094495949776
 51
358.2051786650213216
  0
ARC
  5
2160D
  8
0
 10
4461.1086452446852491
 20
262.3621452330611987
 30
0.0
 40
0.0201474402765384
 50
358.5103823139182282
 51
44.7966145869897474
  0
ARC
  5
2160E
  8
0
 10
4461.1092767422296674
 20
262.3628449026325029
 30
0.0
 40
0.0192064091962601
 50
44.6428448094308621
 51
75.3542826763761582
  0
ARC
  5
2160F
  8
0
 10
4453.6355437638985677
 20
231.0646778332823885
 30
0.0
 40
32.1973304777821312
 50
76.5690361617710238
 51
77.3162469274085424
  0
ARC
  5
21610
  8
0
 10
4459.3709921592053433
 20
256.0153233750546065
 30
0.0
 40
6.5972684952103773
 50
78.3331381150527903
 51
85.2428851530267053
  0
ARC
  5
21611
  8
0
 10
4457.5957089894991441
 20
262.3483861756132001
 30
0.0
 40
0.0102377486501459
 50
182.1733855468089018
 51
267.8290425373672861
  0
ARC
  5
21612
  8
0
 10
4457.6051587091806141
 20
262.3623998015934831
 30
0.0
 40
0.0196801040107659
 50
104.7969727375805036
 51
180.0100667368101881
  0
ARC
  5
21613
  8
0
 10
4459.4430854407019069
 20
255.2596100315437013
 30
0.0
 40
7.3564091788610408
 50
99.5715476098993548
 51
104.5084887543705037
  0
ARC
  5
21614
  8
0
 10
4459.5596101571700274
 20
254.6132527808626094
 30
0.0
 40
8.0131473821077766
 50
95.4733434843737143
 51
99.624651222629879
  0
ARC
  5
21615
  8
0
 10
4459.514428563956244
 20
263.364105664405372
 30
0.0
 40
0.4989316786184763
 50
227.8856395477475871
 51
248.8618310962683893
  0
ARC
  5
21616
  8
0
 10
4459.1864982849338048
 20
263.3842604419514828
 30
0.0
 40
0.5223203740786178
 50
291.6428600281718104
 51
311.7308260305965746
  0
ARC
  5
21617
  8
0
 10
4459.1600720568067118
 20
262.9935710158408142
 30
0.0
 40
0.0197711853492975
 50
1.2266360346442411
 51
28.497165178742339
  0
ARC
  5
21618
  8
0
 10
4459.4760679916789741
 20
263.1538677274323277
 30
0.0
 40
0.3345651654591764
 50
193.0463189137853135
 51
206.8030042326423086
  0
ARC
  5
21619
  8
0
 10
4460.0411344574840768
 20
263.301950614461191
 30
0.0
 40
0.9186259779447672
 50
182.1206233043888858
 51
194.0881743899763023
  0
ARC
  5
2161A
  8
0
 10
4465.5190544911838515
 20
263.6537727953823946
 30
0.0
 40
6.4075428640757091
 50
179.6713842392140066
 51
183.452012853477413
  0
ARC
  5
2161B
  8
0
 10
4493.9018737944870736
 20
263.4605627636257736
 30
0.0
 40
34.7910167756630813
 50
177.3741892317200097
 51
179.6212866259818952
  0
ARC
  5
2161C
  8
0
 10
4492.5168014162063628
 20
263.7816576652849108
 30
0.0
 40
33.3936796518390224
 50
175.488724336065701
 51
177.8156663941751958
  0
ARC
  5
2161D
  8
0
 10
4466.5516069337127192
 20
265.8867341960144017
 30
0.0
 40
7.3435686942123137
 50
171.7177452291118982
 51
175.9276394982528871
  0
ARC
  5
2161E
  8
0
 10
4461.2558050153329532
 20
266.7230965795197903
 30
0.0
 40
1.983579933453506
 50
168.3664692585838907
 51
173.5892705938686902
  0
ARC
  5
2161F
  8
0
 10
4459.3568087818821368
 20
267.2198840900276195
 30
0.0
 40
0.0117516947237667
 50
25.9994456626019108
 51
154.0005543373862906
  0
ARC
  5
21620
  8
0
 10
4458.9972372045231168
 20
267.0478286388362221
 30
0.0
 40
0.410367478777538
 50
10.5675408818247902
 51
25.5834376275905093
  0
ARC
  5
21621
  8
0
 10
4453.1400091567047639
 20
266.0252668535458724
 30
0.0
 40
6.3561597669177816
 50
5.031470719416637
 51
9.9458661111157927
  0
ARC
  5
21622
  8
0
 10
4429.1398563538832605
 20
263.9614427731992805
 30
0.0
 40
30.4448750270353194
 50
2.3685051869401978
 51
4.9392330830506808
  0
ARC
  5
21623
  8
0
 10
4417.1945268260542434
 20
263.185745556265374
 30
0.0
 40
42.4129898035811905
 50
1.22306639036924
 51
2.748620066876784
  0
ARC
  5
21624
  8
0
 10
4446.8273058207523718
 20
263.760894255750884
 30
0.0
 40
12.7748148720571901
 50
358.4126602251656095
 51
1.4809197889740351
  0
ARC
  5
21625
  8
0
 10
4457.7603567422165725
 20
263.4211184313817853
 30
0.0
 40
1.8369158340397129
 50
350.9122495902677201
 51
359.5603145934280747
  0
ARC
  5
21626
  8
0
 10
4459.1557477350070258
 20
263.1858125888660993
 30
0.0
 40
0.4220438471326787
 50
334.4522480883142066
 51
352.5353741500559863
  0
ARC
  5
21627
  8
0
 10
4459.5538748663038859
 20
262.994458864021226
 30
0.0
 40
0.0197034467272237
 50
151.6980895601049042
 51
179.9876691452093951
  0
ARC
  5
21628
  8
0
 10
4469.3796207352079364
 20
223.0400530075299912
 30
0.0
 40
40.4042948463148832
 50
90.2166060902050901
 51
91.0288034077575361
  0
ARC
  5
21629
  8
0
 10
4470.4113440825285579
 20
166.1375043898387958
 30
0.0
 40
97.3161956387947953
 50
91.0346140941791901
 51
91.6143853770735177
  0
ARC
  5
2162A
  8
0
 10
4468.4658475235328297
 20
231.8127855276931086
 30
0.0
 40
31.6123142482518915
 50
91.443144514399691
 51
93.0782102391227255
  0
ARC
  5
2162B
  8
0
 10
4467.4104773310837118
 20
250.8456822664126094
 30
0.0
 40
12.5502467440885805
 50
92.9330388783188539
 51
95.8438222751994431
  0
ARC
  5
2162C
  8
0
 10
4466.7599312611391724
 20
256.8184955380082215
 30
0.0
 40
6.5423530800514911
 50
95.5020068405980851
 51
100.5143686507398968
  0
ARC
  5
2162D
  8
0
 10
4466.0478344564708095
 20
260.6044934885144926
 30
0.0
 40
2.689996185094798
 50
100.3170648939407954
 51
108.2536045157766011
  0
ARC
  5
2162E
  8
0
 10
4465.5467333204651368
 20
262.1250648156088801
 30
0.0
 40
1.0889842778439189
 50
108.2742983539273069
 51
118.6791985194277999
  0
ARC
  5
2162F
  8
0
 10
4465.2480834117950508
 20
262.6653382643655164
 30
0.0
 40
0.4716756529155924
 50
118.3473649244406971
 51
134.3748540937806126
  0
ARC
  5
21630
  8
0
 10
4465.6500421230866777
 20
262.3037706972875753
 30
0.0
 40
1.0118131434120601
 50
136.3260114244964996
 51
138.0703872647038963
  0
ARC
  5
21631
  8
0
 10
4464.9603362859306799
 20
262.9327609031300881
 30
0.0
 40
0.0787117514562851
 50
143.2268139979341868
 51
219.5254688900018039
  0
ARC
  5
21632
  8
0
 10
4465.2701862364128829
 20
263.2244357737387759
 30
0.0
 40
0.5041063683944724
 50
222.6851682300238053
 51
245.5597103440117905
  0
ARC
  5
21633
  8
0
 10
4469.6536969152812162
 20
355.5372615885398773
 30
0.0
 40
93.1166059033943867
 50
269.6048871911693254
 51
269.8370735749534788
  0
ARC
  5
21634
  8
0
 10
4468.1712646679152385
 20
286.335140908226208
 30
0.0
 40
23.8899447728103915
 50
265.644227082874977
 51
268.7969803777456832
  0
ARC
  5
21635
  8
0
 10
4466.9862626166795962
 20
270.7480598636350919
 30
0.0
 40
8.2578844252090668
 50
260.8973142376897272
 51
265.6286183898372997
  0
ARC
  5
21636
  8
0
 10
4465.6817795906799802
 20
262.6058114230385172
 30
0.0
 40
0.0118016785285888
 50
179.9846755299911933
 51
260.4882172192861844
  0
ARC
  5
21637
  8
0
 10
4465.6478021826260374
 20
262.6931681367651095
 30
0.0
 40
0.0624279568774298
 50
296.8844439317988986
 51
307.9748518276510936
  0
ARC
  5
21638
  8
0
 10
4465.667484644205615
 20
262.6543132155151739
 30
0.0
 40
0.0188722054489977
 50
282.6316916466204816
 51
296.9291300301749175
  0
ARC
  5
21639
  8
0
 10
4465.6702715109522615
 20
262.6417060272921731
 30
0.0
 40
0.0059608401634115
 50
267.1767810291520959
 51
282.9927658219298792
  0
ARC
  5
2163A
  8
0
 10
4465.6436570932655741
 20
262.3819406866525128
 30
0.0
 40
0.2651978391171559
 50
73.2583371011671858
 51
78.8697868241827251
  0
ARC
  5
2163B
  8
0
 10
4465.7088609909087609
 20
262.597609517381386
 30
0.0
 40
0.0398893123977371
 50
63.8221256666603978
 51
73.711110608744761
  0
ARC
  5
2163C
  8
0
 10
4465.724617923679034
 20
262.629150739465274
 30
0.0
 40
0.0046375046368299
 50
41.0244637771278278
 51
66.6156910624228829
  0
ARC
  5
2163D
  8
0
 10
4465.7276878380243943
 20
262.6318274016920213
 30
0.0
 40
0.0005645767479448
 50
335.9994873204418013
 51
40.5861892810866109
  0
ARC
  5
2163E
  8
0
 10
4465.7274838360008289
 20
262.6319944555631878
 30
0.0
 40
0.0008218447361058
 50
312.4179487915999971
 51
331.1390556002613721
  0
ARC
  5
2163F
  8
0
 10
4465.3881554352983585
 20
262.9669986013512926
 30
0.0
 40
0.47765567821903
 50
311.9010676794400183
 51
315.3623398842406118
  0
ARC
  5
21640
  8
0
 10
4465.5824818455766945
 20
262.7515629523538792
 30
0.0
 40
0.1875284560031881
 50
307.3951287909856092
 51
311.6691553323984181
  0
ARC
  5
21641
  8
0
 10
4465.6494378127517848
 20
262.6637749091254932
 30
0.0
 40
0.0771209971468481
 50
300.2293099757271193
 51
307.4843926834054741
  0
ARC
  5
21642
  8
0
 10
4465.6740708615843687
 20
262.621141277661593
 30
0.0
 40
0.0278835826851222
 50
287.8316745517606137
 51
300.6013002174670987
  0
ARC
  5
21643
  8
0
 10
4465.6799833997465612
 20
262.6024654683841959
 30
0.0
 40
0.0082949005838072
 50
268.9359201690584769
 51
288.4563547971355888
  0
ARC
  5
21644
  8
0
 10
4465.3732511672178589
 20
262.3557338859673109
 30
0.0
 40
0.3557393587972069
 50
73.1619548805415008
 51
83.020992130491436
  0
ARC
  5
21645
  8
0
 10
4465.3674187016922588
 20
262.6708829269443868
 30
0.0
 40
0.0119887658101601
 50
256.0604823889893282
 51
318.2895256318644215
  0
ARC
  5
21646
  8
0
 10
4465.9441984985660383
 20
264.9242296399066277
 30
0.0
 40
2.3379820732915348
 50
253.1740262199340066
 51
255.6446433346326046
  0
ARC
  5
21647
  8
0
 10
4465.7162471263973202
 20
264.1842240764843837
 30
0.0
 40
1.5636783185962131
 50
247.6390863705366883
 51
253.3200851864604886
  0
ARC
  5
21648
  8
0
 10
4465.1285408380635999
 20
262.7562881985260788
 30
0.0
 40
0.0195301136101607
 50
248.4337164289950124
 51
299.5573763983326216
  0
ARC
  5
21649
  8
0
 10
4465.2560080448429289
 20
261.9057027407840792
 30
0.0
 40
0.839543937776291
 50
89.2678721667130191
 51
93.597497782568027
  0
ARC
  5
2164A
  8
0
 10
4465.1591820377925615
 20
263.1854321263459724
 30
0.0
 40
0.4440398397452771
 50
272.1421221570329863
 51
275.7058708289783908
  0
ARC
  5
2164B
  8
0
 10
4465.3548068019108541
 20
255.5243296838212927
 30
0.0
 40
7.2195929533534624
 50
91.420933140253041
 51
91.6207870750903908
  0
ARC
  5
2164C
  8
0
 10
4465.1526204903875623
 20
262.6594358860817238
 30
0.0
 40
0.0816232014223609
 50
91.4144483230721931
 51
97.4344446689556634
  0
ARC
  5
2164D
  8
0
 10
4465.143037059049675
 20
262.7292683443948249
 30
0.0
 40
0.0111475604735345
 50
95.032828647121292
 51
115.8591049103922046
  0
ARC
  5
2164E
  8
0
 10
4466.505117360488839
 20
382.4073205383377854
 30
0.0
 40
119.6684280199010999
 50
269.419271363448388
 51
269.6189968968623134
  0
ARC
  5
2164F
  8
0
 10
4468.081200911427004
 20
378.3074900389877939
 30
0.0
 40
115.5902886770730049
 50
268.824242227895013
 51
269.7209480615188113
  0
ARC
  5
21650
  8
0
 10
4468.1138583915562776
 20
428.9366667029589166
 30
0.0
 40
166.2191615811451868
 50
269.7946880786770976
 51
270.5058733800224786
  0
ARC
  5
21651
  8
0
 10
4469.5818782233500315
 20
262.7353224197665895
 30
0.0
 40
0.0113481050780205
 50
267.6567548728364159
 51
358.9812044393892165
  0
ARC
  5
21652
  8
0
 10
4469.5885866217877265
 20
262.7569102776535033
 30
0.0
 40
0.0046388872573768
 50
269.2424668954474782
 51
358.8255176824010277
  0
ARC
  5
21653
  8
0
 10
4468.1116584391147626
 20
386.0432917853182175
 30
0.0
 40
123.2998651489219952
 50
268.9821699383867895
 51
270.6862964600816213
  0
ARC
  5
21654
  8
0
 10
4465.3538622170490271
 20
225.4919448994500044
 30
0.0
 40
37.2752575500082486
 50
89.1275812886376144
 51
89.9383026653862458
  0
ARC
  5
21655
  8
0
 10
4460.5191511861839899
 20
-88.2471939154819438
 30
0.0
 40
351.0482238163538113
 50
89.204333537539469
 51
89.2394304812472967
  0
ARC
  5
21656
  8
0
 10
4465.1963454606420783
 20
261.501393431265285
 30
0.0
 40
1.2688264649652541
 50
90.7840201301040253
 51
93.239900096642657
  0
ARC
  5
21657
  8
0
 10
4465.1366766362289127
 20
260.3721067179332067
 30
0.0
 40
2.3961154032213501
 50
90.287929222058068
 51
91.224412883135102
  0
ARC
  5
21658
  8
0
 10
4464.5003336012250656
 20
264.9787979419414796
 30
0.0
 40
2.2872375465386332
 50
284.4412998879965926
 51
284.8227171153723134
  0
ARC
  5
21659
  8
0
 10
4469.5892868588589408
 20
263.4406678509213862
 30
0.0
 40
0.0039377055238363
 50
0.2233110943183984
 51
89.9915462564074318
  0
LINE
  5
2165A
  8
0
 10
4459.3568087818821368
 20
262.8935384291627884
 30
0.0
 11
4459.3568087818821368
 21
267.2316357847514041
 31
0.0
  0
ARC
  5
2165B
  8
0
 10
4459.7163803592393378
 20
267.0478286388362221
 30
0.0
 40
0.410367478777538
 50
154.4165623724211969
 51
169.4324591181751885
  0
LINE
  5
2165C
  8
0
 10
4464.8816245344742129
 20
262.9327609031300881
 30
0.0
 11
4469.5932245344747571
 21
262.9327609031300881
 31
0.0
  0
LINE
  5
2165D
  8
0
 10
4461.1141329182019035
 20
262.3814272520302211
 30
0.0
 11
4457.6001325154165897
 21
262.3814272520302211
 31
0.0
  0
LINE
  5
2165E
  8
0
 10
4458.7952950044336831
 20
262.5898656782443936
 30
0.0
 11
4459.9181165522468291
 21
262.5898656782443936
 31
0.0
  0
LINE
  5
2165F
  8
0
 10
4459.1651882056366958
 20
262.6674630127444061
 30
0.0
 11
4459.5488199188966973
 21
262.6674630127444061
 31
0.0
  0
ENDSEC
  0
EOF
