  0
SECTION
  2
HEADER
  9
$ACADVER
  1
AC1009
  9
$INSBASE
 10
4539.7152938460612859
 20
301.4528154836114027
 30
0.0
  9
$EXTMIN
 10
4527.7071060209336792
 20
276.4659209562216233
 30
-0.0015258207003583
  9
$EXTMAX
 10
4540.6671831960502459
 20
312.7582679212882795
 30
0.0000000349246037
  9
$LIMMIN
 10
0.0
 20
0.0
  9
$LIMMAX
 10
11.6929133858000007
 20
8.2677165353999982
  9
$ORTHOMODE
 70
     0
  9
$REGENMODE
 70
     1
  9
$FILLMODE
 70
     1
  9
$QTEXTMODE
 70
     0
  9
$MIRRTEXT
 70
     0
  9
$DRAGMODE
 70
     2
  9
$LTSCALE
 40
0.6431102362
  9
$OSMODE
 70
     7
  9
$ATTMODE
 70
     1
  9
$TEXTSIZE
 40
0.2
  9
$TRACEWID
 40
0.05
  9
$TEXTSTYLE
  7
STANDARD
  9
$CLAYER
  8
0
  9
$CELTYPE
  6
BYLAYER
  9
$CECOLOR
 62
   256
  9
$DIMSCALE
 40
1.0
  9
$DIMASZ
 40
0.1875
  9
$DIMEXO
 40
0.0625
  9
$DIMDLI
 40
0.4443307087
  9
$DIMRND
 40
0.0
  9
$DIMDLE
 40
0.0
  9
$DIMEXE
 40
0.125
  9
$DIMTP
 40
0.01
  9
$DIMTM
 40
0.01
  9
$DIMTXT
 40
2.0
  9
$DIMCEN
 40
0.1052362205
  9
$DIMTSZ
 40
0.0
  9
$DIMTOL
 70
     1
  9
$DIMLIM
 70
     0
  9
$DIMTIH
 70
     1
  9
$DIMTOH
 70
     1
  9
$DIMSE1
 70
     0
  9
$DIMSE2
 70
     0
  9
$DIMTAD
 70
     0
  9
$DIMZIN
 70
     0
  9
$DIMBLK
  1

  9
$DIMASO
 70
     1
  9
$DIMSHO
 70
     1
  9
$DIMPOST
  1
\X
  9
$DIMAPOST
  1

  9
$DIMALT
 70
     1
  9
$DIMALTD
 70
     2
  9
$DIMALTF
 40
25.3999999999999986
  9
$DIMLFAC
 40
1.0
  9
$DIMTOFL
 70
     0
  9
$DIMTVP
 40
0.0
  9
$DIMTIX
 70
     0
  9
$DIMSOXD
 70
     0
  9
$DIMSAH
 70
     0
  9
$DIMBLK1
  1

  9
$DIMBLK2
  1

  9
$DIMSTYLE
  2
STANDARD
  9
$DIMCLRD
 70
     0
  9
$DIMCLRE
 70
     0
  9
$DIMCLRT
 70
     0
  9
$DIMTFAC
 40
1.0
  9
$DIMGAP
 40
0.09
  9
$LUNITS
 70
     2
  9
$LUPREC
 70
     4
  9
$SKETCHINC
 40
0.1
  9
$FILLETRAD
 40
0.0
  9
$AUNITS
 70
     0
  9
$AUPREC
 70
     0
  9
$MENU
  1
.
  9
$ELEVATION
 40
0.0
  9
$PELEVATION
 40
0.0
  9
$THICKNESS
 40
0.0
  9
$LIMCHECK
 70
     0
  9
$BLIPMODE
 70
     0
  9
$CHAMFERA
 40
0.0
  9
$CHAMFERB
 40
0.0
  9
$SKPOLY
 70
     0
  9
$TDCREATE
 40
2458060.468368056230247
  9
$TDUPDATE
 40
2459384.0548958331346512
  9
$TDINDWG
 40
0.5548103009000001
  9
$TDUSRTIMER
 40
0.5548103009000001
  9
$USRTIMER
 70
     1
  9
$ANGBASE
 50
0.0
  9
$ANGDIR
 70
     0
  9
$PDMODE
 70
     0
  9
$PDSIZE
 40
0.3125
  9
$PLINEWID
 40
0.0
  9
$COORDS
 70
     1
  9
$SPLFRAME
 70
     0
  9
$SPLINETYPE
 70
     6
  9
$SPLINESEGS
 70
     8
  9
$ATTDIA
 70
     1
  9
$ATTREQ
 70
     1
  9
$HANDLING
 70
     1
  9
$HANDSEED
  5
24392
  9
$SURFTAB1
 70
     6
  9
$SURFTAB2
 70
     6
  9
$SURFTYPE
 70
     6
  9
$SURFU
 70
     6
  9
$SURFV
 70
     6
  9
$UCSNAME
  2

  9
$UCSORG
 10
0.0
 20
0.0
 30
0.0
  9
$UCSXDIR
 10
1.0
 20
0.0
 30
0.0
  9
$UCSYDIR
 10
0.0
 20
1.0
 30
0.0
  9
$PUCSNAME
  2

  9
$PUCSORG
 10
0.0
 20
0.0
 30
0.0
  9
$PUCSXDIR
 10
1.0
 20
0.0
 30
0.0
  9
$PUCSYDIR
 10
0.0
 20
1.0
 30
0.0
  9
$USERI1
 70
     0
  9
$USERI2
 70
     0
  9
$USERI3
 70
     0
  9
$USERI4
 70
     0
  9
$USERI5
 70
     0
  9
$USERR1
 40
0.0
  9
$USERR2
 40
0.0
  9
$USERR3
 40
0.0
  9
$USERR4
 40
0.0
  9
$USERR5
 40
0.0
  9
$WORLDVIEW
 70
     1
  9
$SHADEDGE
 70
     3
  9
$SHADEDIF
 70
    70
  9
$TILEMODE
 70
     1
  9
$MAXACTVP
 70
    64
  9
$PLIMCHECK
 70
     0
  9
$PEXTMIN
 10
1.0000000000000000E+20
 20
1.0000000000000000E+20
 30
1.0000000000000000E+20
  9
$PEXTMAX
 10
-1.0000000000000000E+20
 20
-1.0000000000000000E+20
 30
-1.0000000000000000E+20
  9
$PLIMMIN
 10
0.0
 20
0.0
  9
$PLIMMAX
 10
12.0
 20
9.0
  9
$UNITMODE
 70
     0
  9
$VISRETAIN
 70
     1
  9
$PLINEGEN
 70
     0
  9
$PSLTSCALE
 70
     1
  0
ENDSEC
  0
SECTION
  2
TABLES
  0
TABLE
  2
VPORT
 70
     1
  0
VPORT
  2
*ACTIVE
 70
     0
 10
0.0
 20
0.0
 11
1.0
 21
1.0
 12
622.8217881631799173
 22
162.0324893362158036
 13
0.0
 23
0.0
 14
1.0
 24
1.0
 15
0.0
 25
0.0
 16
0.0
 26
0.0
 36
60.4960186965801583
 17
3911.3653564453120453
 27
132.5796051025390057
 37
0.0
 40
36.6429626121072829
 41
2.3461538461538458
 42
50.0
 43
0.0
 44
0.0
 50
0.0
 51
0.0
 71
     0
 72
   100
 73
     1
 74
     1
 75
     0
 76
     0
 77
     0
 78
     0
  0
ENDTAB
  0
TABLE
  2
LTYPE
 70
     3
  0
LTYPE
  2
CONTINUOUS
 70
     0
  3
Solid line
 72
    65
 73
     0
 40
0.0
  0
LTYPE
  2
PHANTOM2
 70
     0
  3
___ _ _ ___ _ _ ___ _ _ ___ _ _
 72
    65
 73
     6
 40
1.25
 49
0.625
 49
-0.125
 49
0.125
 49
-0.125
 49
0.125
 49
-0.125
  0
ENDTAB
  0
TABLE
  2
LAYER
 70
     2
  0
LAYER
  2
0
 70
     0
 62
   255
  6
CONTINUOUS
  0
LAYER
  2
DEFPOINTS
 70
     0
 62
     7
  6
CONTINUOUS
  0
ENDTAB
  0
TABLE
  2
STYLE
 70
     1
  0
STYLE
  2
STANDARD
 70
     0
 40
0.0
 41
0.8
 50
0.0
 71
     0
 42
0.2
  3
txt
  4

  0
ENDTAB
  0
TABLE
  2
VIEW
 70
     0
  0
ENDTAB
  0
TABLE
  2
UCS
 70
     0
  0
ENDTAB
  0
TABLE
  2
APPID
 70
    11
  0
APPID
  2
ACAD
 70
     0
  0
APPID
  2
ACAD_MLEADERVER
 70
     0
  0
APPID
  2
ACAD_EXEMPT_FROM_CAD_STANDARDS
 70
     0
  0
APPID
  2
ACAD_NAV_VCDISPLAY
 70
     0
  0
APPID
  2
ACAECLAYERSTANDARD
 70
     0
  0
APPID
  2
ACCMTRANSPARENCY
 70
     0
  0
APPID
  2
ACAD_DSTYLE_DIMJAG
 70
     0
  0
APPID
  2
ACAD_DSTYLE_DIMTALN
 70
     0
  0
APPID
  2
ACDBATTR
 70
     0
  0
APPID
  2
ACADANNOTATIVE
 70
     0
  0
APPID
  2
DCO15
 70
     0
  0
ENDTAB
  0
TABLE
  2
DIMSTYLE
 70
     2
  0
DIMSTYLE
  2
STANDARD
 70
     0
  3

  4

  5

  6

  7

 40
1.0
 41
0.1875
 42
0.0625
 43
0.38
 44
0.125
 45
0.0
 46
0.0
 47
0.01
 48
0.01
140
0.15625
141
0.09
142
0.0
143
25.3999999999999986
144
1.0
145
0.0
146
1.0
147
0.09
 71
     1
 72
     0
 73
     1
 74
     1
 75
     0
 76
     0
 77
     0
 78
     4
170
     0
171
     2
172
     0
173
     0
174
     0
175
     0
176
     0
177
     0
178
     0
  0
ENDTAB
  0
ENDSEC
  0
SECTION
  2
BLOCKS
  0
BLOCK
  8
0
  2
$MODEL_SPACE
 70
     0
 10
0.0
 20
0.0
 30
0.0
  3
$MODEL_SPACE
  1

  0
ENDBLK
  5
21
  8
0
  0
BLOCK
 67
     1
  8
0
  2
$PAPER_SPACE
 70
     0
 10
0.0
 20
0.0
 30
0.0
  3
$PAPER_SPACE
  1

  0
ENDBLK
  5
1D
 67
     1
  8
0
  0
ENDSEC
  0
SECTION
  2
ENTITIES
  0
ATTDEF
  5
20106
  8
DEFPOINTS
 10
4539.7152993045256153
 20
301.4561536000085766
 30
0.0
 40
0.001
  1
K-37266T
  3

  2
MODELNUMBER
 70
     0
1001
ACDBATTR
1070
     0
1070
     1
  0
ATTDEF
  5
20107
  8
DEFPOINTS
 10
4539.7152958429478531
 20
301.4544867596295035
 30
0.0
 40
0.001
  1
AIRFOIL 
  3

  2
TRADENAME
 70
     0
1001
ACDBATTR
1070
     0
1070
     1
  0
ATTDEF
  5
20108
  8
DEFPOINTS
 10
4539.7152979053089439
 20
301.4528202666753032
 30
0.0
 40
0.001
  1
 BATH AND SHOWER FAUCET 
  3

  2
PRODUCT
 70
     0
1001
ACDBATTR
1070
     0
1070
     1
  0
LINE
  5
2401B
  8
0
 10
4535.1884702954675959
 20
301.6770049016835173
 30
0.0
 11
4535.1319800481041966
 21
303.0327708402820122
 31
0.0
  0
LINE
  5
2401C
  8
0
 10
4535.2790201392672316
 20
301.6581393611834869
 30
0.0
 11
4535.2790201392672316
 21
300.8866008855836185
 31
0.0
  0
LINE
  5
2401D
  8
0
 10
4535.8971303754678956
 20
301.6581393611834869
 30
0.0
 11
4535.8971303754678956
 21
300.8502372307835913
 31
0.0
  0
LINE
  5
2401E
  8
0
 10
4535.9508459120679618
 20
303.1665349202232846
 30
0.0
 11
4535.9508459120679618
 21
303.5605797263835939
 31
0.0
  0
LINE
  5
2401F
  8
0
 10
4536.4884689581667772
 20
302.982864748487998
 30
0.0
 11
4536.4884689581667772
 21
302.8589267627835966
 31
0.0
  0
LINE
  5
24020
  8
0
 10
4536.5731146274683852
 20
280.5733751435835757
 30
0.0
 11
4536.5731146274683852
 21
301.441603928083623
 31
0.0
  0
LINE
  5
24021
  8
0
 10
4535.9508459311673505
 20
303.5397222345836212
 30
0.0
 11
4535.9508459172666335
 21
303.5397058057835125
 31
0.0
  0
LINE
  5
24022
  8
0
 10
4535.9622880882679965
 20
303.5504090804835187
 30
0.0
 11
4535.9622789054683381
 21
303.1682568251836187
 31
0.0
  0
LINE
  5
24023
  8
0
 10
4535.8935744312666429
 20
303.559497685383576
 30
0.0
 11
4535.8900100759674388
 21
303.1510630259836034
 31
0.0
  0
LINE
  5
24024
  8
0
 10
4535.9774439986667858
 20
301.6770049016835173
 30
0.0
 11
4536.0338440707673726
 21
303.0306066325837833
 31
0.0
  0
LINE
  5
24025
  8
0
 10
4536.487682893967758
 20
301.4604694685835966
 30
0.0
 11
4536.4297555823668517
 21
302.8507249474836271
 31
0.0
  0
LINE
  5
24026
  8
0
 10
4537.1912248636681397
 20
280.5930458197835833
 30
0.0
 11
4537.1912248636681397
 21
301.441603928083623
 31
0.0
  0
LINE
  5
24027
  8
0
 10
4537.2758705329679287
 20
302.9786990639835267
 30
0.0
 11
4537.2758705329679287
 21
302.8589267627835966
 31
0.0
  0
LINE
  5
24028
  8
0
 10
4537.2766565970669035
 20
301.4604694685835966
 30
0.0
 11
4537.3345839087669447
 21
302.8507249474836271
 31
0.0
  0
LINE
  5
24029
  8
0
 10
4537.2569886232668068
 20
301.441603928083623
 30
0.0
 11
4536.5073508678669896
 21
301.441603928083623
 31
0.0
  0
LINE
  5
2402A
  8
0
 10
4535.9577760247666447
 20
301.6581393611834869
 30
0.0
 11
4535.2081382693668274
 21
301.6581393611834869
 31
0.0
  0
LINE
  5
2402B
  8
0
 10
4536.4376227718676091
 20
302.8589267627835966
 30
0.0
 11
4537.3267167191670524
 21
302.8589267627835966
 31
0.0
  0
LINE
  5
2402C
  8
0
 10
4535.2248412674771316
 20
303.0754621958835742
 30
0.0
 11
4535.9356731134266738
 21
303.0754621958835742
 31
0.0
  0
LINE
  5
2402D
  8
0
 10
4535.8900660094277555
 20
303.1502653454836036
 30
0.0
 11
4535.270405490916346
 21
303.1502653454836036
 31
0.0
  0
ARC
  5
2402E
  8
0
 10
4537.2569886232668068
 20
301.4612889674835969
 30
0.0
 40
0.0196850394
 50
270.0
 51
357.6140559691983754
  0
ARC
  5
2402F
  8
0
 10
4536.5073508678669896
 20
301.4612889674835969
 30
0.0
 40
0.0196850394
 50
182.3859440307998057
 51
270.0
  0
ARC
  5
24030
  8
0
 10
4535.9577760247666447
 20
301.6778244005835177
 30
0.0
 40
0.0196850394
 50
270.0
 51
357.6140559691983754
  0
ARC
  5
24031
  8
0
 10
4535.2081382693668274
 20
301.6778244005835177
 30
0.0
 40
0.0196850394
 50
182.3859440307998057
 51
270.0
  0
ARC
  5
24032
  8
0
 10
4536.4376227718676091
 20
302.851052746983612
 30
0.0
 40
0.0078740157
 50
90.0
 51
182.3859440303957911
  0
ARC
  5
24033
  8
0
 10
4537.3267167191670524
 20
302.851052746983612
 30
0.0
 40
0.0078740157
 50
357.6140559695991783
 51
90.0
  0
LINE
  5
24034
  8
0
 10
4533.4166212739610273
 20
303.1914926054113835
 30
0.0
 11
4533.416578634061807
 21
303.1914894098114246
 31
0.0
  0
LINE
  5
24035
  8
0
 10
4533.3375716943610314
 20
303.1869877640114055
 30
0.0
 11
4533.3437653745631906
 21
303.1861738059510003
 31
0.0
  0
LINE
  5
24036
  8
0
 10
4533.3351623385369749
 20
303.1876923393912762
 30
0.0
 11
4533.3375716943610314
 21
303.1869877640114055
 31
0.0
  0
LINE
  5
24037
  8
0
 10
4533.3898941048528286
 20
303.163001139933499
 30
0.0
 11
4533.3945561731216003
 21
303.1604723645472745
 31
0.0
  0
LINE
  5
24038
  8
0
 10
4537.8662467204612767
 20
302.855086954911485
 30
0.0
 11
4537.8662467204612767
 21
303.8630282486113856
 31
0.0
  0
ARC
  5
24039
  8
0
 10
4537.8077485409612564
 20
219.8704094191114109
 30
0.0
 40
83.9965589082000008
 50
89.9627827598030478
 51
90.2099935115747371
  0
ARC
  5
2403A
  8
0
 10
4538.385116059592292
 20
386.7866728667804068
 30
0.0
 40
83.9494026228523751
 50
268.390480301479613
 51
268.6985350220414261
  0
ARC
  5
2403B
  8
0
 10
4533.5325862069621508
 20
299.5116314703113858
 30
0.0
 40
3.655898753799999
 50
89.4881474134141968
 51
89.8876077746190703
  0
ARC
  5
2403C
  8
0
 10
4533.4082752410331523
 20
303.1962878735834011
 30
0.0
 40
0.0380246341772922
 50
189.1360968101373885
 51
241.0922539253679133
  0
ARC
  5
2403D
  8
0
 10
4537.8544207135137185
 20
302.8550994921445181
 30
0.0
 40
0.0118260135929613
 50
270.9261725598709063
 51
359.9392584261594834
  0
ARC
  5
2403E
  8
0
 10
4537.6526429211935465
 20
263.4623980579970066
 30
0.0
 40
40.4042948463148832
 50
90.2166060902050901
 51
91.0288034077575361
  0
ARC
  5
2403F
  8
0
 10
4538.7905252292575824
 20
201.4040142319481959
 30
0.0
 40
102.4731079705258026
 50
91.0419082898219756
 51
91.5038986118447752
  0
ARC
  5
24040
  8
0
 10
4535.8772740057065676
 20
295.0821809031459111
 30
0.0
 40
8.7511397044080006
 50
95.3422534276319595
 51
99.6323571167576461
  0
ARC
  5
24041
  8
0
 10
4535.8772740057065676
 20
295.0821809031439784
 30
0.0
 40
8.7511397044098214
 50
99.6323571167576461
 51
103.4681530457195038
  0
ARC
  5
24042
  8
0
 10
4535.8772740057011106
 20
295.0821809031638168
 30
0.0
 40
8.7511397043895016
 50
103.4681530457195038
 51
105.762109736035697
  0
ARC
  5
24043
  8
0
 10
4535.8772740056938346
 20
295.0821809031838256
 30
0.0
 40
8.7511397043683754
 50
105.762109736035697
 51
107.1544261115421932
  0
ARC
  5
24044
  8
0
 10
4535.8772740069871361
 20
295.0821808991248076
 30
0.0
 40
8.7511397086284806
 50
107.1544261118151979
 51
107.8463177313788037
  0
ARC
  5
24045
  8
0
 10
4535.8772782155283494
 20
295.0821679144405039
 30
0.0
 40
8.7511533583085477
 50
107.8463179057942938
 51
107.9955718188422935
  0
ARC
  5
24046
  8
0
 10
4533.2343745795751602
 20
303.3551131112711232
 30
0.0
 40
0.0787148015380189
 50
140.4656206543803023
 51
219.5344580167385971
  0
ARC
  5
24047
  8
0
 10
4533.5938355487378431
 20
303.7135955801816749
 30
0.0
 40
0.5860768280268466
 50
224.199379131511904
 51
243.8090581891092086
  0
ARC
  5
24048
  8
0
 10
4537.8262144103109677
 20
377.6268652982702179
 30
0.0
 40
74.783595666348603
 50
269.6231460623350813
 51
270.0217568385809841
  0
ARC
  5
24049
  8
0
 10
4533.5290302308294486
 20
302.3280477912510946
 30
0.0
 40
0.839543937776291
 50
89.2678721667130048
 51
93.5974977825679559
  0
ARC
  5
2404A
  8
0
 10
4533.4322042237799906
 20
303.6077771768129878
 30
0.0
 40
0.4440398397452771
 50
272.1421221570329863
 51
275.7058708289783908
  0
ARC
  5
2404B
  8
0
 10
4534.7781395464762682
 20
422.8296655888048008
 30
0.0
 40
119.6684280199010999
 50
269.419271363448388
 51
269.6189968968623134
  0
ARC
  5
2404C
  8
0
 10
4536.3542230974153426
 20
418.7298350894548093
 30
0.0
 40
115.5902886770730049
 50
268.824242227895013
 51
269.4287813413371282
  0
ARC
  5
2404D
  8
0
 10
4536.3868805775437067
 20
469.3590117534258752
 30
0.0
 40
166.2191615811451868
 50
269.8526450475055185
 51
270.5058733800225923
  0
ARC
  5
2404E
  8
0
 10
4537.8549004093356416
 20
303.1576674702337186
 30
0.0
 40
0.0113481050780205
 50
267.6567548728364159
 51
358.9812044403889217
  0
ARC
  5
2404F
  8
0
 10
4537.8616088077760651
 20
303.1792553281205187
 30
0.0
 40
0.0046388872573768
 50
269.2424668954474214
 51
358.825517688790228
  0
ARC
  5
24050
  8
0
 10
4536.3846806251012822
 20
426.4656368357851761
 30
0.0
 40
123.2998651489219952
 50
268.9821699383867895
 51
269.4486455662424191
  0
ARC
  5
24051
  8
0
 10
4536.3846806251012822
 20
426.4656368357851761
 30
0.0
 40
123.2998651489219952
 50
269.4539586035680259
 51
269.7984024611752147
  0
ARC
  5
24052
  8
0
 10
4536.3846806251012822
 20
426.4656368357851761
 30
0.0
 40
123.2998651489219952
 50
269.8013393362555234
 51
270.6862964600816213
  0
ARC
  5
24053
  8
0
 10
4533.6268844030355467
 20
265.9142899499169062
 30
0.0
 40
37.2752575500082486
 50
89.1275812886376144
 51
89.9383026653862458
  0
ARC
  5
24054
  8
0
 10
4528.7921733721696
 20
-47.8248488650149
 30
0.0
 40
351.0482238163538113
 50
89.2043335375394832
 51
89.2394304812472541
  0
ARC
  5
24055
  8
0
 10
4533.4693676466304169
 20
301.9237384817324141
 30
0.0
 40
1.2688264649652541
 50
90.7840201301040253
 51
93.2399000966425859
  0
ARC
  5
24056
  8
0
 10
4533.4096988222163418
 20
300.7944517684002221
 30
0.0
 40
2.3961154032213501
 50
90.2879292220580538
 51
91.224412883135102
  0
ARC
  5
24057
  8
0
 10
4532.7733557872134043
 20
305.401142992408495
 30
0.0
 40
2.2872375465386332
 50
284.441299887995001
 51
284.8227171153732229
  0
ARC
  5
24058
  8
0
 10
4537.8623090448463699
 20
303.8630129013884016
 30
0.0
 40
0.0039377055238363
 50
0.2233110943183984
 51
89.9915462564074318
  0
LINE
  5
24059
  8
0
 10
4533.1556597783628604
 20
303.3551059535971035
 30
0.0
 11
4535.1981860609112118
 21
303.3551059535971035
 31
0.0
  0
LINE
  5
2405A
  8
0
 10
4535.9622833952962537
 20
303.3551059535971035
 30
0.0
 11
4537.8662467204612767
 21
303.3551059535971035
 31
0.0
  0
ARC
  5
2405B
  8
0
 10
4533.7706423972758785
 20
303.905605583487386
 30
0.0
 40
0.8346642210888363
 50
243.2188502100671883
 51
260.8376265956335942
  0
ARC
  5
2405C
  8
0
 10
4536.4993170649267995
 20
302.9810047653950846
 30
0.0
 40
0.021943411407486
 50
220.0312115459244069
 51
240.3719568317038977
  0
ARC
  5
2405D
  8
0
 10
4536.4888351475328818
 20
302.9721823484063066
 30
0.0
 40
0.0082428579101149
 50
181.4556426857801057
 51
219.9390863792698951
  0
ARC
  5
2405E
  8
0
 10
4536.4913801292732387
 20
302.9711463918542904
 30
0.0
 40
0.0108168066251687
 50
133.0238389593770876
 51
175.617488075134986
  0
ARC
  5
2405F
  8
0
 10
4536.5064725729871498
 20
302.9572231139152905
 30
0.0
 40
0.0313308724763674
 50
125.0736257051180047
 51
135.8297646613507084
  0
ARC
  5
24060
  8
0
 10
4536.697340171018368
 20
302.5078822281537896
 30
0.0
 40
0.51887915566228
 50
93.320315161562732
 51
113.7372551768439024
  0
ARC
  5
24061
  8
0
 10
4536.8681062891409965
 20
301.2846108212033869
 30
0.0
 40
1.752821308916898
 50
88.9712282553921767
 51
96.5787523586051435
  0
ARC
  5
24062
  8
0
 10
4536.8824158684956274
 20
301.4212891458187187
 30
0.0
 40
1.6159515684729699
 50
79.6742199182747441
 51
89.3915064393563483
  0
ARC
  5
24063
  8
0
 10
4537.1031262421429346
 20
302.5881689325498201
 30
0.0
 40
0.4284830810948741
 50
67.8700700833519619
 51
80.7411634791393169
  0
ARC
  5
24064
  8
0
 10
4537.2350109765593515
 20
302.9194594423632907
 30
0.0
 40
0.0719641307849275
 50
55.4046669289699807
 51
65.7750294473194117
  0
ARC
  5
24065
  8
0
 10
4537.263166045950129
 20
302.9591672086447147
 30
0.0
 40
0.0233001580114519
 50
35.0859139739969024
 51
56.958028052010917
  0
ARC
  5
24066
  8
0
 10
4537.2758099351340206
 20
302.967935449433412
 30
0.0
 40
0.0079142997935343
 50
351.7110880544690872
 51
35.7576578888279215
  0
ARC
  5
24067
  8
0
 10
4537.2749025906450697
 20
302.9686099265189796
 30
0.0
 40
0.0089255478233493
 50
314.8861230574206047
 51
348.2642566942238886
  0
ARC
  5
24068
  8
0
 10
4537.2617664007548228
 20
302.9817481182005281
 30
0.0
 40
0.0275043302458906
 50
300.8503026292008826
 51
314.9600966644288178
  0
ARC
  5
24069
  8
0
 10
4533.4681037137997919
 20
302.0684898813540258
 30
0.0
 40
1.095727779946253
 50
91.0093569673592242
 51
92.5637884123795942
  0
ARC
  5
2406A
  8
0
 10
4533.4192809270580256
 20
303.1412070452141734
 30
0.0
 40
0.0219146680289969
 50
90.4990873342977267
 51
111.1523977251710988
  0
ARC
  5
2406B
  8
0
 10
4533.4017387513686117
 20
303.1786359004354949
 30
0.0
 40
0.0195321134233734
 50
248.4241969540090054
 51
299.5546080998191769
  0
ARC
  5
2406C
  8
0
 10
4533.6406990456362109
 20
303.0929907742735168
 30
0.0
 40
0.0117786505506614
 50
255.4321177954990958
 51
322.8454789180318016
  0
LINE
  5
2406D
  8
0
 10
4533.6500867428667334
 20
303.0858768618837189
 30
0.0
 11
4533.6896548801678364
 21
303.1311822637836144
 31
0.0
  0
ARC
  5
2406E
  8
0
 10
4533.6431696370800637
 20
302.758323859279983
 30
0.0
 40
0.3757449502440895
 50
72.0835537746781654
 51
82.8934519618743622
  0
ARC
  5
2406F
  8
0
 10
4534.5803004064009656
 20
306.0129259216170112
 30
0.0
 40
3.0113107043208669
 50
254.1679632349350015
 51
258.1046076309768864
  0
ARC
  5
24070
  8
0
 10
4533.8855516304929552
 20
302.690127137822401
 30
0.0
 40
0.3833719995547598
 50
73.8626223443468035
 51
78.8644604358701429
  0
ARC
  5
24071
  8
0
 10
4533.990198752332617
 20
303.0428328185765849
 30
0.0
 40
0.015677228078038
 50
44.7027036093193786
 51
83.0101483187925879
  0
ARC
  5
24072
  8
0
 10
4533.8710799047157707
 20
303.1670851822981945
 30
0.0
 40
0.1725917416698346
 50
299.740538035613497
 51
319.002556343807214
  0
ARC
  5
24073
  8
0
 10
4533.9535247415169579
 20
303.0267596953203793
 30
0.0
 40
0.0100469004614681
 50
203.0199028776254124
 51
288.4119761069521246
  0
LINE
  5
24074
  8
0
 10
4533.6637450612815883
 20
303.1015155966661041
 30
0.0
 11
4533.6637476137675549
 21
303.0345443946836212
 31
0.0
  0
LINE
  5
24075
  8
0
 10
4533.6637476137675549
 20
303.0345443946836212
 30
0.0
 11
4533.7054215614671193
 21
303.0812211263835252
 31
0.0
  0
LINE
  5
24076
  8
0
 10
4533.7054215614671193
 20
303.0812211263835252
 30
0.0
 11
4533.7054215614671193
 21
303.128876103293976
 31
0.0
  0
LINE
  5
24077
  8
0
 10
4533.9181359110425547
 20
302.9425089632280788
 30
0.0
 11
4533.9455585058703946
 21
303.0267670009948233
 31
0.0
  0
LINE
  5
24078
  8
0
 10
4533.9455585058703946
 20
303.0267670009948233
 30
0.0
 11
4533.9455542027671981
 21
303.0508579157835811
 31
0.0
  0
LINE
  5
24079
  8
0
 10
4533.9455542027671981
 20
303.0508579157835811
 30
0.0
 11
4533.9595924978666517
 21
303.0662814146836013
 31
0.0
  0
LINE
  5
2407A
  8
0
 10
4533.9455585058703946
 20
303.0267670009948233
 30
0.0
 11
4533.882277297667315
 21
303.0395839305836034
 31
0.0
  0
ARC
  5
2407B
  8
0
 10
4536.1000250896831858
 20
311.6719591912960823
 30
0.0
 40
8.912704859398719
 50
254.7703512990080981
 51
255.5917152854378003
  0
ARC
  5
2407C
  8
0
 10
4533.701303291009026
 20
302.8934402654641076
 30
0.0
 40
0.1878260149160178
 50
72.1874646135262878
 51
88.7436328959015839
  0
LINE
  5
2407D
  8
0
 10
4533.68615208517258
 20
303.029156768926498
 30
0.0
 11
4533.6882958874675751
 21
302.9882506741835186
 31
0.0
  0
LINE
  5
2407E
  8
0
 10
4533.6882958874675751
 20
302.9882506741835186
 30
0.0
 11
4533.7242991297507615
 21
303.031942870135083
 31
0.0
  0
LINE
  5
2407F
  8
0
 10
4533.7242991297507615
 20
303.031942870135083
 30
0.0
 11
4533.7223575554571653
 21
303.0735239213830141
 31
0.0
  0
LINE
  5
24080
  8
0
 10
4533.7223575554571653
 20
303.0735239213830141
 30
0.0
 11
4533.68615208517258
 21
303.029156768926498
 31
0.0
  0
LINE
  5
24081
  8
0
 10
4533.7966501918672293
 20
302.9252697121834785
 30
0.0
 11
4533.8284371599665974
 21
302.9192978227836193
 31
0.0
  0
LINE
  5
24082
  8
0
 10
4533.8284371599665974
 20
302.9192978227836193
 30
0.0
 11
4533.8996907457885754
 21
302.9942430025035947
 31
0.0
  0
LINE
  5
24083
  8
0
 10
4533.8996907457885754
 20
302.9942430025035947
 30
0.0
 11
4533.9085054755541933
 21
303.0324832130193045
 31
0.0
  0
ARC
  5
24084
  8
0
 10
4535.1303223755357976
 20
310.0061442304527191
 30
0.0
 40
7.087945576137022
 50
260.4303811733053067
 51
270.0519885019518824
  0
LINE
  5
24085
  8
0
 10
4533.9181359110425547
 20
302.9425089632280788
 30
0.0
 11
4533.8607506434827883
 21
302.9532854432172257
 31
0.0
  0
LINE
  5
24086
  8
0
 10
4533.7966501918672293
 20
302.9252697121834785
 30
0.0
 11
4533.7966500289667238
 21
302.9843313871836017
 31
0.0
  0
ARC
  5
24087
  8
0
 10
4533.81856200904258
 20
302.9837839257106111
 30
0.0
 40
0.0219188180544842
 50
145.771172820952188
 51
178.5687871470850894
  0
LINE
  5
24088
  8
0
 10
4533.8004395813677547
 20
302.9961132484837094
 30
0.0
 11
4533.8099800112204321
 21
303.009000964176721
 31
0.0
  0
LINE
  5
24089
  8
0
 10
4533.8996907457885754
 20
302.9942430025035947
 30
0.0
 11
4533.7779909282680819
 21
303.0232245198836267
 31
0.0
  0
ARC
  5
2408A
  8
0
 10
4533.7185389367341486
 20
302.8267799572178092
 30
0.0
 40
0.2052437591264371
 50
73.1621011337211513
 51
88.3917752663876257
  0
LINE
  5
2408B
  8
0
 10
4533.6637476137675549
 20
303.0345443946836212
 30
0.0
 11
4533.68615208517258
 21
303.029156768926498
 31
0.0
  0
LINE
  5
2408C
  8
0
 10
4533.7213260968719624
 20
302.9807634724828063
 30
0.0
 11
4533.6882958874675751
 21
302.9882506741835186
 31
0.0
  0
ARC
  5
2408D
  8
0
 10
4533.7288840713754325
 20
303.0321292231774919
 30
0.0
 40
0.0419060431148631
 50
76.1665192750089659
 51
98.9598115141590853
  0
ARC
  5
2408E
  8
0
 10
4533.6752212832971054
 20
302.696245776898877
 30
0.0
 40
0.381920725900112
 50
74.6911285643156617
 51
80.4015032745481335
  0
ARC
  5
2408F
  8
0
 10
4534.3984387608234101
 20
305.3410794905776129
 30
0.0
 40
2.36001088912138
 50
254.7090966477757945
 51
258.0183804010201243
  0
LINE
  5
24090
  8
0
 10
4533.7213260968719624
 20
302.9807634724828063
 30
0.0
 11
4533.7564270219672835
 21
303.0198643907835958
 31
0.0
  0
ARC
  5
24091
  8
0
 10
4533.7590396153709662
 20
302.9967546007445094
 30
0.0
 40
0.0232569998052415
 50
77.3390638185852595
 51
96.4499811100222502
  0
ARC
  5
24092
  8
0
 10
4533.1437766990366072
 20
300.1909054251186149
 30
0.0
 40
2.8957709371467208
 50
75.9222426290602641
 51
77.6296550867664337
  0
LINE
  5
24093
  8
0
 10
4533.7966501918672293
 20
302.9252697121834785
 30
0.0
 11
4533.8481396266615775
 21
302.999706270072295
 31
0.0
  0
LINE
  5
24094
  8
0
 10
4535.1491593624668894
 20
308.7270290465335165
 30
0.0
 11
4535.1310893667678101
 21
308.7210547608336242
 31
0.0
  0
LINE
  5
24095
  8
0
 10
4535.3129852555839534
 20
311.6468322020019173
 30
0.0
 11
4535.2985037715634462
 21
311.512377300958974
 31
0.0
  0
LINE
  5
24096
  8
0
 10
4535.3476381206246515
 20
311.9228682959749221
 30
0.0
 11
4535.3321495201216749
 21
311.8034524008820085
 31
0.0
  0
LINE
  5
24097
  8
0
 10
4535.1363799180680871
 20
309.0275371555541142
 30
0.0
 11
4535.1246203173668619
 21
308.7463635081335269
 31
0.0
  0
LINE
  5
24098
  8
0
 10
4535.1626470588644224
 20
309.6102257985751862
 30
0.0
 11
4535.156145819764788
 21
309.4744635854967214
 31
0.0
  0
LINE
  5
24099
  8
0
 10
4535.1776251219162077
 20
309.9011636676801231
 30
0.0
 11
4535.1702976857650356
 21
309.7655894332859816
 31
0.0
  0
LINE
  5
2409A
  8
0
 10
4535.2556661992321096
 20
311.065381868554482
 30
0.0
 11
4535.2447451160060155
 21
310.9312097226215883
 31
0.0
  0
LINE
  5
2409B
  8
0
 10
4535.4652436851665698
 20
311.5071357927336066
 30
0.0
 11
4535.4506619883677558
 21
310.9289925363336238
 31
0.0
  0
LINE
  5
2409C
  8
0
 10
4535.5180988093679844
 20
312.457970966533594
 30
0.0
 11
4535.5144783769674177
 21
312.3586814517336165
 31
0.0
  0
LINE
  5
2409D
  8
0
 10
4535.1066309690668277
 20
309.0285772559336124
 30
0.0
 11
4535.1537949251833197
 21
309.0269282817581029
 31
0.0
  0
LINE
  5
2409E
  8
0
 10
4535.1878577764673537
 20
309.0286781658335258
 30
0.0
 11
4535.251208139578921
 21
309.0264387196331199
 31
0.0
  0
LINE
  5
2409F
  8
0
 10
4535.1752682155665752
 20
309.1725775045335922
 30
0.0
 11
4535.2660289594678034
 21
309.1919099833335167
 31
0.0
  0
LINE
  5
240A0
  8
0
 10
4535.0939979722679709
 20
309.1729730700336063
 30
0.0
 11
4535.1637088194338503
 21
309.1877936113813803
 31
0.0
  0
LINE
  5
240A1
  8
0
 10
4535.2477415699677294
 20
309.2032702406335147
 30
0.0
 11
4535.2477528947665633
 21
309.2032706387336134
 31
0.0
  0
LINE
  5
240A2
  8
0
 10
4535.1175824124666178
 20
309.3205703264334829
 30
0.0
 11
4535.1642975628492422
 21
309.3181201271387977
 31
0.0
  0
LINE
  5
240A3
  8
0
 10
4535.1951672904679072
 20
309.320307231233528
 30
0.0
 11
4535.2582896218500537
 21
309.3169719090345211
 31
0.0
  0
LINE
  5
240A4
  8
0
 10
4535.185041995667234
 20
309.4651056920336032
 30
0.0
 11
4535.2747732489679038
 21
309.4825877311336058
 31
0.0
  0
LINE
  5
240A5
  8
0
 10
4535.1074827431666563
 20
309.4650023263334901
 30
0.0
 11
4535.1739139402743604
 21
309.4779181305999032
 31
0.0
  0
LINE
  5
240A6
  8
0
 10
4535.1292830483680518
 20
309.6125602447335723
 30
0.0
 11
4535.1793900342818233
 21
309.6090543094746863
 31
0.0
  0
LINE
  5
240A7
  8
0
 10
4535.2030530621677826
 20
309.6123557876334758
 30
0.0
 11
4535.2690113403423311
 21
309.6077149697283062
 31
0.0
  0
LINE
  5
240A8
  8
0
 10
4535.1954629798674432
 20
309.7571831847336057
 30
0.0
 11
4535.2830746433901368
 21
309.7726704195376897
 31
0.0
  0
LINE
  5
240A9
  8
0
 10
4535.1217122124671732
 20
309.7570204007336088
 30
0.0
 11
4535.1898866184901635
 21
309.7690443384415744
 31
0.0
  0
LINE
  5
240AA
  8
0
 10
4535.5117714211601196
 20
312.634926588435178
 30
0.0
 11
4535.5074937231684089
 21
312.6348892575335867
 31
0.0
  0
ARC
  5
240AB
  8
0
 10
4535.2996754966679873
 20
309.1621065399335748
 30
0.0
 40
0.0471361637
 50
138.017829912164899
 51
141.9285389467493133
  0
ARC
  5
240AC
  8
0
 10
4537.378046365967748
 20
309.5511715560335233
 30
0.0
 40
2.282993865099999
 50
183.5143023887987965
 51
184.4028128856965054
  0
ARC
  5
240AD
  8
0
 10
4536.8951597960622166
 20
309.7756663217692221
 30
0.0
 40
1.783944465876298
 50
181.1979240454388105
 51
183.4923981543525997
  0
ARC
  5
240AE
  8
0
 10
4535.6538630261929939
 20
309.4544937614164724
 30
0.0
 40
0.5562026455850049
 50
180.5096863197117045
 51
184.4612841833078107
  0
ARC
  5
240AF
  8
0
 10
4535.5075967900183969
 20
312.6230787529797794
 30
0.0
 40
0.0118109542624617
 50
90.4999909722577911
 51
157.6336667023965106
  0
LINE
  5
240B0
  8
0
 10
4535.5790561046678704
 20
312.7455172114335937
 30
0.0
 11
4535.5790561046678704
 21
303.3489255669381919
 31
0.0
  0
ARC
  5
240B1
  8
0
 10
4535.0223282371107416
 20
303.8388953233900907
 30
0.0
 40
1.0762035915422921
 50
352.9906378558296183
 51
357.2035902351739765
  0
ARC
  5
240B2
  8
0
 10
4528.2044145614481749
 20
304.3654691394650058
 30
0.0
 40
7.9140500321678751
 50
355.8038619009735726
 51
0.8134382385988452
  0
ARC
  5
240B3
  8
0
 10
4462.9688244888802728
 20
304.9148472211263083
 30
0.0
 40
73.1501480222269294
 50
359.6576928357447969
 51
1.6139753461531909
  0
ARC
  5
240B4
  8
0
 10
4435.1563145626550977
 20
304.7527094056948158
 30
0.0
 40
100.9581023484865057
 50
1.26138485718382
 51
2.7006211357217649
  0
ARC
  5
240B5
  8
0
 10
4494.8319473972196647
 20
307.6865267093069747
 30
0.0
 40
41.2106851676265222
 50
2.5354440954380282
 51
4.8208663385367299
  0
ARC
  5
240B6
  8
0
 10
4523.958289260552192
 20
310.2014400479047254
 30
0.0
 40
11.97616931850418
 50
4.5423471309613523
 51
9.3118304079061094
  0
ARC
  5
240B7
  8
0
 10
4527.1110240205380251
 20
310.5221924275018068
 30
0.0
 40
8.8152065170156462
 50
10.5703344165751201
 51
13.1938741082250299
  0
ARC
  5
240B8
  8
0
 10
4535.1146464807588927
 20
312.3934110203568935
 30
0.0
 40
0.5957743542376494
 50
13.67246227165829
 51
28.5283686721608305
  0
ARC
  5
240B9
  8
0
 10
4535.4521961600357827
 20
312.588867220244083
 30
0.0
 40
0.2061292653303509
 50
25.6050660845396614
 51
40.624986610349012
  0
ARC
  5
240BA
  8
0
 10
4532.4299485809106045
 20
310.3612589032924234
 30
0.0
 40
3.96008961628291
 50
36.6129089503409233
 51
36.8744414264948333
  0
ARC
  5
240BB
  8
0
 10
4535.5799135919560285
 20
312.7214025101408765
 30
0.0
 40
0.0241299420405882
 50
42.0489471266694466
 51
138.051230922750193
  0
ARC
  5
240BC
  8
0
 10
4535.527167907130206
 20
312.6501991251802792
 30
0.0
 40
0.0198422922469245
 50
184.7695181727256113
 51
202.3349244654336019
  0
ARC
  5
240BD
  8
0
 10
4535.5191568342370374
 20
312.6491663660856943
 30
0.0
 40
0.011778685634128
 50
154.3006876545809973
 51
183.0030827675745968
  0
ARC
  5
240BE
  8
0
 10
4535.8486614063085653
 20
312.494802084467608
 30
0.0
 40
0.3756483643044878
 50
139.7469919334263011
 51
154.8794044915210861
  0
ARC
  5
240BF
  8
0
 10
4535.4079331510329212
 20
312.59964419505161
 30
0.0
 40
0.109668744981946
 50
12.0628189876170406
 51
23.0928107026030496
  0
ARC
  5
240C0
  8
0
 10
4535.3434952862553473
 20
312.5885491374069147
 30
0.0
 40
0.1750220082070143
 50
0.3836378023420529
 51
11.2062689668161894
  0
ARC
  5
240C1
  8
0
 10
4533.44739418260815
 20
312.5303622826725132
 30
0.0
 40
2.071969631518582
 50
357.9977693029169927
 51
1.6416607159275689
  0
ARC
  5
240C2
  8
0
 10
4551.1046013605691769
 20
311.0300951094938
 30
0.0
 40
15.6466314685504493
 50
175.1290370302507995
 51
178.2528728900944088
  0
ARC
  5
240C3
  8
0
 10
4539.3191216176510352
 20
288.3112237939166107
 30
0.0
 40
15.4917816492306404
 50
102.7794827644109006
 51
103.7115821125596966
  0
ARC
  5
240C4
  8
0
 10
4536.1034837053102819
 20
301.1166916822986082
 30
0.0
 40
2.2907529677089951
 50
101.4935341668138022
 51
102.6791719387569941
  0
ARC
  5
240C5
  8
0
 10
4535.5797065297028894
 20
303.4326270104243122
 30
0.0
 40
0.0837143447169132
 50
273.6378555801031212
 51
284.511186301048383
  0
ARC
  5
240C6
  8
0
 10
4535.5799023206245693
 20
303.4307081958215804
 30
0.0
 40
0.0817870067219715
 50
263.4440575673419858
 51
273.5862617024994279
  0
ARC
  5
240C7
  8
0
 10
4535.5806499542013626
 20
303.4353506932300775
 30
0.0
 40
0.0864847674673555
 50
256.3434608835560766
 51
263.3031475140704742
  0
ARC
  5
240C8
  8
0
 10
4536.0470576897878345
 20
305.7370394304119259
 30
0.0
 40
2.434892328861272
 50
256.3839992601464246
 51
258.4666813300929107
  0
ARC
  5
240C9
  8
0
 10
4601.8437627426510517
 20
304.8307860871743742
 30
0.0
 40
66.8023734502353648
 50
179.1181361105350902
 51
180.442555719090393
  0
ARC
  5
240CA
  8
0
 10
4650.0037821684090886
 20
304.3049353421195065
 30
0.0
 40
114.9649836551868987
 50
177.8039054160165051
 51
179.2255031744415987
  0
ARC
  5
240CB
  8
0
 10
4535.1352814041629244
 20
308.7097465870263022
 30
0.0
 40
0.0120601812746499
 50
110.340176940872098
 51
177.0908686923326911
  0
ARC
  5
240CC
  8
0
 10
4535.1371425103352522
 20
308.746192568195795
 30
0.0
 40
0.0125233596602836
 50
179.2179062646019929
 51
265.9511708527446103
  0
ARC
  5
240CD
  8
0
 10
4535.1985235743541125
 20
308.9835476113495929
 30
0.0
 40
0.2339263655613118
 50
290.2406326989369063
 51
355.9770657692316149
  0
ARC
  5
240CE
  8
0
 10
4535.9283022727122443
 20
306.2337913749668132
 30
0.0
 40
2.6121442842048381
 50
104.3826722463262939
 51
107.3541531384735066
  0
ARC
  5
240CF
  8
0
 10
4702.710457623235925
 20
308.3461500130823083
 30
0.0
 40
167.2797367026805944
 50
179.1153031485283122
 51
179.7873025308643946
  0
ARC
  5
240D0
  8
0
 10
4535.2397349944949383
 20
309.0419868572428186
 30
0.0
 40
0.019322982204732
 50
229.5268227567742088
 51
306.4240320673974907
  0
ARC
  5
240D1
  8
0
 10
4535.1628807139377386
 20
309.1177493341473905
 30
0.0
 40
0.1270407904705937
 50
314.0485955992115237
 51
35.7150587213784405
  0
ARC
  5
240D2
  8
0
 10
4535.2423933819800368
 20
309.1742678826042265
 30
0.0
 40
0.0294938000335647
 50
36.7384455029427031
 51
79.5302376555826811
  0
ARC
  5
240D3
  8
0
 10
4535.252414745277747
 20
309.1682731792204777
 30
0.0
 40
0.0353065861072834
 50
97.5874411102831516
 51
156.9633690812690077
  0
ARC
  5
240D4
  8
0
 10
4535.1884986563472921
 20
309.0415919349940168
 30
0.0
 40
0.0129296620585767
 50
208.2207335902261036
 51
267.1588766548356944
  0
ARC
  5
240D5
  8
0
 10
4535.3427521897947372
 20
309.0924787176800237
 30
0.0
 40
0.1751792898338413
 50
182.8537360123895894
 51
198.9889412388359062
  0
ARC
  5
240D6
  8
0
 10
4535.6456476599169036
 20
309.1423724918096241
 30
0.0
 40
0.4814390559010279
 50
178.305903415099408
 51
186.9931267229110006
  0
ARC
  5
240D7
  8
0
 10
4535.1873843879693595
 20
309.1559264758853942
 30
0.0
 40
0.0229753856958875
 50
153.892813641589612
 51
178.3066657807956119
  0
ARC
  5
240D8
  8
0
 10
4535.1780004656802703
 20
309.1602073774735118
 30
0.0
 40
0.012668276684637
 50
102.4552215712401022
 51
152.6024447855982942
  0
ARC
  5
240D9
  8
0
 10
4535.2859349572636347
 20
309.1097592960749125
 30
0.0
 40
0.1166381876333407
 50
175.5696387674717016
 51
194.4303619397769864
  0
ARC
  5
240DA
  8
0
 10
4535.0591709365317001
 20
309.0899200135551155
 30
0.0
 40
0.1141790842153008
 50
355.364619222036481
 51
14.6353814851945696
  0
ARC
  5
240DB
  8
0
 10
4535.1599739796965878
 20
309.0274523277358867
 30
0.0
 40
0.0197298475239468
 50
180.1460063942290049
 51
221.8302739620748127
  0
ARC
  5
240DC
  8
0
 10
4535.1342823461727676
 20
309.0308986172295249
 30
0.0
 40
0.0199124158099256
 50
303.5001985019865174
 51
348.4987131121758921
  0
ARC
  5
240DD
  8
0
 10
4534.882684182293815
 20
309.1144861002143216
 30
0.0
 40
0.2848989408251241
 50
342.1016392254458083
 51
355.6468649369787158
  0
ARC
  5
240DE
  8
0
 10
4534.9541129961990009
 20
309.1473746404387839
 30
0.0
 40
0.2134574953696627
 50
5.0156679695817656
 51
13.8573443400662306
  0
ARC
  5
240DF
  8
0
 10
4535.1239858546587129
 20
309.1906340463077072
 30
0.0
 40
0.0381905623356727
 50
11.8842709395658304
 51
32.481028030346053
  0
ARC
  5
240E0
  8
0
 10
4535.1529578599265733
 20
309.2089213288373912
 30
0.0
 40
0.0039322405881748
 50
34.4042206555994099
 51
72.9121268257081425
  0
ARC
  5
240E1
  8
0
 10
4535.1537534484496064
 20
309.210654142283488
 30
0.0
 40
0.0020575517387196
 50
79.927515551966863
 51
133.5881517657965105
  0
ARC
  5
240E2
  8
0
 10
4535.1579256502518547
 20
309.2063085112026783
 30
0.0
 40
0.0080818033794833
 50
133.7710944838023011
 51
164.5204834158510039
  0
ARC
  5
240E3
  8
0
 10
4535.2790366182080106
 20
309.169442035735301
 30
0.0
 40
0.1346771702727339
 50
163.1566775592193039
 51
173.861176478509492
  0
ARC
  5
240E4
  8
0
 10
4535.2151256057268256
 20
309.1765872193553264
 30
0.0
 40
0.0566219368437473
 50
159.9084359804392932
 51
169.5184022388164067
  0
ARC
  5
240E5
  8
0
 10
4535.0968185349556734
 20
309.1608585232415862
 30
0.0
 40
0.0124385617278559
 50
103.1063677703868962
 51
184.8924165808682858
  0
ARC
  5
240E6
  8
0
 10
4535.1071776884245992
 20
309.0407328427174889
 30
0.0
 40
0.0121678754151533
 50
190.7913317505000919
 51
267.4247549227067111
  0
ARC
  5
240E7
  8
0
 10
4536.9376202407820529
 20
309.2635824889572973
 30
0.0
 40
1.8560988122225639
 50
183.2053969081742935
 51
186.9666091560588086
  0
ARC
  5
240E8
  8
0
 10
4534.7241367710812483
 20
309.0678638298310261
 30
0.0
 40
0.3677543871248447
 50
2.0014432177040531
 51
7.9985563495722038
  0
ARC
  5
240E9
  8
0
 10
4535.4583690673343881
 20
309.1321008293541013
 30
0.0
 40
0.3702861293672575
 50
182.021963672319913
 51
187.9780358949651031
  0
ARC
  5
240EA
  8
0
 10
4568.1116010796240516
 20
307.8405804834022774
 30
0.0
 40
32.9960377759316685
 50
177.4320544345353028
 51
177.6676784124931032
  0
ARC
  5
240EB
  8
0
 10
4535.1182133049160257
 20
309.3324452870639902
 30
0.0
 40
0.0118917078358602
 50
217.5795181961007927
 51
266.958851188787321
  0
ARC
  5
240EC
  8
0
 10
4535.1203360995023104
 20
309.3337180735792913
 30
0.0
 40
0.0143531109786522
 50
187.2117237230617945
 51
216.4380929972087131
  0
ARC
  5
240ED
  8
0
 10
4535.8910102877625832
 20
309.4309642044042903
 30
0.0
 40
0.79113848223318
 50
183.990303704608209
 51
187.1921180280461954
  0
ARC
  5
240EE
  8
0
 10
4535.1161813413600612
 20
309.4512999589856008
 30
0.0
 40
0.018581916442708
 50
157.2858181748453887
 51
185.4162102560474921
  0
ARC
  5
240EF
  8
0
 10
4535.1097296260777512
 20
309.4533629503595193
 30
0.0
 40
0.0118485988145664
 50
115.3152820898914968
 51
154.4401299016716962
  0
ARC
  5
240F0
  8
0
 10
4535.1097755431947007
 20
309.4532958231894781
 30
0.0
 40
0.0119289206480437
 50
101.0815025007700001
 51
115.3767812834582003
  0
ARC
  5
240F1
  8
0
 10
4535.2480600484141178
 20
309.3313791088348808
 30
0.0
 40
0.0176695098630555
 50
228.5747475432710019
 51
305.3759722543749149
  0
ARC
  5
240F2
  8
0
 10
4535.1655129485070574
 20
309.409834119539596
 30
0.0
 40
0.1312665275564695
 50
314.973599722980282
 51
33.6586205041997673
  0
ARC
  5
240F3
  8
0
 10
4535.2499858540313653
 20
309.4658140035573979
 30
0.0
 40
0.0299294651557388
 50
34.0863663945722806
 51
76.6053780440056755
  0
ARC
  5
240F4
  8
0
 10
4535.2580072298287632
 20
309.4704327593839253
 30
0.0
 40
0.0245207071748174
 50
92.5431283393524353
 51
129.1353964132306942
  0
ARC
  5
240F5
  8
0
 10
4535.2766081495519757
 20
309.4489795172938784
 30
0.0
 40
0.0529085682648506
 50
130.0966454722702963
 51
151.9654983250551084
  0
ARC
  5
240F6
  8
0
 10
4535.1959280320616017
 20
309.332942719426228
 30
0.0
 40
0.012658368363313
 50
216.081293135864712
 51
266.5545672040391878
  0
ARC
  5
240F7
  8
0
 10
4535.2207892622036525
 20
309.3458044926135244
 30
0.0
 40
0.0405485075896088
 50
187.3107222653968051
 51
210.0692766585565892
  0
ARC
  5
240F8
  8
0
 10
4535.7640990744030205
 20
309.4338648466896871
 30
0.0
 40
0.5909278522202035
 50
180.2270098567848038
 51
189.0764491115371868
  0
ARC
  5
240F9
  8
0
 10
4535.2968336700641885
 20
309.4342650163997064
 30
0.0
 40
0.1236881946918291
 50
170.4888402938850049
 51
181.2700241556919138
  0
ARC
  5
240FA
  8
0
 10
4535.1879509950249485
 20
309.4520560901597719
 30
0.0
 40
0.0133699059955265
 50
102.5668255599552054
 51
168.5804710477100059
  0
ARC
  5
240FB
  8
0
 10
4535.0667651925850805
 20
309.3840985409314044
 30
0.0
 40
0.11497424272014
 50
354.3537432933521245
 51
13.6296100864703806
  0
ARC
  5
240FC
  8
0
 10
4535.2950056221734485
 20
309.4000253484442737
 30
0.0
 40
0.117037821980533
 50
174.5252545488241935
 51
193.4580988309965903
  0
ARC
  5
240FD
  8
0
 10
4535.1794229656534299
 20
309.3167362685828152
 30
0.0
 40
0.0272231745023024
 50
175.7563292791845129
 51
215.4882648395868046
  0
ARC
  5
240FE
  8
0
 10
4535.1927605107175623
 20
309.4768491953670946
 30
0.0
 40
0.0340284346911638
 50
137.4482459092066051
 51
183.1548643848165057
  0
ARC
  5
240FF
  8
0
 10
4534.9061078000013367
 20
309.4138459071118064
 30
0.0
 40
0.275364083697747
 50
335.7918795441009934
 51
349.8484233586686969
  0
ARC
  5
24100
  8
0
 10
4534.9061078000013367
 20
309.4138459071118064
 30
0.0
 40
0.275364083697747
 50
9.7342063687694562
 51
18.2020587484126501
  0
ARC
  5
24101
  8
0
 10
4535.260680524667805
 20
309.6271285553423809
 30
0.0
 40
0.0247559553780599
 50
225.3202607432058073
 51
245.7098905847325909
  0
ARC
  5
24102
  8
0
 10
4535.2589451713129165
 20
309.623771529439523
 30
0.0
 40
0.0209832234985802
 50
246.2581768401514069
 51
268.106174354361201
  0
ARC
  5
24103
  8
0
 10
4535.2557919513337765
 20
309.6224185886767941
 30
0.0
 40
0.0197724215996916
 50
277.1463654101962106
 51
311.9573422511707008
  0
ARC
  5
24104
  8
0
 10
4535.205739233470922
 20
309.6770635703040284
 30
0.0
 40
0.0938753850049227
 50
312.3766229828833048
 51
342.2800641962035115
  0
ARC
  5
24105
  8
0
 10
4535.1611069195796517
 20
309.6981217877744257
 30
0.0
 40
0.1429462281752251
 50
339.6840111040453962
 51
31.4339435658225312
  0
ARC
  5
24106
  8
0
 10
4535.2591656495396819
 20
309.7571391654411173
 30
0.0
 40
0.0285106969319767
 50
33.007705629843322
 51
74.6970777669584862
  0
ARC
  5
24107
  8
0
 10
4535.2835988223341701
 20
309.743583407139397
 30
0.0
 40
0.0469605721186116
 50
132.3409291641991956
 51
152.2992119338080101
  0
ARC
  5
24108
  8
0
 10
4535.2690883436998774
 20
309.7595310985025776
 30
0.0
 40
0.0253994409596546
 50
107.8000354232076035
 51
132.3770146188433046
  0
ARC
  5
24109
  8
0
 10
4535.2675618481198399
 20
309.7635387548741051
 30
0.0
 40
0.0211182248880808
 50
92.3653834618781246
 51
107.1806317379971034
  0
ARC
  5
2410A
  8
0
 10
4535.0757994457417226
 20
309.6783899372387054
 30
0.0
 40
0.1149471932230951
 50
353.3856682175148194
 51
12.5230585902623002
  0
ARC
  5
2410B
  8
0
 10
4535.3020405426459547
 20
309.6900660402346261
 30
0.0
 40
0.1147956597432313
 50
173.372918279276405
 51
192.5358085285274967
  0
ARC
  5
2410C
  8
0
 10
4535.2040121389027263
 20
309.624940500296816
 30
0.0
 40
0.0126212052118408
 50
215.244005261027894
 51
265.6419319072539906
  0
ARC
  5
2410D
  8
0
 10
4535.2223242017726079
 20
309.6347959227862816
 30
0.0
 40
0.0333590532908781
 50
187.0138009308695928
 51
210.9147371800515032
  0
ARC
  5
2410E
  8
0
 10
4535.7125759216842198
 20
309.710966626248819
 30
0.0
 40
0.5294771024790313
 50
181.0798634235841007
 51
188.7169667090261953
  0
ARC
  5
2410F
  8
0
 10
4535.6431536408435932
 20
309.712843127572512
 30
0.0
 40
0.4601135361845519
 50
176.6672132060390936
 51
181.4764179631233105
  0
ARC
  5
24110
  8
0
 10
4535.2122550658814362
 20
309.738300931763888
 30
0.0
 40
0.0284660687404785
 50
152.8566815526791061
 51
177.4005416860424873
  0
ARC
  5
24111
  8
0
 10
4535.1977404990921059
 20
309.7447528773855083
 30
0.0
 40
0.0126372320777163
 50
100.3827461853619951
 51
148.8617060269268109
  0
ARC
  5
24112
  8
0
 10
4535.093192289504259
 20
309.6481966017735772
 30
0.0
 40
0.0946687395679271
 50
324.4331000632308246
 51
356.0991492986433968
  0
ARC
  5
24113
  8
0
 10
4535.2013189546787544
 20
309.6105557334618084
 30
0.0
 40
0.0356652347948581
 50
180.8684921238480001
 51
209.2439425780044076
  0
ARC
  5
24114
  8
0
 10
4535.1306547474277977
 20
309.625326211297704
 30
0.0
 40
0.0128394493896318
 50
180.0333502832019974
 51
263.8671166938947863
  0
ARC
  5
24115
  8
0
 10
4535.9968773636555852
 20
309.7156172885548813
 30
0.0
 40
0.8836876935041061
 50
183.1540990447826971
 51
185.8649362891736985
  0
ARC
  5
24116
  8
0
 10
4535.0599830463006583
 20
309.7452653889361045
 30
0.0
 40
0.1320620176543039
 50
4.5801041220720258
 51
19.1480879460385189
  0
ARC
  5
24117
  8
0
 10
4535.1748354839946842
 20
309.7851415929616223
 30
0.0
 40
0.0104840838407359
 50
19.1635935145866796
 51
46.2012668234232606
  0
ARC
  5
24118
  8
0
 10
4535.1807327671640451
 20
309.791372707573089
 30
0.0
 40
0.0019057767075116
 50
44.5111298958620694
 51
142.064530748863092
  0
ARC
  5
24119
  8
0
 10
4535.246707596311353
 20
309.7619966411476184
 30
0.0
 40
0.0740704475582074
 50
155.6434327042703103
 51
176.8852339101781013
  0
ARC
  5
2411A
  8
0
 10
4535.1617898981894541
 20
309.7404787565649258
 30
0.0
 40
0.0502289225047819
 50
172.1685908366092974
 51
182.4052035402104934
  0
ARC
  5
2411B
  8
0
 10
4535.1240504163733931
 20
309.7450948877739734
 30
0.0
 40
0.0122256978627187
 50
127.8652079663540064
 51
169.4998157287475919
  0
ARC
  5
2411C
  8
0
 10
4535.1238048835539303
 20
309.7452607330114915
 30
0.0
 40
0.011944415314486
 50
100.0903431251808939
 51
127.4236960512102996
  0
LINE
  5
2411D
  8
0
 10
4535.1431333660466407
 20
309.903577021044498
 30
0.0
 11
4535.1932403519622312
 21
309.900071085785612
 31
0.0
  0
LINE
  5
2411E
  8
0
 10
4535.216903379847281
 20
309.9033725639444015
 30
0.0
 11
4535.28286165802092
 21
309.8987317460391751
 31
0.0
  0
LINE
  5
2411F
  8
0
 10
4535.2093132975469416
 20
310.0481999610444745
 30
0.0
 11
4535.2969249610714542
 21
310.0636871958485017
 31
0.0
  0
LINE
  5
24120
  8
0
 10
4535.1355625301457621
 20
310.0480371770444208
 30
0.0
 11
4535.2037369361687524
 21
310.0600611147525001
 31
0.0
  0
ARC
  5
24121
  8
0
 10
4536.9090101137408055
 20
310.066683098080091
 30
0.0
 40
1.783944465876298
 50
181.1979240454388105
 51
183.4923981543525997
  0
ARC
  5
24122
  8
0
 10
4535.2745308423482129
 20
309.9181453316534203
 30
0.0
 40
0.0247559553780599
 50
225.3202607432058073
 51
245.7098905847325909
  0
ARC
  5
24123
  8
0
 10
4535.2727954889933244
 20
309.9147883057502781
 30
0.0
 40
0.0209832234985802
 50
246.2581768401514069
 51
268.106174354361201
  0
ARC
  5
24124
  8
0
 10
4535.2696422690141844
 20
309.9134353649877198
 30
0.0
 40
0.0197724215996916
 50
277.1463654101962106
 51
311.9573422511707008
  0
ARC
  5
24125
  8
0
 10
4535.2195895511504204
 20
309.9680803466148973
 30
0.0
 40
0.0938753850049227
 50
312.3766229828833048
 51
342.2800641962035115
  0
ARC
  5
24126
  8
0
 10
4535.1749572372582406
 20
309.9891385640852945
 30
0.0
 40
0.1429462281752251
 50
339.6840111040453962
 51
31.4339435658225312
  0
ARC
  5
24127
  8
0
 10
4535.2730159672191803
 20
310.0481559417520998
 30
0.0
 40
0.0285106969319767
 50
33.007705629843322
 51
74.6970777669584862
  0
ARC
  5
24128
  8
0
 10
4535.297449140012759
 20
310.0346001834503227
 30
0.0
 40
0.0469605721186116
 50
132.3409291641991956
 51
152.2992119338051111
  0
ARC
  5
24129
  8
0
 10
4535.2829386613811948
 20
310.0505478748133896
 30
0.0
 40
0.0253994409596546
 50
107.8000354232076035
 51
132.3770146188433046
  0
ARC
  5
2412A
  8
0
 10
4535.2814121657993383
 20
310.0545555311849739
 30
0.0
 40
0.0211182248880808
 50
92.3653834618781246
 51
107.1806317379971034
  0
ARC
  5
2412B
  8
0
 10
4535.0896497634221305
 20
309.9694067135495175
 30
0.0
 40
0.1149471932230951
 50
353.3856682175148194
 51
12.5230585902623002
  0
ARC
  5
2412C
  8
0
 10
4535.3158908603254531
 20
309.981082816545495
 30
0.0
 40
0.1147956597432313
 50
173.372918279276405
 51
192.5358085285274967
  0
ARC
  5
2412D
  8
0
 10
4535.2178624565822247
 20
309.9159572766076849
 30
0.0
 40
0.0126212052118408
 50
215.244005261027894
 51
265.6419319072539906
  0
ARC
  5
2412E
  8
0
 10
4535.2361745194530158
 20
309.925812699097321
 30
0.0
 40
0.0333590532908781
 50
187.0138009308695928
 51
210.9147371800515032
  0
ARC
  5
2412F
  8
0
 10
4535.7264262393628087
 20
310.0019834025595742
 30
0.0
 40
0.5294771024790313
 50
181.0798634235841007
 51
188.7169667090261953
  0
ARC
  5
24130
  8
0
 10
4535.6570039585240011
 20
310.0038599038833809
 30
0.0
 40
0.4601135361845519
 50
176.6672132060390936
 51
181.4764179631233105
  0
ARC
  5
24131
  8
0
 10
4535.2261053835609346
 20
310.0293177080748137
 30
0.0
 40
0.0284660687404785
 50
152.8566815526791061
 51
177.4005416860424873
  0
ARC
  5
24132
  8
0
 10
4535.2115908167706948
 20
310.0357696536963772
 30
0.0
 40
0.0126372320777163
 50
100.3827461853619951
 51
148.8617060269268109
  0
ARC
  5
24133
  8
0
 10
4535.1070426071819384
 20
309.9392133780846166
 30
0.0
 40
0.0946687395679271
 50
324.4331000632308246
 51
356.0991492986433968
  0
ARC
  5
24134
  8
0
 10
4535.2151692723573433
 20
309.9015725097725067
 30
0.0
 40
0.0356652347948581
 50
180.8684921238480001
 51
209.2439425780044076
  0
ARC
  5
24135
  8
0
 10
4535.1445050651072961
 20
309.9163429876086866
 30
0.0
 40
0.0128394493896318
 50
180.0333502832019974
 51
263.8671166938947863
  0
ARC
  5
24136
  8
0
 10
4536.0107276813350836
 20
310.0066340648656933
 30
0.0
 40
0.8836876935041061
 50
183.1540990447826971
 51
185.8649362891736985
  0
ARC
  5
24137
  8
0
 10
4535.0738333639810662
 20
310.0362821652469165
 30
0.0
 40
0.1320620176543039
 50
4.5801041220720258
 51
19.1480879460385189
  0
ARC
  5
24138
  8
0
 10
4535.1886858016750921
 20
310.0761583692723775
 30
0.0
 40
0.0104840838407359
 50
19.1635935145866796
 51
46.2012668234232606
  0
ARC
  5
24139
  8
0
 10
4535.194583084844453
 20
310.0823894838841284
 30
0.0
 40
0.0019057767075116
 50
44.5111298958620694
 51
142.064530748863092
  0
ARC
  5
2413A
  8
0
 10
4535.2605579139908514
 20
310.0530134174583736
 30
0.0
 40
0.0740704475582074
 50
155.6434327042703103
 51
176.8852339101781013
  0
ARC
  5
2413B
  8
0
 10
4535.1756402158689525
 20
310.031495532875681
 30
0.0
 40
0.0502289225047819
 50
172.1685908366092974
 51
182.4052035402104934
  0
ARC
  5
2413C
  8
0
 10
4535.137900734051982
 20
310.0361116640850128
 30
0.0
 40
0.0122256978627187
 50
127.8652079663540064
 51
169.4998157287475919
  0
ARC
  5
2413D
  8
0
 10
4535.1376552012334287
 20
310.0362775093224172
 30
0.0
 40
0.011944415314486
 50
100.0903431251808939
 51
127.4236960512102996
  0
LINE
  5
2413E
  8
0
 10
4535.1600969061328215
 20
310.1955192150016956
 30
0.0
 11
4535.2102106056208868
 21
310.1921105872601174
 31
0.0
  0
LINE
  5
2413F
  8
0
 10
4535.2338671778716161
 20
310.195458009555125
 30
0.0
 11
4535.29983434352107
 21
310.1909452823463198
 31
0.0
  0
LINE
  5
24140
  8
0
 10
4535.2259958749036741
 20
310.3402703946940733
 30
0.0
 11
4535.3135772991527119
 21
310.3559277301549173
 31
0.0
  0
LINE
  5
24141
  8
0
 10
4535.1522455626600276
 20
310.3399643971069963
 30
0.0
 11
4535.2203964913042
 21
310.3521206975086102
 31
0.0
  0
ARC
  5
24142
  8
0
 10
4536.9256535947379234
 20
310.3620540754130843
 30
0.0
 40
1.783944465876298
 50
181.3091846754917071
 51
183.60365878440291
  0
ARC
  5
24143
  8
0
 10
4535.2914658450290517
 20
310.2103426540542159
 30
0.0
 40
0.0247559553780599
 50
225.431521373267401
 51
245.8211512148265001
  0
ARC
  5
24144
  8
0
 10
4535.2897370138307451
 20
310.2069822646619173
 30
0.0
 40
0.0209832234985802
 50
246.3694374702257051
 51
268.2174349844494827
  0
ARC
  5
24145
  8
0
 10
4535.2865864270233942
 20
310.2056232033286278
 30
0.0
 40
0.0197724215996916
 50
277.2576260402693151
 51
312.068602881239201
  0
ARC
  5
24146
  8
0
 10
4535.2364276904545477
 20
310.2601708864012267
 30
0.0
 40
0.0938753850049227
 50
312.4878836128988837
 51
342.3913248262405205
  0
ARC
  5
24147
  8
0
 10
4535.1917545685391815
 20
310.2811423943244904
 30
0.0
 40
0.1429462281752251
 50
339.7952717340983213
 51
31.5452041958791405
  0
ARC
  5
24148
  8
0
 10
4535.2896985099496305
 20
310.3403500773483756
 30
0.0
 40
0.0285106969319767
 50
33.1189662599001267
 51
74.8083383969900524
  0
ARC
  5
24149
  8
0
 10
4535.3141579601042395
 20
310.3268417904815806
 30
0.0
 40
0.0469605721186116
 50
132.4521897941963005
 51
152.4104725638862021
  0
ARC
  5
2414A
  8
0
 10
4535.2996165405966167
 20
310.3427612744137036
 30
0.0
 40
0.0253994409596546
 50
107.9112960532759047
 51
132.4882752488582867
  0
ARC
  5
2414B
  8
0
 10
4535.2980822655727025
 20
310.3467659589836103
 30
0.0
 40
0.0211182248880808
 50
92.4766440919227932
 51
107.2918923680854988
  0
ARC
  5
2414C
  8
0
 10
4535.1064855720960622
 20
310.2612449255556726
 30
0.0
 40
0.1149471932230951
 50
353.4969288475787721
 51
12.6343192203369199
  0
ARC
  5
2414D
  8
0
 10
4535.3327035690463163
 20
310.2733603357755783
 30
0.0
 40
0.1147956597432313
 50
173.4841789093181035
 51
192.647069158592501
  0
ARC
  5
2414E
  8
0
 10
4535.2348018150096323
 20
310.208044560886492
 30
0.0
 40
0.0126212052118408
 50
215.3552658911015101
 51
265.7531925373065178
  0
ARC
  5
2414F
  8
0
 10
4535.253094705472904
 20
310.2179355243137024
 30
0.0
 40
0.0333590532908781
 50
187.1250615609102113
 51
211.0259978101279899
  0
ARC
  5
24150
  8
0
 10
4535.7431975879771926
 20
310.2950580858881153
 30
0.0
 40
0.5294771024790313
 50
181.1911240536379921
 51
188.8282273390620958
  0
ARC
  5
24151
  8
0
 10
4535.6737717941177834
 20
310.2967997751081839
 30
0.0
 40
0.4601135361845519
 50
176.7784738360925019
 51
181.5876785931777988
  0
ARC
  5
24152
  8
0
 10
4535.2428245960090862
 20
310.321420785257601
 30
0.0
 40
0.0284660687404785
 50
152.9679421827351007
 51
177.5118023160979135
  0
ARC
  5
24153
  8
0
 10
4535.2282975277894366
 20
310.3278445334128719
 30
0.0
 40
0.0126372320777163
 50
100.4940068153970998
 51
148.9729666569718063
  0
ARC
  5
24154
  8
0
 10
4535.1239370143875931
 20
310.2310854215393761
 30
0.0
 40
0.0946687395679271
 50
324.544360693241515
 51
356.2104099286914902
  0
ARC
  5
24155
  8
0
 10
4535.2321365691132087
 20
310.1936545913777081
 30
0.0
 40
0.0356652347948581
 50
180.9797527539016926
 51
209.3552032081092875
  0
ARC
  5
24156
  8
0
 10
4535.1614438128472102
 20
310.208287821148474
 30
0.0
 40
0.0128394493896318
 50
180.144610913257992
 51
263.9783773239764741
  0
ARC
  5
24157
  8
0
 10
4536.0274894629719711
 20
310.3002608139055951
 30
0.0
 40
0.8836876935041061
 50
183.2653596748367875
 51
185.9761969192232982
  0
ARC
  5
24158
  8
0
 10
4535.0905393395032661
 20
310.3280895378825903
 30
0.0
 40
0.1320620176543039
 50
4.691364752129509
 51
19.2593485761049195
  0
ARC
  5
24159
  8
0
 10
4535.2053141265232625
 20
310.3681886944356734
 30
0.0
 40
0.0104840838407359
 50
19.2748541446374801
 51
46.3125274534879097
  0
ARC
  5
2415A
  8
0
 10
4535.2111992986010591
 20
310.3744312490155721
 30
0.0
 40
0.0019057767075116
 50
44.6223905259403821
 51
142.1757913788881922
  0
ARC
  5
2415B
  8
0
 10
4535.2772310476566417
 20
310.34518335206252
 30
0.0
 40
0.0740704475582074
 50
155.7546933343228091
 51
171.6905368808598951
  0
ARC
  5
2415C
  8
0
 10
4535.192355294427216
 20
310.3235006095052881
 30
0.0
 40
0.0502289225047819
 50
172.2798514666687026
 51
182.5164641702658059
  0
ARC
  5
2415D
  8
0
 10
4535.1546069198702753
 20
310.3280434471041076
 30
0.0
 40
0.0122256978627187
 50
127.976468596395307
 51
169.6110763587782913
  0
ARC
  5
2415E
  8
0
 10
4535.1543610654643999
 20
310.3282088152377014
 30
0.0
 40
0.011944415314486
 50
100.2016037552570964
 51
127.5349566812591036
  0
LINE
  5
2415F
  8
0
 10
4535.1719295444672753
 20
310.4890418477335743
 30
0.0
 11
4535.2272292468933301
 21
310.4816609219092811
 31
0.0
  0
LINE
  5
24160
  8
0
 10
4535.2319406721953783
 20
310.4886458345213214
 30
0.0
 11
4535.30200028346826
 21
310.4796044602334746
 31
0.0
  0
LINE
  5
24161
  8
0
 10
4535.2330724342045869
 20
310.6336675688057198
 30
0.0
 11
4535.3171130964237818
 21
310.6431494207288893
 31
0.0
  0
LINE
  5
24162
  8
0
 10
4535.1734427470673836
 20
310.6335367687336202
 30
0.0
 11
4535.239495002863805
 21
310.6409425324666813
 31
0.0
  0
ARC
  5
24163
  8
0
 10
4536.2022046975962439
 20
310.5533891721232749
 30
0.0
 40
1.0418718515809651
 50
176.5259075222460012
 51
180.4538572144195996
  0
ARC
  5
24164
  8
0
 10
4535.2927380795299541
 20
310.4890943471420997
 30
0.0
 40
0.0162302522987307
 50
203.1009235388158913
 51
267.3134568047664743
  0
ARC
  5
24165
  8
0
 10
4535.2843822179565905
 20
310.4950389853806882
 30
0.0
 40
0.0234226556739961
 50
288.9209794778976743
 51
318.7796166257422783
  0
ARC
  5
24166
  8
0
 10
4535.2215525025412717
 20
310.5473790696183869
 30
0.0
 40
0.1051914594117087
 50
319.8869644235177816
 51
344.7240395654354757
  0
ARC
  5
24167
  8
0
 10
4535.1590026678650247
 20
310.5736926929694732
 30
0.0
 40
0.1726937886849487
 50
341.7685854224993136
 51
23.7155245760347597
  0
ARC
  5
24168
  8
0
 10
4535.2880312283878084
 20
310.6293549431628094
 30
0.0
 40
0.0321876165376501
 50
25.3765094712532004
 51
59.9244266432878021
  0
ARC
  5
24169
  8
0
 10
4535.3225176892692616
 20
310.6205326581942927
 30
0.0
 40
0.0433659779553197
 50
132.0631442287345862
 51
154.2817953939787969
  0
ARC
  5
2416A
  8
0
 10
4535.3047697238462206
 20
310.6406655758394777
 30
0.0
 40
0.016531865855543
 50
102.3391968549278062
 51
133.1439049906286129
  0
ARC
  5
2416B
  8
0
 10
4535.3047292686478613
 20
310.6419212167098749
 30
0.0
 40
0.0152982967306435
 50
92.1258299398825073
 51
103.196170203403895
  0
ARC
  5
2416C
  8
0
 10
4535.108887764584324
 20
310.5622119526441907
 30
0.0
 40
0.1149471932230951
 50
349.9385361186589876
 51
9.0759264914245978
  0
ARC
  5
2416D
  8
0
 10
4535.335421579476133
 20
310.5602636149890259
 30
0.0
 40
0.1147956597432313
 50
169.9257861804134109
 51
189.0886764296614899
  0
ARC
  5
2416E
  8
0
 10
4535.2336547011864241
 20
310.5011501108144785
 30
0.0
 40
0.0126212052118408
 50
211.7968731621755865
 51
262.1947998084318101
  0
ARC
  5
2416F
  8
0
 10
4535.2525262141889471
 20
310.5098866430798239
 30
0.0
 40
0.0333590532908781
 50
183.5666688320112883
 51
207.4676050811916923
  0
ARC
  5
24170
  8
0
 10
4535.7464708788711505
 20
310.5564419131741261
 30
0.0
 40
0.5294771024790313
 50
177.6327313247363975
 51
185.2698346101653897
  0
ARC
  5
24171
  8
0
 10
4535.6772870328386489
 20
310.5624892086391924
 30
0.0
 40
0.4601135361845518
 50
173.2200811071934936
 51
178.0292858642789895
  0
ARC
  5
24172
  8
0
 10
4535.2486987954043798
 20
310.6138098130010121
 30
0.0
 40
0.0284660687404785
 50
149.4095494538179025
 51
173.953409587199701
  0
ARC
  5
24173
  8
0
 10
4535.234598429223297
 20
310.6211228099879804
 30
0.0
 40
0.0126372320777163
 50
96.9356140865230742
 51
145.4145739280830014
  0
ARC
  5
24174
  8
0
 10
4535.1750833692312881
 20
310.4984415178399217
 30
0.0
 40
0.0547793844162459
 50
321.1540522421987021
 51
350.4747538569897074
  0
ARC
  5
24175
  8
0
 10
4535.2526929295227092
 20
310.4799067350343194
 30
0.0
 40
0.0383613906924084
 50
174.8328996798827859
 51
204.3625348748689134
  0
ARC
  5
24176
  8
0
 10
4535.1742294666428279
 20
310.5019965773935837
 30
0.0
 40
0.0131573045332298
 50
174.1509344914850033
 51
259.9328683524888106
  0
ARC
  5
24177
  8
0
 10
4536.0440416692481449
 20
310.540616770870713
 30
0.0
 40
0.8836876935041061
 50
179.7069669459370118
 51
182.41780419032861
  0
ARC
  5
24178
  8
0
 10
4535.0662904041082584
 20
310.6201993772619971
 30
0.0
 40
0.1744422870691717
 50
4.6910971477470884
 51
13.5967729688531893
  0
ARC
  5
24179
  8
0
 10
4535.2176805439003147
 20
310.6566284745367739
 30
0.0
 40
0.0187318318301538
 50
14.1527549083665001
 51
33.426860413131223
  0
ARC
  5
2417A
  8
0
 10
4535.2319929799741658
 20
310.6653359622598032
 30
0.0
 40
0.0020836014214573
 50
50.6557578208932426
 51
159.7304663381802072
  0
ARC
  5
2417B
  8
0
 10
4535.340538064676366
 20
310.6284357163286813
 30
0.0
 40
0.1167287237549787
 50
161.1977086873887117
 51
174.6891424670930064
  0
ARC
  5
2417C
  8
0
 10
4535.197235072235344
 20
310.6163691908124065
 30
0.0
 40
0.0349879202868544
 50
165.3171662664871064
 51
179.7469859760643942
  0
ARC
  5
2417D
  8
0
 10
4535.1749633862991686
 20
310.6215332250437768
 30
0.0
 40
0.0121520101666811
 50
126.7143559444643017
 51
162.252106409855088
  0
ARC
  5
2417E
  8
0
 10
4535.1747725639334021
 20
310.6217361882538057
 30
0.0
 40
0.0118752731572407
 50
96.4295816044861027
 51
126.5617404050851036
  0
LINE
  5
2417F
  8
0
 10
4535.1909999580348085
 20
310.7808585667942793
 30
0.0
 11
4535.2462996604599539
 21
310.7734776409700999
 31
0.0
  0
LINE
  5
24180
  8
0
 10
4535.2468584726111658
 20
310.7804625535820833
 30
0.0
 11
4535.3181622031670486
 21
310.7696013255335856
 31
0.0
  0
LINE
  5
24181
  8
0
 10
4535.2479902346221934
 20
310.9254842878664249
 30
0.0
 11
4535.3318679416379382
 21
310.933176488697427
 31
0.0
  0
LINE
  5
24182
  8
0
 10
4535.1925131606349169
 20
310.9253534877943821
 30
0.0
 11
4535.2585654164304287
 21
310.9327592515276137
 31
0.0
  0
ARC
  5
24183
  8
0
 10
4536.2212751111619582
 20
310.8452058911839799
 30
0.0
 40
1.0418718515809651
 50
176.5259075222460012
 51
180.4538572144195996
  0
ARC
  5
24184
  8
0
 10
4535.3235002033561614
 20
310.7868039151205153
 30
0.0
 40
0.0361528521941701
 50
200.8531810313423875
 51
215.0769059871265085
  0
ARC
  5
24185
  8
0
 10
4535.3076079659458628
 20
310.7747916705396278
 30
0.0
 40
0.0162587761847341
 50
212.6173943643316022
 51
264.2989570377063728
  0
ARC
  5
24186
  8
0
 10
4535.2940446459160739
 20
310.7840789452052945
 30
0.0
 40
0.0281293092545297
 50
295.1354788852468118
 51
329.0238682275129918
  0
ARC
  5
24187
  8
0
 10
4535.167997862458833
 20
310.8661474112456062
 30
0.0
 40
0.1785230402117774
 50
327.2615700713452043
 51
342.1687886736044106
  0
ARC
  5
24188
  8
0
 10
4535.1495919169910849
 20
310.8630746181186169
 30
0.0
 40
0.1952916317190456
 50
344.681369340782112
 51
21.0363355413515301
  0
ARC
  5
24189
  8
0
 10
4535.311918637378767
 20
310.9227220296116911
 30
0.0
 40
0.0225226653430271
 50
27.6568451029512197
 51
70.5032618552712336
  0
ARC
  5
2418A
  8
0
 10
4535.3325481768988539
 20
310.9144729672620997
 30
0.0
 40
0.0337276133869375
 50
129.0187710224805926
 51
151.5930496035364001
  0
ARC
  5
2418B
  8
0
 10
4535.3209704898508789
 20
310.9284430562584021
 30
0.0
 40
0.0155859567004239
 50
95.6514122669260729
 51
128.2837227320719933
  0
ARC
  5
2418C
  8
0
 10
4535.1238055650001115
 20
310.8540286717050094
 30
0.0
 40
0.1149471932230951
 50
349.9385361186589876
 51
9.0759264914245978
  0
ARC
  5
2418D
  8
0
 10
4535.35033937989283
 20
310.8520803340497878
 30
0.0
 40
0.1147956597432313
 50
169.9257861804134109
 51
189.0886764296614899
  0
ARC
  5
2418E
  8
0
 10
4535.2485725016031211
 20
310.7929668298754109
 30
0.0
 40
0.0126212052118408
 50
211.7968731621755865
 51
262.1947998084318101
  0
ARC
  5
2418F
  8
0
 10
4535.2674440146038251
 20
310.8017033621404721
 30
0.0
 40
0.0333590532908781
 50
183.5666688320112883
 51
207.4676050811916923
  0
ARC
  5
24190
  8
0
 10
4535.761388679286938
 20
310.848258632234888
 30
0.0
 40
0.5294771024790313
 50
177.6327313247363975
 51
185.2698346101653897
  0
ARC
  5
24191
  8
0
 10
4535.6922048332562554
 20
310.8543059277000111
 30
0.0
 40
0.4601135361845518
 50
173.2200811071934936
 51
178.0292858642789895
  0
ARC
  5
24192
  8
0
 10
4535.2636165958210768
 20
310.9056265320618877
 30
0.0
 40
0.0284660687404785
 50
149.4095494538179025
 51
173.953409587199701
  0
ARC
  5
24193
  8
0
 10
4535.2495162296390845
 20
310.9129395290487992
 30
0.0
 40
0.0126372320777163
 50
96.9356140865230742
 51
145.4145739280830014
  0
ARC
  5
24194
  8
0
 10
4535.1941537827979118
 20
310.7902582369006268
 30
0.0
 40
0.0547793844162459
 50
321.1540522421987021
 51
349.5111379865542744
  0
ARC
  5
24195
  8
0
 10
4535.2717633430902424
 20
310.7717234540950813
 30
0.0
 40
0.0383613906924084
 50
174.8328996798861112
 51
204.3625348748689134
  0
ARC
  5
24196
  8
0
 10
4535.1932998802112706
 20
310.7938132964544025
 30
0.0
 40
0.0131573045332298
 50
174.1509344914850033
 51
259.9328683524888106
  0
ARC
  5
24197
  8
0
 10
4536.0631120828165876
 20
310.8324334899314181
 30
0.0
 40
0.8836876935041061
 50
179.7069669459370118
 51
182.41780419032861
  0
ARC
  5
24198
  8
0
 10
4535.0853608176739726
 20
310.9120160963228727
 30
0.0
 40
0.1744422870691717
 50
4.7667867316656967
 51
13.5967729688531893
  0
ARC
  5
24199
  8
0
 10
4535.2367509574678479
 20
310.9484451935974789
 30
0.0
 40
0.0187318318301538
 50
14.1527549083665001
 51
33.426860413131223
  0
ARC
  5
2419A
  8
0
 10
4535.2510633935407895
 20
310.9571526813205082
 30
0.0
 40
0.0020836014214573
 50
50.6557578208932426
 51
159.7304663381802072
  0
ARC
  5
2419B
  8
0
 10
4535.3596084782420803
 20
310.9202524353896138
 30
0.0
 40
0.1167287237549787
 50
161.1977086873887117
 51
166.6079144317546934
  0
ARC
  5
2419C
  8
0
 10
4535.2163054858028772
 20
310.9081859098732252
 30
0.0
 40
0.0349879202868544
 50
165.3171662664871064
 51
179.7469859760643942
  0
ARC
  5
2419D
  8
0
 10
4535.1940337998648829
 20
310.9133499441047093
 30
0.0
 40
0.0121520101666811
 50
126.7143559444643017
 51
162.252106409855088
  0
ARC
  5
2419E
  8
0
 10
4535.1938429775000259
 20
310.9135529073145108
 30
0.0
 40
0.0118752731572407
 50
96.4295816044861027
 51
126.5617404050851036
  0
LINE
  5
2419F
  8
0
 10
4535.2106730845680431
 20
311.0733172613336137
 30
0.0
 11
4535.2687298375703904
 21
311.0630778471036137
 31
0.0
  0
LINE
  5
241A0
  8
0
 10
4535.2611286803667099
 20
311.073197379833573
 30
0.0
 11
4535.3339056737486317
 21
311.0603324901367159
 31
0.0
  0
LINE
  5
241A1
  8
0
 10
4535.2687187626679588
 20
311.2180247769335892
 30
0.0
 11
4535.3400197141509125
 21
311.2230415047663996
 31
0.0
  0
LINE
  5
241A2
  8
0
 10
4535.2182462401788143
 20
311.2177776486826133
 30
0.0
 11
4535.2806210797061794
 21
311.2221419532842219
 31
0.0
  0
ARC
  5
241A3
  8
0
 10
4536.8981148405955537
 20
311.0574546483575773
 30
0.0
 40
1.69792753740585
 50
175.2507007241050019
 51
177.5591973893415059
  0
ARC
  5
241A4
  8
0
 10
4535.3411414269394299
 20
311.0734191492817899
 30
0.0
 40
0.0348878715035714
 50
193.8966518715309917
 51
215.9753536968142953
  0
ARC
  5
241A5
  8
0
 10
4535.3234328697462843
 20
311.0601166798542749
 30
0.0
 40
0.0127476649954776
 50
214.3452932909924016
 51
265.3873573650674871
  0
ARC
  5
241A6
  8
0
 10
4535.2955247288718965
 20
311.0829068005485851
 30
0.0
 40
0.044527479383737
 50
307.1381754917197782
 51
329.5374673670663128
  0
ARC
  5
241A7
  8
0
 10
4535.20147133843966
 20
311.1358195019814161
 30
0.0
 40
0.15243733837585
 50
330.3170424523120232
 51
347.8532418971323068
  0
ARC
  5
241A8
  8
0
 10
4535.1496520214368502
 20
311.1504483770243041
 30
0.0
 40
0.2062026674423277
 50
346.9091022400958764
 51
16.1679600261664405
  0
ARC
  5
241A9
  8
0
 10
4535.3037242936607072
 20
311.1951430362781252
 30
0.0
 40
0.0457786204744942
 50
16.1367767661650099
 51
42.419087735070768
  0
ARC
  5
241AA
  8
0
 10
4535.3385133429073903
 20
311.213966131158486
 30
0.0
 40
0.0120976925716764
 50
94.7123609709451273
 51
136.3286584487431981
  0
ARC
  5
241AB
  8
0
 10
4535.1415522944816985
 20
311.1540861604844963
 30
0.0
 40
0.1149471932230951
 50
346.2645829157876278
 51
5.4019732885465102
  0
ARC
  5
241AC
  8
0
 10
4535.3674957019466092
 20
311.1376258466403897
 30
0.0
 40
0.1147956597432313
 50
166.251832977540289
 51
185.4147232267795005
  0
ARC
  5
241AD
  8
0
 10
4535.2633818288077237
 20
311.0855492510863201
 30
0.0
 40
0.012555691989539
 50
220.5245428772271055
 51
259.6621375939649852
  0
ARC
  5
241AE
  8
0
 10
4535.2703785888534185
 20
311.0897427592126974
 30
0.0
 40
0.0206437161227875
 50
184.0599952679571061
 51
216.7507742290347039
  0
ARC
  5
241AF
  8
0
 10
4535.7315058141521149
 20
311.1202452889825736
 30
0.0
 40
0.4827784487059641
 50
175.0533878714711875
 51
183.7962551210831919
  0
ARC
  5
241B0
  8
0
 10
4535.7060037362525691
 20
311.1291015958357775
 30
0.0
 40
0.4566557466322655
 50
171.3278896682649872
 51
175.8845613647891923
  0
ARC
  5
241B1
  8
0
 10
4535.286615024620005
 20
311.1954938514340938
 30
0.0
 40
0.0321407160594034
 50
145.6857979874189937
 51
175.6065662453048901
  0
ARC
  5
241B2
  8
0
 10
4535.2696729940462319
 20
311.2054675211119843
 30
0.0
 40
0.0125934598619194
 50
94.3455796833236491
 51
139.7016659852062901
  0
ARC
  5
241B3
  8
0
 10
4535.1835051617599675
 20
311.0835622744438069
 30
0.0
 40
0.0876519088796922
 50
329.0166756153690812
 51
352.1365226864833744
  0
ARC
  5
241B4
  8
0
 10
4535.3267102051668189
 20
311.0566433486923188
 30
0.0
 40
0.0704518461360534
 50
173.035655164841188
 51
194.9738980640819079
  0
ARC
  5
241B5
  8
0
 10
4535.2133853676432409
 20
311.0859790049598246
 30
0.0
 40
0.0129489857185271
 50
171.1777519343065137
 51
171.413735094479307
  0
ARC
  5
241B6
  8
0
 10
4535.2133853676432409
 20
311.0859790049598246
 30
0.0
 40
0.0129489857185271
 50
183.4805383255300057
 51
257.9093431649264971
  0
ARC
  5
241B7
  8
0
 10
4536.29469242840878
 20
311.0763803714187929
 30
0.0
 40
1.0942676474095481
 50
177.2036977183502131
 51
179.5385727403239002
  0
ARC
  5
241B8
  8
0
 10
4535.1392266773082156
 20
311.2035408233082876
 30
0.0
 40
0.1426126890072189
 50
6.1784830794175951
 51
11.3194935693726801
  0
ARC
  5
241B9
  8
0
 10
4535.2614261269327471
 20
311.2282683482637253
 30
0.0
 40
0.0179386605467922
 50
10.4850539870370607
 51
25.814837921557519
  0
ARC
  5
241BA
  8
0
 10
4535.3471242239229468
 20
311.2092660334287757
 30
0.0
 40
0.0770859650855608
 50
159.8675765938897939
 51
170.8911929774145051
  0
ARC
  5
241BB
  8
0
 10
4535.3070323747870134
 20
311.1897267335248785
 30
0.0
 40
0.1013564606526874
 50
169.2258192497978087
 51
175.2974140203604065
  0
ARC
  5
241BC
  8
0
 10
4535.2193633814140412
 20
311.2056310200474059
 30
0.0
 40
0.0122836385885298
 50
124.3816691218481054
 51
165.6561614448889088
  0
ARC
  5
241BD
  8
0
 10
4535.2190710251352357
 20
311.2059554404989967
 30
0.0
 40
0.0118509441196216
 50
93.9908150030377669
 51
124.100874599870707
  0
ARC
  5
241BE
  8
0
 10
4535.2749250887982271
 20
311.2347820113985222
 30
0.0
 40
0.0029503828180517
 50
26.0998506666863292
 51
50.6127665012194612
  0
ARC
  5
241BF
  8
0
 10
4535.2762591743694429
 20
311.2363811787805048
 30
0.0
 40
0.0008680246222562
 50
51.6898278411100094
 51
101.2704781635627995
  0
ARC
  5
241C0
  8
0
 10
4535.2766923333856539
 20
311.2355484149207996
 30
0.0
 40
0.001788685795642
 50
109.6948621360509009
 51
147.9510528737731931
  0
ARC
  5
241C1
  8
0
 10
4535.2800033257663017
 20
311.2330622346592008
 30
0.0
 40
0.0059247080544632
 50
144.5612711768866916
 51
152.4959252845258106
  0
LINE
  5
241C2
  8
0
 10
4535.2373135813068075
 20
311.3640059115115264
 30
0.0
 11
4535.2929402555218985
 21
311.3541950879625801
 31
0.0
  0
LINE
  5
241C3
  8
0
 10
4535.28038210046725
 20
311.3651158035335129
 30
0.0
 11
4535.3491671108859009
 21
311.351824055819975
 31
0.0
  0
LINE
  5
241C4
  8
0
 10
4535.2905073571673711
 20
311.5099137265336253
 30
0.0
 11
4535.365184595860228
 21
311.5141072930210271
 31
0.0
  0
LINE
  5
241C5
  8
0
 10
4535.2448246694148111
 20
311.5096496690341041
 30
0.0
 11
4535.3092881790407773
 21
311.5129252962299233
 31
0.0
  0
ARC
  5
241C6
  8
0
 10
4537.331246524897324
 20
311.2912414982611722
 30
0.0
 40
2.1078603251462358
 50
174.6241283385641054
 51
176.4855688514599876
  0
ARC
  5
241C7
  8
0
 10
4535.3551624350648126
 20
311.3637592921839996
 30
0.0
 40
0.0254233828821298
 50
199.4392471763555079
 51
217.4076603833871104
  0
ARC
  5
241C8
  8
0
 10
4535.3436191743703603
 20
311.3544969701724199
 30
0.0
 40
0.0106330908950248
 50
215.5480622880662054
 51
260.1012584317634264
  0
ARC
  5
241C9
  8
0
 10
4535.3293199585541515
 20
311.3631999351010791
 30
0.0
 40
0.022876190353839
 50
303.0359692028084169
 51
330.1797699880190748
  0
ARC
  5
241CA
  8
0
 10
4535.2195140269614058
 20
311.4300356394812752
 30
0.0
 40
0.1514165578472002
 50
328.900050824344703
 51
346.7708005665318751
  0
ARC
  5
241CB
  8
0
 10
4535.1429521198469956
 20
311.4533992627373209
 30
0.0
 40
0.2313523476697408
 50
345.4772714784184018
 51
11.3589380357713505
  0
ARC
  5
241CC
  8
0
 10
4535.3066337518603177
 20
311.4880993214554223
 30
0.0
 40
0.0640672765006649
 50
9.76463363753947
 51
34.084045016843767
  0
ARC
  5
241CD
  8
0
 10
4535.3671411102659476
 20
311.5042116295477967
 30
0.0
 40
0.021145790413967
 50
110.6168423843042063
 51
155.022313007015498
  0
ARC
  5
241CE
  8
0
 10
4535.1613558441267742
 20
311.4447748106625795
 30
0.0
 40
0.1149471932230951
 50
346.2645829157876278
 51
5.4019732885465102
  0
ARC
  5
241CF
  8
0
 10
4535.3872992515916849
 20
311.428314496818416
 30
0.0
 40
0.1147956597432313
 50
166.251832977540289
 51
185.4147232267795005
  0
ARC
  5
241D0
  8
0
 10
4535.2827861559308076
 20
311.3773185320906123
 30
0.0
 40
0.0124372853512116
 50
219.5956169336623987
 51
258.8549056938372246
  0
ARC
  5
241D1
  8
0
 10
4535.2849813620032364
 20
311.379303855325702
 30
0.0
 40
0.015394757917588
 50
181.2433245265877133
 51
220.081935690321103
  0
ARC
  5
241D2
  8
0
 10
4535.6375736298869015
 20
311.4077360768159224
 30
0.0
 40
0.3691060572792173
 50
173.0244113670995034
 51
184.4698765831709864
  0
ARC
  5
241D3
  8
0
 10
4535.6915118559591065
 20
311.4179307696870183
 30
0.0
 40
0.4217365028719393
 50
170.2575802681008099
 51
175.2897126036787938
  0
ARC
  5
241D4
  8
0
 10
4535.319209247202707
 20
311.4837007018488748
 30
0.0
 40
0.0437114786364627
 50
152.4404416884094928
 51
172.6448078600795952
  0
ARC
  5
241D5
  8
0
 10
4535.2921685666260601
 20
311.4956999378035221
 30
0.0
 40
0.014310534823424
 50
96.6660933338799708
 51
144.9188935384071897
  0
ARC
  5
241D6
  8
0
 10
4535.2179822821026391
 20
311.374193674454375
 30
0.0
 40
0.0775799023004111
 50
329.551729437327424
 51
351.2245889567325889
  0
ARC
  5
241D7
  8
0
 10
4535.3252609851306261
 20
311.348470947838905
 30
0.0
 40
0.0426232129847931
 50
169.9662037130929093
 51
198.5951952902993014
  0
ARC
  5
241D8
  8
0
 10
4535.2420596863412356
 20
311.3800932934215098
 30
0.0
 40
0.0167728760117185
 50
193.1550050109811139
 51
253.562868183995306
  0
ARC
  5
241D9
  8
0
 10
4535.8297019966321386
 20
311.3762012928280001
 30
0.0
 40
0.6039750359213194
 50
175.7983000381655074
 51
179.9929112662726993
  0
ARC
  5
241DA
  8
0
 10
4535.0278348977772112
 20
311.4979691561932214
 30
0.0
 40
0.2818503781417204
 50
2.644584496137186
 51
5.4221182151024196
  0
ARC
  5
241DB
  8
0
 10
4535.2378845102120977
 20
311.5176414760222201
 30
0.0
 40
0.070882221667176
 50
5.6353890989008333
 51
11.0595533471330398
  0
ARC
  5
241DC
  8
0
 10
4535.6048033924344054
 20
311.464244863901115
 30
0.0
 40
0.3093609073840123
 50
168.0959552952890874
 51
171.04239575697801
  0
ARC
  5
241DD
  8
0
 10
4535.2961944051457976
 20
311.4845004062157727
 30
0.0
 40
0.0636770855933697
 50
164.1306406037643058
 51
176.1960276065987046
  0
ARC
  5
241DE
  8
0
 10
4535.2465894199322065
 20
311.4974331714631717
 30
0.0
 40
0.0124770271282625
 50
129.7834380297875896
 51
158.9604481149958133
  0
ARC
  5
241DF
  8
0
 10
4535.2462656060779409
 20
311.4975679815818808
 30
0.0
 40
0.0121673115417725
 50
96.8013216566471613
 51
129.0178393310108902
  0
ARC
  5
241E0
  8
0
 10
4535.2948900450119254
 20
311.529129276232311
 30
0.0
 40
0.0127361953426259
 50
9.5337588783472729
 51
28.7361426383045497
  0
ARC
  5
241E1
  8
0
 10
4535.3375603742042586
 20
311.520658411380623
 30
0.0
 40
0.0362285754012822
 50
158.8414706645164074
 51
168.2149683826503122
  0
ARC
  5
241E2
  8
0
 10
4535.3098560980342882
 20
311.5313384689347913
 30
0.0
 40
0.0065371325994091
 50
144.693133102227506
 51
158.4927717965568945
  0
ARC
  5
241E3
  8
0
 10
4535.3056563116133475
 20
311.5343991105920054
 30
0.0
 40
0.0013427523999691
 50
109.0039723468266999
 51
147.6986464093623965
  0
ARC
  5
241E4
  8
0
 10
4535.3053352239157903
 20
311.5348496740949145
 30
0.0
 40
0.0008271997214264
 50
29.1453351860766894
 51
98.0723210108463093
  0
LINE
  5
241E5
  8
0
 10
4535.2645304386005591
 20
311.6571337066712886
 30
0.0
 11
4535.3221622041210139
 21
311.644881180739219
 31
0.0
  0
LINE
  5
241E6
  8
0
 10
4535.3036457892676481
 20
311.6573905548336256
 30
0.0
 11
4535.3729991427671848
 21
311.642617906633518
 31
0.0
  0
LINE
  5
241E7
  8
0
 10
4535.316235345966561
 20
311.8012898469335141
 30
0.0
 11
4535.3882309696573429
 21
311.8038349046136091
 31
0.0
  0
LINE
  5
241E8
  8
0
 10
4535.2771805807642522
 20
311.8015264490451841
 30
0.0
 11
4535.340144978877106
 21
311.8037325385133727
 31
0.0
  0
ARC
  5
241E9
  8
0
 10
4537.3693204776282073
 20
311.5417293868371189
 30
0.0
 40
2.1187704618898402
 50
173.4961876064269859
 51
175.3376677030531141
  0
ARC
  5
241EA
  8
0
 10
4535.4039698418500848
 20
311.6588222157625978
 30
0.0
 40
0.0510545549649335
 50
193.8756625006955119
 51
206.5617255917817943
  0
ARC
  5
241EB
  8
0
 10
4535.3672448086499571
 20
311.6402070029423044
 30
0.0
 40
0.0098843629944153
 50
205.2376152331171966
 51
255.4500958443742036
  0
ARC
  5
241EC
  8
0
 10
4535.3219804700784152
 20
311.66888208216659
 30
0.0
 40
0.0573821564558321
 50
318.2061981447189964
 51
332.7608008700786968
  0
ARC
  5
241ED
  8
0
 10
4535.2017817972982812
 20
311.7264571321090898
 30
0.0
 40
0.1906420602019774
 50
333.9106032182859281
 51
346.8285553130231165
  0
ARC
  5
241EE
  8
0
 10
4535.1093416128151148
 20
311.7495498685178745
 30
0.0
 40
0.28591595615131
 50
346.5437372968361842
 51
5.7932099824721019
  0
ARC
  5
241EF
  8
0
 10
4535.2917253727637217
 20
311.7693850117788088
 30
0.0
 40
0.1024701192944838
 50
5.0527037625138487
 51
24.5408164191786504
  0
ARC
  5
241F0
  8
0
 10
4535.1865744335618729
 20
311.7430950979619979
 30
0.0
 40
0.1149471932230951
 50
344.3033154347314166
 51
3.440705807486141
  0
ARC
  5
241F1
  8
0
 10
4535.4118221453800288
 20
311.7189117642569158
 30
0.0
 40
0.1147956597432313
 50
164.2905654964777113
 51
183.4534557457367896
  0
ARC
  5
241F2
  8
0
 10
4535.3062036682968028
 20
311.6694030877538921
 30
0.0
 40
0.0122818440102986
 50
237.7685634330705966
 51
257.9793000827219771
  0
ARC
  5
241F3
  8
0
 10
4535.3076503454431077
 20
311.6709789587300747
 30
0.0
 40
0.0143915502340165
 50
186.9708795070413032
 51
236.2425072437476956
  0
ARC
  5
241F4
  8
0
 10
4535.7293344407316908
 20
311.6918160760254182
 30
0.0
 40
0.4365538037398025
 50
172.6047954161620908
 51
182.9653416216656012
  0
ARC
  5
241F5
  8
0
 10
4535.6969969778965606
 20
311.7053642247190055
 30
0.0
 40
0.4028482533084545
 50
168.8009365609478891
 51
173.9238108053177996
  0
ARC
  5
241F6
  8
0
 10
4535.3313405825892914
 20
311.7794217694860777
 30
0.0
 40
0.0298158339361092
 50
144.0675187388850986
 51
171.9351755112612921
  0
ARC
  5
241F7
  8
0
 10
4535.31677073969513
 20
311.7886560487174279
 30
0.0
 40
0.0126451375560222
 50
92.426622365371756
 51
139.2000162238362861
  0
ARC
  5
241F8
  8
0
 10
4535.2371522503408414
 20
311.6660057734040947
 30
0.0
 40
0.0875953232606436
 50
331.6351247948999799
 51
351.5271403605996738
  0
ARC
  5
241F9
  8
0
 10
4535.3849462732014217
 20
311.6362342593342873
 30
0.0
 40
0.0717003508510232
 50
171.6745670494736942
 51
189.5078804652966085
  0
ARC
  5
241FA
  8
0
 10
4535.2671359396535991
 20
311.668970350640393
 30
0.0
 40
0.0121200155196116
 50
181.3442625632532952
 51
257.5859359118061889
  0
ARC
  5
241FB
  8
0
 10
4535.9034157688156483
 20
311.654980314047009
 30
0.0
 40
0.6485413474255975
 50
174.7830824846562052
 51
178.7890709966808913
  0
ARC
  5
241FC
  8
0
 10
4535.1079856111718982
 20
311.7968898292664903
 30
0.0
 40
0.2322601874690708
 50
1.2944065969748679
 51
4.5057488928345757
  0
ARC
  5
241FD
  8
0
 10
4535.3053985342239685
 20
311.8119111958505982
 30
0.0
 40
0.0342814660289706
 50
5.3976818318396456
 51
13.6100461898515501
  0
ARC
  5
241FE
  8
0
 10
4535.4412129907914277
 20
311.7879011239123201
 30
0.0
 40
0.1095779675185262
 50
163.1830693349602939
 51
171.8299903781575892
  0
ARC
  5
241FF
  8
0
 10
4535.3074256784411773
 20
311.7795604230844901
 30
0.0
 40
0.0432938858754951
 50
158.8472259640273876
 51
177.1393577765230134
  0
ARC
  5
24200
  8
0
 10
4535.2791595185699407
 20
311.7881905987529763
 30
0.0
 40
0.013984472604236
 50
125.2727006935139968
 51
149.9978915070144865
  0
ARC
  5
24201
  8
0
 10
4535.2775702492272103
 20
311.7896431310028902
 30
0.0
 40
0.0118897051775022
 50
91.8781253820453401
 51
123.0616656608011965
  0
ARC
  5
24202
  8
0
 10
4535.341698627947153
 20
311.8177548129679053
 30
0.0
 40
0.0056863491492401
 50
142.9905639063678962
 51
161.0263190244110945
  0
ARC
  5
24203
  8
0
 10
4535.3348226139323742
 20
311.8190059029698205
 30
0.0
 40
0.0040142484022016
 50
14.0149588217688503
 51
32.5289162790016988
  0
ARC
  5
24204
  8
0
 10
4535.3375418791138145
 20
311.8207582715294848
 30
0.0
 40
0.0007794373675745
 50
31.4085724480790915
 51
69.7619177304510742
  0
ARC
  5
24205
  8
0
 10
4535.337950674221247
 20
311.8205556776118215
 30
0.0
 40
0.0010076891540031
 50
114.9298035128882987
 51
141.8831478522888006
  0
ARC
  5
24206
  8
0
 10
4535.3376969102037037
 20
311.8210792077417182
 30
0.0
 40
0.0004260803065376
 50
74.3983348903654331
 51
113.6592624627639054
  0
ARC
  5
24207
  8
0
 10
4535.3944998870983909
 20
311.7944771034322002
 30
0.0
 40
0.0199133817271438
 50
118.6937541792095061
 51
153.2899442924961022
  0
LINE
  5
24208
  8
0
 10
4535.3011838223537779
 20
311.9318786743784244
 30
0.0
 11
4535.3588162822970844
 21
311.9207001550220184
 31
0.0
  0
LINE
  5
24209
  8
0
 10
4535.3130715636161767
 20
312.0763531159548165
 30
0.0
 11
4535.3287899026672676
 21
312.0771768791336171
 31
0.0
  0
ARC
  5
2420A
  8
0
 10
4516.2420420642647514
 20
313.3599941962309003
 30
0.0
 40
19.1020490837252801
 50
355.886386890789197
 51
356.1136130852975157
  0
ARC
  5
2420B
  8
0
 10
4535.2738056340931507
 20
311.9418219529811722
 30
0.0
 40
0.0875953232606436
 50
331.6351247948999799
 51
348.1951966643873106
  0
ARC
  5
2420C
  8
0
 10
4535.4215996569546405
 20
311.9120504389111943
 30
0.0
 40
0.0717003508510232
 50
171.7917184622234004
 51
189.5078804652966085
  0
ARC
  5
2420D
  8
0
 10
4535.3040024552092291
 20
311.9438972249910762
 30
0.0
 40
0.0123446445880544
 50
177.1909813037160859
 51
256.8013228149551992
  0
ARC
  5
2420E
  8
0
 10
4523.9463281191028727
 20
312.7719276204255721
 30
0.0
 40
11.3754769221196703
 50
355.8287561239126262
 51
356.057078733786625
  0
ARC
  5
2420F
  8
0
 10
4535.3116490392067135
 20
312.0646040021730983
 30
0.0
 40
0.0115052782806405
 50
109.8765429920510002
 51
176.5776507666516864
  0
ARC
  5
24210
  8
0
 10
4535.3125727663746147
 20
312.0634412319179773
 30
0.0
 40
0.0129215149293171
 50
87.7877145661513936
 51
111.9759685663911029
  0
LINE
  5
24211
  8
0
 10
4535.3723556756613107
 20
312.0794600645479022
 30
0.0
 11
4535.3509434528486963
 21
312.0783378975697246
 31
0.0
  0
LINE
  5
24212
  8
0
 10
4535.4007937925471197
 20
312.0792163493200064
 30
0.0
 11
4535.332967463768
 21
312.0780211286335089
 31
0.0
  0
ARC
  5
24213
  8
0
 10
4535.3332695746521495
 20
312.065768265397594
 30
0.0
 40
0.0122565871460268
 50
91.4124186204055746
 51
131.4717601821022868
  0
ARC
  5
24214
  8
0
 10
4535.3343405014311429
 20
312.0648438506859748
 30
0.0
 40
0.0136597814834165
 50
132.2697105065188055
 51
158.7116118742341939
  0
ARC
  5
24215
  8
0
 10
4536.0298957804761812
 20
311.9280896862192094
 30
0.0
 40
0.7223209155369906
 50
168.6856401351118961
 51
178.0490217489596034
  0
ARC
  5
24216
  8
0
 10
4535.3336492482685571
 20
311.9495338587037168
 30
0.0
 40
0.0258479366336535
 50
173.007260465370905
 51
200.5448939478677914
  0
ARC
  5
24217
  8
0
 10
4535.3207127164332633
 20
311.9455149539240892
 30
0.0
 40
0.0123482506780478
 50
204.1510148695097087
 51
241.5667831144535
  0
ARC
  5
24218
  8
0
 10
4535.3204995556834547
 20
311.9452949920203082
 30
0.0
 40
0.0120536129049334
 50
241.959971178533408
 51
256.9756437324327862
  0
LINE
  5
24219
  8
0
 10
4535.3177830903678114
 20
311.9335514661335083
 30
0.0
 11
4535.3476654211672212
 21
311.9266473404834983
 31
0.0
  0
LINE
  5
2421A
  8
0
 10
4535.3476654211672212
 20
311.9266473404834983
 30
0.0
 11
4535.3767951332656594
 21
311.9199171026776867
 31
0.0
  0
ARC
  5
2421B
  8
0
 10
4534.9714615773127662
 20
312.0624385219358032
 30
0.0
 40
0.4296599196209023
 50
339.204464649263798
 51
2.9072566392782742
  0
ARC
  5
2421C
  8
0
 10
4535.3464064005329419
 20
312.1078391288331773
 30
0.0
 40
0.0590837902556812
 50
330.9706913035487901
 51
336.4482868110191021
  0
ARC
  5
2421D
  8
0
 10
4535.4129356523299066
 20
311.9253871624495105
 30
0.0
 40
0.0427137298912303
 50
185.3661747987470108
 51
201.2665382395350093
  0
ARC
  5
2421E
  8
0
 10
4535.1329812355461399
 20
312.0260077108534915
 30
0.0
 40
0.1841251139213275
 50
347.9913417623677105
 51
0.0086534949319796
  0
ARC
  5
2421F
  8
0
 10
4535.4991908291749496
 20
311.987517516244111
 30
0.0
 40
0.186113930430241
 50
168.0557829830597996
 51
179.9442122742374863
  0
ARC
  5
24220
  8
0
 10
4591.4307980872135886
 20
306.8249485831175889
 30
0.0
 40
56.3375370675564966
 50
176.572403476119888
 51
176.711229450073688
  0
ARC
  5
24221
  8
0
 10
4556.7974170831002994
 20
308.9958603046156895
 30
0.0
 40
21.6362659836588591
 50
176.0570320617399886
 51
176.4140725167468133
  0
ARC
  5
24222
  8
0
 10
4595.2530474433506242
 20
306.2946814002452243
 30
0.0
 40
60.1872199819810803
 50
175.7307083776578054
 51
175.860716245824193
  0
ARC
  5
24223
  8
0
 10
4544.3586200577592535
 20
310.4194318620502031
 30
0.0
 40
9.1244003618161251
 50
174.1082154487862965
 51
174.9578285309270029
  0
ARC
  5
24224
  8
0
 10
4539.9429554580010517
 20
311.3309475724033746
 30
0.0
 40
4.6314850017285041
 50
163.7422466832236978
 51
170.7087771593002117
  0
LINE
  5
24225
  8
0
 10
4535.1708378782595901
 20
308.7337004638421263
 30
0.0
 11
4535.1362582784677215
 21
308.7337004638421263
 31
0.0
  0
ARC
  5
24226
  8
0
 10
4533.6892698614874462
 20
280.3641996757485231
 30
0.0
 40
3.5094243680315862
 50
322.9206962822968876
 51
3.738854898965434
  0
ARC
  5
24227
  8
0
 10
4533.0185691509177559
 20
280.9015218195046941
 30
0.0
 40
4.368540336746376
 50
295.2137325902322118
 51
322.6020159770293958
  0
ARC
  5
24228
  8
0
 10
4532.8473153210770761
 20
281.1534818158356188
 30
0.0
 40
4.6696909562227731
 50
258.5689095713789811
 51
295.7978256968696087
  0
ARC
  5
24229
  8
0
 10
4533.0272038126086045
 20
281.6226676243668976
 30
0.0
 40
5.1658940279461119
 50
207.6464843409004004
 51
257.6446138544721975
  0
ARC
  5
2422A
  8
0
 10
4532.6998934446737621
 20
281.6793308665231166
 30
0.0
 40
4.9064090311099147
 50
172.4211273890431926
 51
210.0068818177958008
  0
ARC
  5
2422B
  8
0
 10
4533.7327124055263994
 20
281.1624443787181917
 30
0.0
 40
6.0101606049161687
 50
141.7275096064414868
 51
168.832870679151597
  0
ARC
  5
2422C
  8
0
 10
4545.7603858751390362
 20
270.661927170518311
 30
0.0
 40
21.9711569423509303
 50
130.8458975983247967
 51
139.65723207555871
  0
ARC
  5
2422D
  8
0
 10
4526.1530913427232008
 20
293.6196699392560276
 30
0.0
 40
8.221442979753359
 50
309.573089710177328
 51
340.0236072289183085
  0
ARC
  5
2422E
  8
0
 10
4519.2448213587467762
 20
296.1410541918975241
 30
0.0
 40
15.5754571345517192
 50
339.9883342386702907
 51
355.0735585854034753
  0
ARC
  5
2422F
  8
0
 10
3177.5511621937439486
 20
413.0550400563180915
 30
0.0
 40
1362.3533664168560335
 50
355.0204903746682135
 51
355.2772447428012015
  0
ARC
  5
24230
  8
0
 10
4533.5995233210433071
 20
280.380716078774924
 30
0.0
 40
2.9798259635246871
 50
309.0422413545376799
 51
3.707013931598091
  0
ARC
  5
24231
  8
0
 10
4532.8414772732221536
 20
281.1805046333834071
 30
0.0
 40
4.0793804075627449
 50
236.3248452974756901
 51
310.2358790264185018
  0
ARC
  5
24232
  8
0
 10
4533.3595371478841116
 20
281.9172178959440771
 30
0.0
 40
4.9797763742213288
 50
190.8540342909786887
 51
236.064456520723013
  0
ARC
  5
24233
  8
0
 10
4532.3209496400313583
 20
281.6638573947187183
 30
0.0
 40
3.9124218357814611
 50
147.4260957276644035
 51
190.0741279266223955
  0
ARC
  5
24234
  8
0
 10
4538.5911376535996169
 20
277.6704943513465196
 30
0.0
 40
11.3462746356660205
 50
129.9375767422226033
 51
147.4795728149661045
  0
ARC
  5
24235
  8
0
 10
4524.7565613160422799
 20
294.6421226002605067
 30
0.0
 40
10.5516819462465996
 50
308.3768040616968165
 51
331.0979628972440878
  0
ARC
  5
24236
  8
0
 10
4522.6596081635971132
 20
295.1366487135182979
 30
0.0
 40
12.6398048147097004
 50
333.7305203928428909
 51
350.7879408370027932
  0
ARC
  5
24237
  8
0
 10
4488.9325404848141261
 20
300.5409984994124102
 30
0.0
 40
46.7971021426893188
 50
350.8671352974347997
 51
357.3062665538463989
  0
ARC
  5
24238
  8
0
 10
4587.3879179813911833
 20
295.0871389166135259
 30
0.0
 40
51.8123007639808577
 50
173.6137575571100911
 51
176.3986642386973926
  0
ARC
  5
24239
  8
0
 10
4535.9568271126900072
 20
303.1799659164731793
 30
0.0
 40
0.0129160699643169
 50
271.512710727923718
 51
294.9668472347869965
  0
ARC
  5
2423A
  8
0
 10
4535.9570121805809322
 20
303.1740007185950958
 30
0.0
 40
0.0069481199832932
 50
240.6561928688672936
 51
271.2856928747519873
  0
ARC
  5
2423B
  8
0
 10
4535.9563420026670428
 20
303.1725446775243995
 30
0.0
 40
0.0053520395175987
 50
204.2791320627999028
 51
239.2714101575282086
  0
ARC
  5
2423C
  8
0
 10
4535.9582426009601477
 20
303.173316125534086
 30
0.0
 40
0.0074021555018126
 50
177.7102458455644864
 51
177.7978633068289014
  0
ARC
  5
2423D
  8
0
 10
4535.9582426009601477
 20
303.173316125534086
 30
0.0
 40
0.0074021555018126
 50
182.2021371842261033
 51
203.6732262396604085
  0
ARC
  5
2423E
  8
0
 10
4535.9601693426793645
 20
303.538058425216775
 30
0.0
 40
0.6246401015962925
 50
276.3375129174747258
 51
285.368985554363519
  0
ARC
  5
2423F
  8
0
 10
4536.1155064016256802
 20
302.9958256599779816
 30
0.0
 40
0.0609317640441739
 50
279.6499984073132055
 51
332.7417904134941864
  0
ARC
  5
24240
  8
0
 10
4536.0675529375412225
 20
303.0303544327168765
 30
0.0
 40
0.1196932050789075
 50
328.5583292416274048
 51
335.0670905847799759
  0
ARC
  5
24241
  8
0
 10
4536.1557384011312024
 20
302.9853283224975939
 30
0.0
 40
0.0210648323500599
 50
345.0580393357122944
 51
35.0642164630968978
  0
ARC
  5
24242
  8
0
 10
4536.0975823186363414
 20
302.9447686785920268
 30
0.0
 40
0.0919676133907435
 50
34.9321963871533612
 51
57.8342836254678971
  0
ARC
  5
24243
  8
0
 10
4535.7545814236045771
 20
302.401975927775311
 30
0.0
 40
0.7340527658563233
 50
57.7259576354085695
 51
69.0319717113709714
  0
ARC
  5
24244
  8
0
 10
4536.076297745271404
 20
303.2261541280407755
 30
0.0
 40
0.1507734855701272
 50
231.605906060092309
 51
246.9480197092912022
  0
ARC
  5
24245
  8
0
 10
4536.0245058715199775
 20
303.1626007708250086
 30
0.0
 40
0.068805981574116
 50
198.8964438318452039
 51
232.5397341347504039
  0
ARC
  5
24246
  8
0
 10
4536.1077010914268612
 20
303.1662039553390855
 30
0.0
 40
0.1505354130816468
 50
179.6763275842600933
 51
189.9020021283230051
  0
ARC
  5
24247
  8
0
 10
4535.9780353163168911
 20
303.2420425376839148
 30
0.0
 40
0.30838298811651
 50
279.698810574889194
 51
288.4015425299334083
  0
ARC
  5
24248
  8
0
 10
4536.0537008760547906
 20
303.0217636932558207
 30
0.0
 40
0.0755156852545492
 50
286.686442871168822
 51
309.7132347768329055
  0
ARC
  5
24249
  8
0
 10
4536.089595512449705
 20
302.9783761251109127
 30
0.0
 40
0.0192053116279385
 50
310.042214864297307
 51
359.2377817070496917
  0
ARC
  5
2424A
  8
0
 10
4536.0536297569142334
 20
302.9472554629830938
 30
0.0
 40
0.0632164401237523
 50
29.2253645995806686
 51
56.5165067474191218
  0
ARC
  5
2424B
  8
0
 10
4535.9201344423063347
 20
302.7635597466447166
 30
0.0
 40
0.2902480299586072
 50
54.5427300962283184
 51
66.9355018166275215
  0
ARC
  5
2424C
  8
0
 10
4536.5295480251452318
 20
304.2492898805999744
 30
0.0
 40
1.3156410108317309
 50
243.2439341018402956
 51
247.8657830293707889
  0
ARC
  5
2424D
  8
0
 10
4535.9858925438938968
 20
303.1573855157383264
 30
0.0
 40
0.0960906943068982
 50
183.7726220271698878
 51
239.5918920791042126
  0
ARC
  5
2424E
  8
0
 10
4536.0304301498872519
 20
303.5486605279534729
 30
0.0
 40
0.0681644922059714
 50
120.9079242420774989
 51
178.5300899700131083
  0
ARC
  5
2424F
  8
0
 10
4536.0819202778120598
 20
303.4812686899364849
 30
0.0
 40
0.1527342848425675
 50
114.4254137272556022
 51
124.497197937389501
  0
ARC
  5
24250
  8
0
 10
4535.6936939688321218
 20
304.4393875477902043
 30
0.0
 40
0.8812037049900386
 50
291.6473291960302845
 51
300.8170072554087255
  0
ARC
  5
24251
  8
0
 10
4536.0826627101059785
 20
303.7879571094542825
 30
0.0
 40
0.1224827108506397
 50
300.6658985283057177
 51
319.7229607193642096
  0
ARC
  5
24252
  8
0
 10
4536.1576293803400404
 20
303.7257195827195915
 30
0.0
 40
0.0250722480368759
 50
317.4781983757798116
 51
3.7388971469834789
  0
ARC
  5
24253
  8
0
 10
4536.1541368318930836
 20
303.7202503360978767
 30
0.0
 40
0.0293831831088315
 50
13.9914924833437002
 51
65.9695837483020853
  0
ARC
  5
24254
  8
0
 10
4535.7510709203061197
 20
304.3485492684138762
 30
0.0
 40
0.7600516667624233
 50
290.4561692668256114
 51
299.949238798387114
  0
ARC
  5
24255
  8
0
 10
4536.0564204755337414
 20
303.8192876350166216
 30
0.0
 40
0.1490233538956022
 50
299.8142893528894888
 51
314.3060021154698234
  0
ARC
  5
24256
  8
0
 10
4536.1321245508661377
 20
303.7420343510245857
 30
0.0
 40
0.0408613972290712
 50
314.0050167841512234
 51
336.6242022091900026
  0
ARC
  5
24257
  8
0
 10
4536.1482898854792438
 20
303.7341151177732854
 30
0.0
 40
0.022896826541801
 50
338.7654064707812722
 51
20.9227882348650915
  0
ARC
  5
24258
  8
0
 10
4536.1013824963556544
 20
303.6951092070120808
 30
0.0
 40
0.0830080067841438
 50
34.6394283686974234
 51
72.9192391756613461
  0
ARC
  5
24259
  8
0
 10
4535.8825851814299313
 20
302.8204044906954095
 30
0.0
 40
0.9845556147787975
 50
75.7003537726988753
 51
77.4219500983043503
  0
ARC
  5
2425A
  8
0
 10
4536.0164241715228854
 20
303.5605080990583247
 30
0.0
 40
0.0655782985727571
 50
133.2026994546313006
 51
179.9374191715604923
  0
ARC
  5
2425B
  8
0
 10
4536.0697967804362634
 20
303.500779769778319
 30
0.0
 40
0.1456678555836879
 50
111.3763556640248993
 51
132.4224350343463925
  0
ARC
  5
2425C
  8
0
 10
4536.0770660098332883
 20
303.7142051409483088
 30
0.0
 40
0.0454925792358197
 50
41.7470909819249414
 51
66.3370496168313935
  0
ARC
  5
2425D
  8
0
 10
4536.0977558222029984
 20
303.7328667815827998
 30
0.0
 40
0.0176309688850687
 50
358.3758490366450928
 51
41.2690428790971993
  0
ARC
  5
2425E
  8
0
 10
4536.0569979543906811
 20
303.7660662073267872
 30
0.0
 40
0.0674096520563041
 50
299.789940084540774
 51
330.0055803753501209
  0
ARC
  5
2425F
  8
0
 10
4535.6947731588152237
 20
304.3657269196198172
 30
0.0
 40
0.7679637648530995
 50
290.6965384374674954
 51
301.0160851389603067
  0
ARC
  5
24260
  8
0
 10
4535.992129959763588
 20
303.5519445016415716
 30
0.0
 40
0.0988445384517257
 50
105.2170375342883943
 51
175.6174834096784991
  0
LINE
  5
24261
  8
0
 10
4535.2096235448007064
 20
303.1713710056162085
 30
0.0
 11
4535.2096235448007064
 21
303.5605521707594221
 31
0.0
  0
LINE
  5
24262
  8
0
 10
4535.2096235257022272
 20
303.5396946789595063
 30
0.0
 11
4535.2096235396020347
 21
303.5396782501595112
 31
0.0
  0
LINE
  5
24263
  8
0
 10
4535.1981813686015812
 20
303.5503815248594037
 30
0.0
 11
4535.1981905514021491
 21
303.1682292695593901
 31
0.0
  0
LINE
  5
24264
  8
0
 10
4535.2668950256020253
 20
303.5594701297595179
 30
0.0
 11
4535.2704593809021389
 21
303.1510354703593748
 31
0.0
  0
ARC
  5
24265
  8
0
 10
4536.1381412197570171
 20
303.8388677677658052
 30
0.0
 40
1.0762035915422921
 50
182.7964097648242898
 51
187.0093621441687048
  0
ARC
  5
24266
  8
0
 10
4535.2036423441795705
 20
303.1799383608491212
 30
0.0
 40
0.0129160699643169
 50
245.0331527652130887
 51
268.487289272076282
  0
ARC
  5
24267
  8
0
 10
4535.203457276287736
 20
303.173973162970924
 30
0.0
 40
0.0069481199832932
 50
268.7143071252480127
 51
299.343807131132678
  0
ARC
  5
24268
  8
0
 10
4535.2041274542016254
 20
303.1725171219002277
 30
0.0
 40
0.0053520395175987
 50
300.7285898424718198
 51
335.720867937200012
  0
ARC
  5
24269
  8
0
 10
4535.2022268559103395
 20
303.1732885699100279
 30
0.0
 40
0.0074021555018126
 50
2.2021366931711128
 51
2.2897541544371269
  0
ARC
  5
2426A
  8
0
 10
4535.2022268559103395
 20
303.1732885699100279
 30
0.0
 40
0.0074021555018126
 50
336.3267737603396199
 51
357.7978628157738967
  0
ARC
  5
2426B
  8
0
 10
4535.0537055094428069
 20
303.0032730915646084
 30
0.0
 40
0.0721752654501063
 50
209.3550929059090038
 51
254.8214387455282122
  0
ARC
  5
2426C
  8
0
 10
4535.0929165193292647
 20
303.0303268770928184
 30
0.0
 40
0.1196932050789075
 50
204.9329094152199104
 51
211.4416707583725952
  0
ARC
  5
2426D
  8
0
 10
4535.0047310557383753
 20
302.9853007668734222
 30
0.0
 40
0.0210648323500599
 50
144.9357835369031022
 51
194.9419606642877056
  0
ARC
  5
2426E
  8
0
 10
4535.0628871382332363
 20
302.9447411229679119
 30
0.0
 40
0.0919676133907435
 50
122.1657163745320958
 51
145.0678036128466033
  0
ARC
  5
2426F
  8
0
 10
4535.4058880332622721
 20
302.4019483721511961
 30
0.0
 40
0.7340527658563233
 50
110.9680282886290001
 51
122.274042364591395
  0
ARC
  5
24270
  8
0
 10
4535.0841717115981737
 20
303.2261265724167174
 30
0.0
 40
0.1507734855701272
 50
293.0519802907086842
 51
308.3940939399078047
  0
ARC
  5
24271
  8
0
 10
4535.1359635853486907
 20
303.1625732152007231
 30
0.0
 40
0.068805981574116
 50
307.4602658652495961
 51
341.1035561681517265
  0
ARC
  5
24272
  8
0
 10
4535.052768365441807
 20
303.1661763997150274
 30
0.0
 40
0.1505354130816468
 50
350.0979978716769097
 51
0.3236724157398579
  0
ARC
  5
24273
  8
0
 10
4535.1824341405535961
 20
303.2420149820597999
 30
0.0
 40
0.30838298811651
 50
251.5984574700665917
 51
261.3331226691464053
  0
ARC
  5
24274
  8
0
 10
4535.1067685808138776
 20
303.0217361376317058
 30
0.0
 40
0.0755156852545492
 50
230.2867652231672082
 51
253.3135571288310928
  0
ARC
  5
24275
  8
0
 10
4535.0708739444189632
 20
302.9783485694867977
 30
0.0
 40
0.0192053116279385
 50
180.762218292948603
 51
229.957785135702693
  0
ARC
  5
24276
  8
0
 10
4535.1068396999553443
 20
302.947227907358922
 30
0.0
 40
0.0632164401237523
 50
123.4834932525808995
 51
150.7746354004192995
  0
ARC
  5
24277
  8
0
 10
4535.2403350145641525
 20
302.7635321910206017
 30
0.0
 40
0.2902480299586072
 50
113.0644981833723932
 51
125.457269903771703
  0
ARC
  5
24278
  8
0
 10
4534.6309214317234364
 20
304.2492623249759163
 30
0.0
 40
1.3156410108317309
 50
292.1342169706292111
 51
296.7560658981597044
  0
ARC
  5
24279
  8
0
 10
4535.1745769129747714
 20
303.1573579601139841
 30
0.0
 40
0.0960906943068982
 50
300.4081079208958158
 51
356.2273779728300838
  0
ARC
  5
2427A
  8
0
 10
4535.1300393069832353
 20
303.5486329723294148
 30
0.0
 40
0.0681644922059714
 50
1.4699100299885111
 51
59.0920757579225011
  0
ARC
  5
2427B
  8
0
 10
4535.0785491790566084
 20
303.4812411343121994
 30
0.0
 40
0.1527342848425675
 50
55.5028020626104919
 51
65.5745862727443551
  0
ARC
  5
2427C
  8
0
 10
4535.4667754880365464
 20
304.4393599921659757
 30
0.0
 40
0.8812037049900386
 50
239.1829927445913029
 51
248.3526708039696871
  0
ARC
  5
2427D
  8
0
 10
4535.0778067467617802
 20
303.7879295538302244
 30
0.0
 40
0.1224827108506397
 50
220.2770392806357904
 51
239.3341014716934012
  0
ARC
  5
2427E
  8
0
 10
4535.0028400765277183
 20
303.7256920270954197
 30
0.0
 40
0.0250722480368759
 50
176.2611028530149042
 51
222.5218016242201884
  0
ARC
  5
2427F
  8
0
 10
4535.0063326249755846
 20
303.7202227804738186
 30
0.0
 40
0.0293831831088315
 50
114.0304162516979005
 51
166.0085075166562945
  0
ARC
  5
24280
  8
0
 10
4535.4093985365643675
 20
304.3485217127898181
 30
0.0
 40
0.7600516667624233
 50
240.050761201612886
 51
249.5438307331743886
  0
ARC
  5
24281
  8
0
 10
4535.1040489813349268
 20
303.8192600793925067
 30
0.0
 40
0.1490233538956022
 50
225.6939978845302051
 51
240.1857106471105112
  0
ARC
  5
24282
  8
0
 10
4535.028344906001621
 20
303.7420067954004139
 30
0.0
 40
0.0408613972290712
 50
203.3757977908101111
 51
225.994983215848805
  0
ARC
  5
24283
  8
0
 10
4535.0121795713903339
 20
303.7340875621491136
 30
0.0
 40
0.022896826541801
 50
159.0772117651349049
 51
201.2345935292171077
  0
ARC
  5
24284
  8
0
 10
4535.0590869605139233
 20
303.695081651387909
 30
0.0
 40
0.0830080067841438
 50
107.0807608243385971
 51
145.3605716313026051
  0
ARC
  5
24285
  8
0
 10
4535.2778842754396464
 20
302.8203769350711809
 30
0.0
 40
0.9845556147787975
 50
102.5780499016956071
 51
104.2996462273010962
  0
ARC
  5
24286
  8
0
 10
4535.1440452853457828
 20
303.560480543434096
 30
0.0
 40
0.0655782985727571
 50
0.0625808284394798
 51
46.7973005453686497
  0
ARC
  5
24287
  8
0
 10
4535.0906726764333143
 20
303.500752214154204
 30
0.0
 40
0.1456678555836879
 50
47.5775649656536075
 51
68.6236443359751149
  0
ARC
  5
24288
  8
0
 10
4535.0834034470362894
 20
303.7141775853240233
 30
0.0
 40
0.0454925792358197
 50
113.6629503831686065
 51
138.2529090180750018
  0
ARC
  5
24289
  8
0
 10
4535.0627136346656698
 20
303.7328392259586849
 30
0.0
 40
0.0176309688850687
 50
138.7309571209027865
 51
181.6241509633549072
  0
ARC
  5
2428A
  8
0
 10
4535.1034715024788966
 20
303.7660386517026154
 30
0.0
 40
0.0674096520563041
 50
209.9944196246484864
 51
240.2100599154591976
  0
ARC
  5
2428B
  8
0
 10
4535.465696298054354
 20
304.3656993639955886
 30
0.0
 40
0.7679637648530995
 50
238.9839148610396933
 51
249.3034615625325898
  0
ARC
  5
2428C
  8
0
 10
4535.1683394971059897
 20
303.5519169460175135
 30
0.0
 40
0.0988445384517257
 50
4.3825165903214716
 51
74.7829624657116057
  0
ARC
  5
2428D
  8
0
 10
4541.1388665105878317
 20
304.2791300829380248
 30
0.0
 40
6.0955976008559292
 50
179.6647017117203973
 51
184.6368425371844921
  0
ARC
  5
2428E
  8
0
 10
4534.92889402390756
 20
301.4221951419136758
 30
0.0
 40
2.0231603889452932
 50
74.3738555817279234
 51
80.3469480709322568
  0
ARC
  5
2428F
  8
0
 10
4534.7776129184412639
 20
301.8667437798907827
 30
0.0
 40
1.097435642986937
 50
73.3755794240952071
 51
76.446096639094165
  0
LINE
  5
24290
  8
0
 10
4537.8662467204612767
 20
303.8630282486113856
 30
0.0
 11
4537.8662467204612767
 21
302.8503593409117229
 31
0.0
  0
LINE
  5
24291
  8
0
 10
4537.8662467204612767
 20
303.8627408701191257
 30
0.0
 11
4537.9686342374607193
 21
303.8625036237114045
 31
0.0
  0
ARC
  5
24292
  8
0
 10
4537.9467996440416755
 20
298.7712748509442804
 30
0.0
 40
5.0912755932203471
 50
75.2115578136375831
 51
89.7542788909267983
  0
ARC
  5
24293
  8
0
 10
4538.7957434275685955
 20
302.0121418801081177
 30
0.0
 40
1.7410809045181139
 50
17.1631115248186283
 51
75.0005758703072445
  0
ARC
  5
24294
  8
0
 10
4537.0420832744875952
 20
301.5313140713827238
 30
0.0
 40
3.5590108140551791
 50
0.1389872851410254
 51
16.2281018448940593
  0
LINE
  5
24295
  8
0
 10
4540.6010836171608389
 20
301.5399474606114154
 30
0.0
 11
4540.600950030660897
 21
301.464522956611404
 31
0.0
  0
LINE
  5
24296
  8
0
 10
4540.5891393575648181
 20
301.4528154836114027
 30
0.0
 11
4538.8414407195168678
 21
301.4528154836114027
 31
0.0
  0
LINE
  5
24297
  8
0
 10
4540.4892344979607515
 20
301.4213194206113826
 30
0.0
 11
4538.9145428176616406
 21
301.4213194206113826
 31
0.0
  0
ARC
  5
24298
  8
0
 10
4540.5891090432951387
 20
301.4646571930429104
 30
0.0
 40
0.0118417482330453
 50
270.1466744054778246
 51
359.3504890020113862
  0
LINE
  5
24299
  8
0
 10
4540.4892344979607515
 20
301.4528154836114027
 30
0.0
 11
4540.4892344979607515
 21
301.4213194206113826
 31
0.0
  0
LINE
  5
2429A
  8
0
 10
4538.9145428176616406
 20
301.4528154836114027
 30
0.0
 11
4538.9145428176616406
 21
301.4213194206113826
 31
0.0
  0
ARC
  5
2429B
  8
0
 10
4538.84144865953931
 20
301.4646264853681146
 30
0.0
 40
0.0118110044255668
 50
180.0594043103116064
 51
270.0385174538466799
  0
ARC
  5
2429C
  8
0
 10
4535.2264032783350558
 20
301.5613726775351893
 30
0.0
 40
3.604533286714271
 50
358.4617936114073018
 51
6.6719288561250458
  0
ARC
  5
2429D
  8
0
 10
4537.4998806219136895
 20
301.8339029456448088
 30
0.0
 40
1.3148052185162109
 50
6.3868178120145762
 51
27.0550614069582487
  0
ARC
  5
2429E
  8
0
 10
4538.010332734667827
 20
302.0821679513308027
 30
0.0
 40
0.7473716251674443
 50
27.9045235313147018
 51
82.5736752531642964
  0
ARC
  5
2429F
  8
0
 10
4537.9048416794666991
 20
301.5379737077677191
 30
0.0
 40
1.3010873139092769
 50
81.0644276693292909
 51
91.169974510266087
  0
ARC
  5
242A0
  8
0
 10
4537.8780904843060853
 20
302.8506353067842838
 30
0.0
 40
0.011846978482736
 50
181.334780014590109
 51
270.8945575302390125
  0
ARC
  5
242A1
  8
0
 10
4537.8544009517972881
 20
302.8549396724027929
 30
0.0
 40
0.0118488443034032
 50
270.166470448987809
 51
358.6945005089388019
  0
ARC
  5
242A2
  8
0
 10
4538.0448037404821662
 20
305.7823869680889857
 30
0.0
 40
2.6159438125474179
 50
266.0861068903919886
 51
267.8932301607654836
  0
ARC
  5
242A3
  8
0
 10
4537.7588066380585587
 20
296.7719187521431081
 30
0.0
 40
6.3991089216447392
 50
86.5159518090629831
 51
88.3000643965397529
  0
ARC
  5
242A4
  8
0
 10
4537.9561782392693203
 20
300.2213697779956192
 30
0.0
 40
2.944065964528539
 50
79.7583252782382175
 51
86.2703757766218899
  0
ARC
  5
242A5
  8
0
 10
4538.1291878900237862
 20
301.1707951257208151
 30
0.0
 40
1.9790075593477681
 50
72.6235760427314716
 51
79.8001505016125634
  0
ARC
  5
242A6
  8
0
 10
4538.4167390107531901
 20
302.0105656557968814
 30
0.0
 40
1.0919405487782341
 50
49.3997195203649682
 51
73.8636980947941595
  0
ARC
  5
242A7
  8
0
 10
4538.5072510007603341
 20
302.1638857300811196
 30
0.0
 40
0.9171521953307921
 50
16.4567049047275411
 51
47.4593335767430418
  0
ARC
  5
242A8
  8
0
 10
4537.5130595932596407
 20
301.8660779534719154
 30
0.0
 40
1.9549858333220509
 50
358.0479505129960103
 51
16.5728385614697586
  0
ARC
  5
242A9
  8
0
 10
4537.4354085042959923
 20
301.8531161142096835
 30
0.0
 40
2.0322102113257441
 50
349.0371793209396856
 51
358.4877602956474902
  0
ARC
  5
242AA
  8
0
 10
4539.4421698294436283
 20
301.4646268138001233
 30
0.0
 40
0.0118113301921357
 50
170.1533850953331068
 51
269.998603022355212
  0
ARC
  5
242AB
  8
0
 10
4537.8780461257811112
 20
300.5266967987059274
 30
0.0
 40
2.7789772518002112
 50
88.1373657363855187
 51
90.2432765945140289
  0
ARC
  5
242AC
  8
0
 10
4537.89015390082659
 20
299.1663037289894191
 30
0.0
 40
4.1386411925104181
 50
81.047377611419563
 51
88.9170723487740844
  0
ARC
  5
242AD
  8
0
 10
4538.2341934643000059
 20
301.2626906700011773
 30
0.0
 40
2.0143011413398941
 50
67.1150303306236253
 51
81.4346052948360892
  0
ARC
  5
242AE
  8
0
 10
4538.6695859158080566
 20
302.248214123688399
 30
0.0
 40
0.9372047017819644
 50
10.0582880430350396
 51
68.2075129355983876
  0
ARC
  5
242AF
  8
0
 10
4537.040821192272233
 20
301.9114338659844066
 30
0.0
 40
2.6001822803600891
 50
359.9309882581476927
 51
11.0970989280299506
  0
ARC
  5
242B0
  8
0
 10
4513.7396710960001656
 20
301.5888463760782088
 30
0.0
 40
25.9033004281147399
 50
359.6991104717412782
 51
0.7066251146655089
  0
ENDSEC
  0
EOF
