  0
SECTION
  2
HEADER
  9
$ACADVER
  1
AC1009
  9
$INSBASE
 10
4509.9596739322669237
 20
308.3459894156181917
 30
0.0
  9
$EXTMIN
 10
4505.5887802465849745
 20
296.4156789561761229
 30
-0.0000000349181948
  9
$EXTMAX
 10
4514.199321043855889
 20
309.2503859221357061
 30
0.0000000814935746
  9
$LIMMIN
 10
0.0
 20
0.0
  9
$LIMMAX
 10
11.6929133858000007
 20
8.2677165353999982
  9
$ORTHOMODE
 70
     0
  9
$REGENMODE
 70
     1
  9
$FILLMODE
 70
     1
  9
$QTEXTMODE
 70
     0
  9
$MIRRTEXT
 70
     0
  9
$DRAGMODE
 70
     2
  9
$LTSCALE
 40
0.6431102362
  9
$OSMODE
 70
  4095
  9
$ATTMODE
 70
     1
  9
$TEXTSIZE
 40
0.2
  9
$TRACEWID
 40
0.05
  9
$TEXTSTYLE
  7
STANDARD
  9
$CLAYER
  8
0
  9
$CELTYPE
  6
BYLAYER
  9
$CECOLOR
 62
   256
  9
$DIMSCALE
 40
1.0
  9
$DIMASZ
 40
0.1875
  9
$DIMEXO
 40
0.0625
  9
$DIMDLI
 40
0.4443307087
  9
$DIMRND
 40
0.0
  9
$DIMDLE
 40
0.0
  9
$DIMEXE
 40
0.125
  9
$DIMTP
 40
0.01
  9
$DIMTM
 40
0.01
  9
$DIMTXT
 40
2.0
  9
$DIMCEN
 40
0.1052362205
  9
$DIMTSZ
 40
0.0
  9
$DIMTOL
 70
     1
  9
$DIMLIM
 70
     0
  9
$DIMTIH
 70
     1
  9
$DIMTOH
 70
     1
  9
$DIMSE1
 70
     0
  9
$DIMSE2
 70
     0
  9
$DIMTAD
 70
     0
  9
$DIMZIN
 70
     0
  9
$DIMBLK
  1

  9
$DIMASO
 70
     1
  9
$DIMSHO
 70
     1
  9
$DIMPOST
  1
\X
  9
$DIMAPOST
  1

  9
$DIMALT
 70
     1
  9
$DIMALTD
 70
     2
  9
$DIMALTF
 40
25.3999999999999986
  9
$DIMLFAC
 40
1.0
  9
$DIMTOFL
 70
     0
  9
$DIMTVP
 40
0.0
  9
$DIMTIX
 70
     0
  9
$DIMSOXD
 70
     0
  9
$DIMSAH
 70
     0
  9
$DIMBLK1
  1

  9
$DIMBLK2
  1

  9
$DIMSTYLE
  2
STANDARD
  9
$DIMCLRD
 70
     0
  9
$DIMCLRE
 70
     0
  9
$DIMCLRT
 70
     0
  9
$DIMTFAC
 40
1.0
  9
$DIMGAP
 40
0.09
  9
$LUNITS
 70
     2
  9
$LUPREC
 70
     4
  9
$SKETCHINC
 40
0.1
  9
$FILLETRAD
 40
0.0
  9
$AUNITS
 70
     0
  9
$AUPREC
 70
     0
  9
$MENU
  1
.
  9
$ELEVATION
 40
0.0
  9
$PELEVATION
 40
0.0
  9
$THICKNESS
 40
0.0
  9
$LIMCHECK
 70
     0
  9
$BLIPMODE
 70
     0
  9
$CHAMFERA
 40
0.0
  9
$CHAMFERB
 40
0.0
  9
$SKPOLY
 70
     0
  9
$TDCREATE
 40
2458060.468368056230247
  9
$TDUPDATE
 40
2459384.4636342590674758
  9
$TDINDWG
 40
0.5522177083000001
  9
$TDUSRTIMER
 40
0.5522177083000001
  9
$USRTIMER
 70
     1
  9
$ANGBASE
 50
0.0
  9
$ANGDIR
 70
     0
  9
$PDMODE
 70
     0
  9
$PDSIZE
 40
0.3125
  9
$PLINEWID
 40
0.0
  9
$COORDS
 70
     1
  9
$SPLFRAME
 70
     0
  9
$SPLINETYPE
 70
     6
  9
$SPLINESEGS
 70
     8
  9
$ATTDIA
 70
     1
  9
$ATTREQ
 70
     1
  9
$HANDLING
 70
     1
  9
$HANDSEED
  5
23E79
  9
$SURFTAB1
 70
     6
  9
$SURFTAB2
 70
     6
  9
$SURFTYPE
 70
     6
  9
$SURFU
 70
     6
  9
$SURFV
 70
     6
  9
$UCSNAME
  2

  9
$UCSORG
 10
0.0
 20
0.0
 30
0.0
  9
$UCSXDIR
 10
1.0
 20
0.0
 30
0.0
  9
$UCSYDIR
 10
0.0
 20
1.0
 30
0.0
  9
$PUCSNAME
  2

  9
$PUCSORG
 10
0.0
 20
0.0
 30
0.0
  9
$PUCSXDIR
 10
1.0
 20
0.0
 30
0.0
  9
$PUCSYDIR
 10
0.0
 20
1.0
 30
0.0
  9
$USERI1
 70
     0
  9
$USERI2
 70
     0
  9
$USERI3
 70
     0
  9
$USERI4
 70
     0
  9
$USERI5
 70
     0
  9
$USERR1
 40
0.0
  9
$USERR2
 40
0.0
  9
$USERR3
 40
0.0
  9
$USERR4
 40
0.0
  9
$USERR5
 40
0.0
  9
$WORLDVIEW
 70
     1
  9
$SHADEDGE
 70
     3
  9
$SHADEDIF
 70
    70
  9
$TILEMODE
 70
     1
  9
$MAXACTVP
 70
    64
  9
$PLIMCHECK
 70
     0
  9
$PEXTMIN
 10
1.0000000000000000E+20
 20
1.0000000000000000E+20
 30
1.0000000000000000E+20
  9
$PEXTMAX
 10
-1.0000000000000000E+20
 20
-1.0000000000000000E+20
 30
-1.0000000000000000E+20
  9
$PLIMMIN
 10
0.0
 20
0.0
  9
$PLIMMAX
 10
12.0
 20
9.0
  9
$UNITMODE
 70
     0
  9
$VISRETAIN
 70
     1
  9
$PLINEGEN
 70
     0
  9
$PSLTSCALE
 70
     1
  0
ENDSEC
  0
SECTION
  2
TABLES
  0
TABLE
  2
VPORT
 70
     1
  0
VPORT
  2
*ACTIVE
 70
     0
 10
0.0
 20
0.0
 11
1.0
 21
1.0
 12
598.5286941999083865
 22
170.2534273366167952
 13
0.0
 23
0.0
 14
1.0
 24
1.0
 15
0.0
 25
0.0
 16
0.0
 26
0.0
 36
60.4960186965801583
 17
3911.3653564453120453
 27
132.5796051025390057
 37
0.0
 40
12.9401977081456003
 41
2.6159122085048012
 42
50.0
 43
0.0
 44
0.0
 50
0.0
 51
0.0
 71
     0
 72
   100
 73
     1
 74
     1
 75
     0
 76
     0
 77
     0
 78
     0
  0
ENDTAB
  0
TABLE
  2
LTYPE
 70
     2
  0
LTYPE
  2
CONTINUOUS
 70
     0
  3
Solid line
 72
    65
 73
     0
 40
0.0
  0
LTYPE
  2
PHANTOM2
 70
     0
  3
___ _ _ ___ _ _ ___ _ _ ___ _ _
 72
    65
 73
     6
 40
1.25
 49
0.625
 49
-0.125
 49
0.125
 49
-0.125
 49
0.125
 49
-0.125
  0
ENDTAB
  0
TABLE
  2
LAYER
 70
     2
  0
LAYER
  2
0
 70
     0
 62
   255
  6
CONTINUOUS
  0
LAYER
  2
DEFPOINTS
 70
     0
 62
     7
  6
CONTINUOUS
  0
ENDTAB
  0
TABLE
  2
STYLE
 70
     1
  0
STYLE
  2
STANDARD
 70
     0
 40
0.0
 41
0.8
 50
0.0
 71
     0
 42
0.2
  3
txt
  4

  0
ENDTAB
  0
TABLE
  2
VIEW
 70
     0
  0
ENDTAB
  0
TABLE
  2
UCS
 70
     0
  0
ENDTAB
  0
TABLE
  2
APPID
 70
    11
  0
APPID
  2
ACAD
 70
     0
  0
APPID
  2
ACAD_MLEADERVER
 70
     0
  0
APPID
  2
ACAD_EXEMPT_FROM_CAD_STANDARDS
 70
     0
  0
APPID
  2
ACAD_NAV_VCDISPLAY
 70
     0
  0
APPID
  2
ACAECLAYERSTANDARD
 70
     0
  0
APPID
  2
ACCMTRANSPARENCY
 70
     0
  0
APPID
  2
ACAD_DSTYLE_DIMJAG
 70
     0
  0
APPID
  2
ACAD_DSTYLE_DIMTALN
 70
     0
  0
APPID
  2
ACDBATTR
 70
     0
  0
APPID
  2
ACADANNOTATIVE
 70
     0
  0
APPID
  2
DCO15
 70
     0
  0
ENDTAB
  0
TABLE
  2
DIMSTYLE
 70
     1
  0
DIMSTYLE
  2
STANDARD
 70
     0
  3

  4

  5

  6

  7

 40
1.0
 41
0.1875
 42
0.0625
 43
0.38
 44
0.125
 45
0.0
 46
0.0
 47
0.01
 48
0.01
140
0.15625
141
0.09
142
0.0
143
25.3999999999999986
144
1.0
145
0.0
146
1.0
147
0.09
 71
     1
 72
     0
 73
     1
 74
     1
 75
     0
 76
     0
 77
     0
 78
     4
170
     0
171
     2
172
     0
173
     0
174
     0
175
     0
176
     0
177
     0
178
     0
  0
ENDTAB
  0
ENDSEC
  0
SECTION
  2
BLOCKS
  0
BLOCK
  8
0
  2
$MODEL_SPACE
 70
     0
 10
0.0
 20
0.0
 30
0.0
  3
$MODEL_SPACE
  1

  0
ENDBLK
  5
21
  8
0
  0
BLOCK
 67
     1
  8
0
  2
$PAPER_SPACE
 70
     0
 10
0.0
 20
0.0
 30
0.0
  3
$PAPER_SPACE
  1

  0
ENDBLK
  5
1D
 67
     1
  8
0
  0
ENDSEC
  0
SECTION
  2
ENTITIES
  0
ATTDEF
  5
20106
  8
DEFPOINTS
 10
4509.9596768965411684
 20
308.3493229092733827
 30
0.0
 40
0.001
  1
K-37266X
  3

  2
MODELNUMBER
 70
     0
1001
ACDBATTR
1070
     0
1070
     1
  0
ATTDEF
  5
20107
  8
DEFPOINTS
 10
4509.9596734349643157
 20
308.3476560688943096
 30
0.0
 40
0.001
  1
AIRFOIL 
  3

  2
TRADENAME
 70
     0
1001
ACDBATTR
1070
     0
1070
     1
  0
ATTDEF
  5
20108
  8
DEFPOINTS
 10
4509.959675497326316
 20
308.3459895759401093
 30
0.0
 40
0.001
  1
 BATH AND SHOWER FAUCET 
  3

  2
PRODUCT
 70
     0
1001
ACDBATTR
1070
     0
1070
     1
  0
LINE
  5
23A31
  8
0
 10
4513.8077709683693683
 20
303.8539894881786267
 30
0.0
 11
4513.9692189291690738
 21
303.8539894881786267
 31
0.0
  0
LINE
  5
23A32
  8
0
 10
4513.4379936404693581
 20
296.726683768978603
 30
0.0
 11
4513.4379938223237332
 21
302.2873456006345236
 31
0.0
  0
LINE
  5
23A33
  8
0
 10
4514.0370306333679764
 20
304.5823359448785936
 30
0.0
 11
4513.8094392567691102
 21
304.5823359448785936
 31
0.0
  0
LINE
  5
23A34
  8
0
 10
4514.0312369889688853
 20
304.569853922378627
 30
0.0
 11
4514.0287512734694246
 21
304.5348323856784987
 31
0.0
  0
LINE
  5
23A35
  8
0
 10
4514.0463749223690684
 20
304.5342485108786263
 30
0.0
 11
4514.0488915557689324
 21
304.5697056531785734
 31
0.0
  0
LINE
  5
23A36
  8
0
 10
4513.9810130876694529
 20
303.864280718178577
 30
0.0
 11
4513.9855237077690617
 21
303.8997585666785994
 31
0.0
  0
ARC
  5
23A37
  8
0
 10
4505.2112005197677718
 20
305.0159662537785721
 30
0.0
 40
8.8263422901999995
 50
352.5044334586921764
 51
352.7336632156905125
  0
ARC
  5
23A38
  8
0
 10
4513.1314680172690714
 20
304.0029685841785749
 30
0.0
 40
0.8033603695
 50
53.432505857787902
 51
56.9333202531057267
  0
ARC
  5
23A39
  8
0
 10
4513.8079438774993832
 20
304.9160430035233844
 30
0.0
 40
0.3945457243605732
 50
245.2386982077406969
 51
270.2165014112013068
  0
ARC
  5
23A3A
  8
0
 10
4513.8059990076690156
 20
303.5210670069786261
 30
0.0
 40
0.3934807540999999
 50
89.7428882683246769
 51
109.2343438516386982
  0
ARC
  5
23A3B
  8
0
 10
4513.8077647286390857
 20
303.5193438183570152
 30
0.0
 40
0.3346456698797697
 50
89.998931675391745
 51
126.4541823016977986
  0
ARC
  5
23A3C
  8
0
 10
4513.8094340365687458
 20
304.9169816140786224
 30
0.0
 40
0.3346456693
 50
233.4374208584856945
 51
270.0008931932990208
  0
ARC
  5
23A3D
  8
0
 10
4513.9691715078579364
 20
303.8659477370248965
 30
0.0
 40
0.0119583428722391
 50
270.2272094151429087
 51
351.9867465939042859
  0
ARC
  5
23A3E
  8
0
 10
4513.946179899487106
 20
303.8421544309280193
 30
0.0
 40
0.0119115209275347
 50
352.6964147845529283
 51
83.504475813363868
  0
ARC
  5
23A3F
  8
0
 10
4514.0189832170690352
 20
304.5941460239786238
 30
0.0
 40
0.0118109457
 50
270.6940764441947067
 51
356.1224567847995104
  0
ARC
  5
23A40
  8
0
 10
4509.6241359633158936
 20
371.9698794767501795
 30
0.0
 40
70.1835241291561545
 50
268.9555264089905791
 51
270.2739244425013112
  0
ARC
  5
23A41
  8
0
 10
4508.514279017883382
 20
311.6423342699117143
 30
0.0
 40
9.8457765626916949
 50
264.3397117073863001
 51
269.0136747233501069
  0
ARC
  5
23A42
  8
0
 10
4507.6968442565939768
 20
304.0457239513099807
 30
0.0
 40
2.206516417309301
 50
247.8500517601179922
 51
266.0068745746236232
  0
ARC
  5
23A43
  8
0
 10
4507.3058084897093067
 20
302.9952817427866876
 30
0.0
 40
1.086691638580771
 50
209.0013468452478946
 51
246.0638252135904054
  0
ARC
  5
23A44
  8
0
 10
4509.2237997209476816
 20
303.9948102986267031
 30
0.0
 40
3.2492618374284459
 50
187.8485065971356107
 51
208.0190426838254041
  0
ARC
  5
23A45
  8
0
 10
4520.406809450707442
 20
305.6806399264860943
 30
0.0
 40
14.5584248160704899
 50
181.2001516073347887
 51
188.4111053920186123
  0
ARC
  5
23A46
  8
0
 10
4552.0765198122589936
 20
306.5797162989675826
 30
0.0
 40
46.240618920973013
 50
180.1062413908022108
 51
181.4920241059608088
  0
ARC
  5
23A47
  8
0
 10
4510.2952119012206822
 20
371.9698794767501795
 30
0.0
 40
70.1835241291561545
 50
269.7260755574986888
 51
271.0444735910093073
  0
ARC
  5
23A48
  8
0
 10
4511.4050688466550127
 20
311.6423342699117143
 30
0.0
 40
9.8457765626916949
 50
270.9863252766498931
 51
275.6602882926136999
  0
ARC
  5
23A49
  8
0
 10
4512.222503607944418
 20
304.0457239513099807
 30
0.0
 40
2.206516417309301
 50
273.9931254253764905
 51
292.1499482398818941
  0
ARC
  5
23A4A
  8
0
 10
4512.6135393748281786
 20
302.9952817427866876
 30
0.0
 40
1.086691638580771
 50
293.9361747864095946
 51
330.9986531547519917
  0
ARC
  5
23A4B
  8
0
 10
4510.6955481435898037
 20
303.9948102986267031
 30
0.0
 40
3.2492618374284459
 50
331.9809573161746243
 51
352.1514934028643893
  0
ARC
  5
23A4C
  8
0
 10
4522.81232165286292
 20
302.3585560797938001
 30
0.0
 40
8.9775095464641907
 50
170.4976211509292909
 51
172.3663849793113911
  0
ARC
  5
23A4D
  8
0
 10
4498.8441893121971589
 20
305.7036624198133268
 30
0.0
 40
15.2271121791595601
 50
355.8184534699936989
 51
358.7659128203487739
  0
ARC
  5
23A4E
  8
0
 10
4467.842828062265653
 20
306.5797162987656179
 30
0.0
 40
46.2406189109832795
 50
358.5079758939676253
 51
359.8937586094224912
  0
LINE
  5
23A4F
  8
0
 10
4512.4350679573835805
 20
304.0432174307998139
 30
0.0
 11
4512.434838822270649
 21
304.0695157283880121
 31
0.0
  0
LINE
  5
23A50
  8
0
 10
4512.6112326544844109
 20
303.8190824541998154
 30
0.0
 11
4512.6078412110236968
 21
303.9063051664069803
 31
0.0
  0
LINE
  5
23A51
  8
0
 10
4512.6145263480848371
 20
303.8276780983998151
 30
0.0
 11
4512.6111874327680198
 21
303.9139231033677788
 31
0.0
  0
LINE
  5
23A52
  8
0
 10
4512.6191486520838225
 20
303.8368453005998049
 30
0.0
 11
4512.6158619898287725
 21
303.9220279640230729
 31
0.0
  0
LINE
  5
23A53
  8
0
 10
4512.6246900748838016
 20
303.8468755971998121
 30
0.0
 11
4512.6214572177777882
 21
303.9309376560440228
 31
0.0
  0
LINE
  5
23A54
  8
0
 10
4512.679793191783574
 20
303.9474600236998185
 30
0.0
 11
4512.6768202351377113
 21
304.0239198983038023
 31
0.0
  0
LINE
  5
23A55
  8
0
 10
4512.6562085389841741
 20
303.9025110010998105
 30
0.0
 11
4512.6531536165966827
 21
303.9816875056142749
 31
0.0
  0
LINE
  5
23A56
  8
0
 10
4512.6668062820835985
 20
303.9230181650999043
 30
0.0
 11
4512.6637599804544152
 21
304.0017048859608053
 31
0.0
  0
LINE
  5
23A57
  8
0
 10
4512.6311249235841387
 20
303.8580686213998092
 30
0.0
 11
4512.6279323200142244
 21
303.9411599603661216
 31
0.0
  0
LINE
  5
23A58
  8
0
 10
4512.6384981767514546
 20
303.8707907885204236
 30
0.0
 11
4512.6353432960268037
 21
303.9529003436015273
 31
0.0
  0
LINE
  5
23A59
  8
0
 10
4512.6468237655835765
 20
303.8853964963997782
 30
0.0
 11
4512.6437064325900792
 21
303.9663699963809904
 31
0.0
  0
LINE
  5
23A5A
  8
0
 10
4512.6043263983838187
 20
303.9514839740998013
 30
0.0
 11
4512.6359287682798822
 21
303.9376627259421753
 31
0.0
  0
LINE
  5
23A5B
  8
0
 10
4512.6024751205832217
 20
303.9399520028998154
 30
0.0
 11
4512.6284527333709775
 21
303.9276155782275168
 31
0.0
  0
LINE
  5
23A5C
  8
0
 10
4512.5885593287848678
 20
303.9261013477997722
 30
0.0
 11
4512.5923607271843139
 21
303.9240678050998099
 31
0.0
  0
LINE
  5
23A5D
  8
0
 10
4512.5923607271843139
 20
303.9240678050998099
 30
0.0
 11
4512.6162805956828379
 21
303.9111786710814727
 31
0.0
  0
LINE
  5
23A5E
  8
0
 10
4512.7866114251837644
 20
303.9605840268998236
 30
0.0
 11
4512.781674116564318
 21
304.0305129659091108
 31
0.0
  0
LINE
  5
23A5F
  8
0
 10
4512.8982201414846713
 20
303.7336309597998252
 30
0.0
 11
4512.8920796652982972
 21
303.7970904607138891
 31
0.0
  0
LINE
  5
23A60
  8
0
 10
4512.8987597500836273
 20
303.7458714661997874
 30
0.0
 11
4512.8926178318297389
 21
303.8094580202013049
 31
0.0
  0
LINE
  5
23A61
  8
0
 10
4512.9001974254842935
 20
303.7588538901998163
 30
0.0
 11
4512.8940070515091065
 21
303.8230301087800171
 31
0.0
  0
LINE
  5
23A62
  8
0
 10
4512.9025434083841901
 20
303.7731347160998894
 30
0.0
 11
4512.8963007095107969
 21
303.837911632656926
 31
0.0
  0
LINE
  5
23A63
  8
0
 10
4512.9058220142851496
 20
303.7887003403998278
 30
0.0
 11
4512.8995431145403927
 21
303.8539046088404234
 31
0.0
  0
LINE
  5
23A64
  8
0
 10
4512.9100253265842184
 20
303.8060637863998181
 30
0.0
 11
4512.9036841620827545
 21
303.8719146543282932
 31
0.0
  0
LINE
  5
23A65
  8
0
 10
4512.769093767983577
 20
303.834749680299808
 30
0.0
 11
4512.7697922813986224
 21
303.8380925770891849
 31
0.0
  0
LINE
  5
23A66
  8
0
 10
4512.7754954666843332
 20
303.8459454881997885
 30
0.0
 11
4512.7764284761969975
 21
303.850411404008014
 31
0.0
  0
LINE
  5
23A67
  8
0
 10
4512.7828692059847526
 20
303.8586550003997786
 30
0.0
 11
4512.7841100011992239
 21
303.864594153391522
 31
0.0
  0
LINE
  5
23A68
  8
0
 10
4512.7636708651843946
 20
303.8247094312998229
 30
0.0
 11
4512.7642388334397765
 21
303.8274258711958851
 31
0.0
  0
LINE
  5
23A69
  8
0
 10
4512.7912653635848983
 20
303.8732673964997844
 30
0.0
 11
4512.7929776632836365
 21
303.8814603588998011
 31
0.0
  0
LINE
  5
23A6A
  8
0
 10
4512.7591716802853625
 20
303.8155318904998126
 30
0.0
 11
4512.7596900052012643
 21
303.8180092868381053
 31
0.0
  0
LINE
  5
23A6B
  8
0
 10
4512.7551744080838034
 20
303.8069953273998181
 30
0.0
 11
4512.7556388599059574
 21
303.8092133717673846
 31
0.0
  0
LINE
  5
23A6C
  8
0
 10
4512.9383318426853293
 20
303.9041593692998049
 30
0.0
 11
4512.932922394958041
 21
303.9600639673777778
 31
0.0
  0
LINE
  5
23A6D
  8
0
 10
4512.9214105641840433
 20
303.8478147659997717
 30
0.0
 11
4512.9150626501177612
 21
303.9136242184815728
 31
0.0
  0
LINE
  5
23A6E
  8
0
 10
4512.9288615653840679
 20
303.8737880214998199
 30
0.0
 11
4512.9223631870327154
 21
303.941064964403779
 31
0.0
  0
LINE
  5
23A6F
  8
0
 10
4512.9152043346839491
 20
303.8255766891998064
 30
0.0
 11
4512.9088318441627052
 21
303.8917283687251256
 31
0.0
  0
LINE
  5
23A70
  8
0
 10
4512.8007307521847906
 20
303.8903751317997717
 30
0.0
 11
4512.8028858295210739
 21
303.9006822890320905
 31
0.0
  0
LINE
  5
23A71
  8
0
 10
4512.8114516141840795
 20
303.9108719571997881
 30
0.0
 11
4512.8145628051806852
 21
303.925742269359489
 31
0.0
  0
LINE
  5
23A72
  8
0
 10
4512.823734945383876
 20
303.9353728969998087
 30
0.0
 11
4512.8253129106842607
 21
303.9429086554998207
 31
0.0
  0
LINE
  5
23A73
  8
0
 10
4512.931668708784855
 20
303.9529818967998267
 30
0.0
 11
4512.9411034172226209
 21
304.0062785451032141
 31
0.0
  0
LINE
  5
23A74
  8
0
 10
4513.0572451885836927
 20
304.1390853648998132
 30
0.0
 11
4513.1215433544848565
 21
304.1387819908288748
 31
0.0
  0
LINE
  5
23A75
  8
0
 10
4512.9209341988844244
 20
304.1417687962998002
 30
0.0
 11
4513.0104836091841207
 21
304.1396315263997963
 31
0.0
  0
LINE
  5
23A76
  8
0
 10
4512.797602368884327
 20
304.1460260792998156
 30
0.0
 11
4512.9209341988844244
 21
304.1417687962998002
 31
0.0
  0
LINE
  5
23A77
  8
0
 10
4513.0491729504838077
 20
303.9377177954997933
 30
0.0
 11
4513.041546524415935
 21
303.9996764647402756
 31
0.0
  0
LINE
  5
23A78
  8
0
 10
4513.0502759696846624
 20
303.7849176804998024
 30
0.0
 11
4513.0520326009282144
 21
303.7966710337768745
 31
0.0
  0
LINE
  5
23A79
  8
0
 10
4513.0544792819846407
 20
303.8022811264997927
 30
0.0
 11
4513.056395402052658
 21
303.8151015952515763
 31
0.0
  0
LINE
  5
23A7A
  8
0
 10
4513.0596916505837726
 20
303.8217931556998224
 30
0.0
 11
4513.0619134464195668
 21
303.8366552622690051
 31
0.0
  0
LINE
  5
23A7B
  8
0
 10
4513.0448040133842369
 20
303.7550672333998136
 30
0.0
 11
4513.0467179235556614
 21
303.7678587710267948
 31
0.0
  0
LINE
  5
23A7C
  8
0
 10
4513.0470688697832884
 20
303.769350183699828
 30
0.0
 11
4513.0487582444811778
 21
303.7806476812144183
 31
0.0
  0
LINE
  5
23A7D
  8
0
 10
4513.0660171520848962
 20
303.8440281091998258
 30
0.0
 11
4513.0686916670356368
 21
303.8619031158335133
 31
0.0
  0
LINE
  5
23A7E
  8
0
 10
4513.0434902372853685
 20
303.7420815649998076
 30
0.0
 11
4513.0494809884548886
 21
303.7820846216549171
 31
0.0
  0
LINE
  5
23A7F
  8
0
 10
4513.0735920525848996
 20
303.869998120299897
 30
0.0
 11
4513.0767619175439904
 21
303.8911647957700097
 31
0.0
  0
LINE
  5
23A80
  8
0
 10
4513.0431102426837242
 20
303.7298368788999028
 30
0.0
 11
4513.0500479566726426
 21
303.7761098334738108
 31
0.0
  0
LINE
  5
23A81
  8
0
 10
4513.0832219438843822
 20
303.9003652884998132
 30
0.0
 11
4513.0867747169286304
 21
303.9240614668473768
 31
0.0
  0
LINE
  5
23A82
  8
0
 10
4513.1939126593842957
 20
303.9377177954997933
 30
0.0
 11
4513.2015503101411014
 21
303.9997676567458029
 31
0.0
  0
ARC
  5
23A83
  8
0
 10
4512.5195902573195781
 20
303.7703601489429843
 30
0.0
 40
0.1887625425945227
 50
63.953788176293898
 51
65.9256054126943241
  0
ARC
  5
23A84
  8
0
 10
4512.534254956884979
 20
303.8032986345997983
 30
0.0
 40
0.1527071061
 50
65.9078828745140726
 51
66.4782870558084653
  0
ARC
  5
23A85
  8
0
 10
4512.4473198780833627
 20
304.0435306840997782
 30
0.0
 40
0.0122697832
 50
191.8425231936890896
 51
197.011320346318513
  0
ARC
  5
23A86
  8
0
 10
4512.7866329121352464
 20
304.9651753382275956
 30
0.0
 40
1.151907436188645
 50
264.3901881028883736
 51
266.1617008467309233
  0
ARC
  5
23A87
  8
0
 10
4512.8233254597971609
 20
305.0260957621392208
 30
0.0
 40
1.14714812381783
 50
264.2337238118702771
 51
266.1709866829584143
  0
ARC
  5
23A88
  8
0
 10
4513.1214685407840079
 20
304.8862266603998137
 30
0.0
 40
1.1315260752
 50
266.2368395926017115
 51
273.770679101189728
  0
ARC
  5
23A89
  8
0
 10
4513.0983390360843259
 20
304.708936410199783
 30
0.0
 40
0.9523153858
 50
249.2119205787207932
 51
257.6001692796126008
  0
ARC
  5
23A8A
  8
0
 10
4512.8263119699076924
 20
305.389353071686628
 30
0.0
 40
1.5658683433748779
 50
263.1055630030652992
 51
267.3813186876737973
  0
ARC
  5
23A8B
  8
0
 10
4512.8545148950242947
 20
305.4925767630602991
 30
0.0
 40
1.6315019168504941
 50
264.5057541034644828
 51
265.888099470109978
  0
ARC
  5
23A8C
  8
0
 10
4513.014550101956047
 20
305.3056122195799276
 30
0.0
 40
1.5474638217948169
 50
267.8033500646486118
 51
269.8317571938324022
  0
LINE
  5
23A8D
  8
0
 10
4512.918315475014424
 20
303.7778670748340915
 30
0.0
 11
4513.0342654349842633
 21
303.7747314118997792
 31
0.0
  0
LINE
  5
23A8E
  8
0
 10
4513.0418774944846518
 20
303.7921477718998062
 30
0.0
 11
4513.0381595869848752
 21
303.7920995520997849
 31
0.0
  0
LINE
  5
23A8F
  8
0
 10
4513.0381595869848752
 20
303.7920995520997849
 30
0.0
 11
4512.9220885632403224
 21
303.7952620735684945
 31
0.0
  0
LINE
  5
23A90
  8
0
 10
4512.5512060927012499
 20
304.1483515892567766
 30
0.0
 11
4512.5462686834844135
 21
304.1472947136998073
 31
0.0
  0
LINE
  5
23A91
  8
0
 10
4512.6443630824587672
 20
303.9493133527126929
 30
0.0
 11
4512.6116375311848969
 21
303.9623276579998219
 31
0.0
  0
LINE
  5
23A92
  8
0
 10
4512.6115638675173614
 20
303.9041997010896239
 30
0.0
 11
4512.5834503689848134
 21
303.9201001732997725
 31
0.0
  0
LINE
  5
23A93
  8
0
 10
4512.5834503689848134
 20
303.9201001732997725
 30
0.0
 11
4512.5807000310842341
 21
303.9216209094997794
 31
0.0
  0
LINE
  5
23A94
  8
0
 10
4512.5807000310842341
 20
303.9216209094997794
 30
0.0
 11
4512.5792284909839509
 21
303.9224047914999005
 31
0.0
  0
LINE
  5
23A95
  8
0
 10
4512.6219177855036833
 20
303.9189617876198781
 30
0.0
 11
4512.5925074709839464
 21
303.9338528468998106
 31
0.0
  0
LINE
  5
23A96
  8
0
 10
4512.4353112529852297
 20
304.0410126487997786
 30
0.0
 11
4512.4350679573835805
 21
304.0432174307998139
 31
0.0
  0
LINE
  5
23A97
  8
0
 10
4513.0508408315936322
 20
303.788697085874503
 30
0.0
 11
4513.0613966602841174
 21
303.7873224813998263
 31
0.0
  0
LINE
  5
23A98
  8
0
 10
4513.0615007892847643
 20
303.7833638730998018
 30
0.0
 11
4513.0498667897527412
 21
303.7831393440101806
 31
0.0
  0
LINE
  5
23A99
  8
0
 10
4512.4246286792849787
 20
304.0649649274997728
 30
0.0
 11
4512.4218239676838493
 21
304.0637739964997763
 31
0.0
  0
ARC
  5
23A9A
  8
0
 10
4512.7212691897348122
 20
-2639.3099794992322131
 30
0.0
 40
2943.5205864398899394
 50
89.9766273129592804
 51
90.0077913520257198
  0
ARC
  5
23A9B
  8
0
 10
4513.1231128929803162
 20
303.9735670381347177
 30
0.0
 40
0.7766397165498309
 50
90.1157911331452937
 51
111.2151458574554965
  0
ARC
  5
23A9C
  8
0
 10
4513.207174072223097
 20
303.787617189720379
 30
0.0
 40
0.9804692524173503
 50
111.8623119158794026
 51
132.3811843338262975
  0
ARC
  5
23A9D
  8
0
 10
4513.2608869292944291
 20
303.7057416130231218
 30
0.0
 40
1.0772662128185331
 50
131.5560983436324989
 51
145.6295069997416931
  0
ARC
  5
23A9E
  8
0
 10
4512.9166761420847251
 20
303.9458514722103928
 30
0.0
 40
0.6576123993747571
 50
145.9663657503757861
 51
154.1340168458496862
  0
ARC
  5
23A9F
  8
0
 10
4512.3814056150931719
 20
304.2114337101718888
 30
0.0
 40
0.060348942993882
 50
159.3193458978498995
 51
206.5800394761124892
  0
ARC
  5
23AA0
  8
0
 10
4513.147049829356547
 20
313.8301357963262035
 30
0.0
 40
9.6914665215308808
 50
269.1925961876568181
 51
269.4690689459466739
  0
ARC
  5
23AA1
  8
0
 10
4512.5924877566239957
 20
299.8403895352773816
 30
0.0
 40
4.3105194644478528
 50
87.2725697433514256
 51
89.3500742661819913
  0
ARC
  5
23AA2
  8
0
 10
4512.6177968340198277
 20
303.1061533055570862
 30
0.0
 40
1.0447446381848271
 50
88.7064121771087883
 51
92.3356722653577293
  0
ARC
  5
23AA3
  8
0
 10
4512.5879576263860145
 20
303.7951583849836084
 30
0.0
 40
0.3551001475259008
 50
92.0557615821137034
 51
95.9405360077775242
  0
ARC
  5
23AA4
  8
0
 10
4512.5644611665911725
 20
303.9850854550040253
 30
0.0
 40
0.1638033198006034
 50
94.6414876523033541
 51
100.3536405024293003
  0
ARC
  5
23AA5
  8
0
 10
4512.5385597813055938
 20
304.1216157273598242
 30
0.0
 40
0.0248589131870642
 50
98.1820231213543337
 51
130.3528076055310976
  0
ARC
  5
23AA6
  8
0
 10
4512.6266073759870778
 20
304.0549182306871785
 30
0.0
 40
0.1348346887350096
 50
140.5680516101639057
 51
149.8212436734183939
  0
ARC
  5
23AA7
  8
0
 10
4512.0623993232838984
 20
304.4772380026012115
 30
0.0
 40
0.5710401553133179
 50
320.0042242555621783
 51
321.6207222588528793
  0
ARC
  5
23AA8
  8
0
 10
4512.3196230280927921
 20
304.3146667519077937
 30
0.0
 40
0.2725617174974176
 50
303.3737844964491046
 51
311.3992142298001795
  0
ARC
  5
23AA9
  8
0
 10
4512.3538071942430179
 20
304.2731047341073918
 30
0.0
 40
0.2191223584905487
 50
291.7033339139795771
 51
301.8873811723850054
  0
ARC
  5
23AAA
  8
0
 10
4512.4796700078422873
 20
303.9552037134317857
 30
0.0
 40
0.1227887289742574
 50
111.4142485615678027
 51
116.6321296648523003
  0
ARC
  5
23AAB
  8
0
 10
4512.4186596912450113
 20
304.0750977054282771
 30
0.0
 40
0.0117575094844502
 50
264.0307364097009213
 51
285.6123915837014806
  0
ARC
  5
23AAC
  8
0
 10
4512.4186173982197943
 20
304.0750907915464154
 30
0.0
 40
0.0117463075931387
 50
239.3640607582968016
 51
264.2324067223718771
  0
ARC
  5
23AAD
  8
0
 10
4512.4186478405490561
 20
304.0751550142387032
 30
0.0
 40
0.0118170808912618
 50
219.817857358177605
 51
239.3957383675526955
  0
ARC
  5
23AAE
  8
0
 10
4512.7908840875206806
 20
304.3563411073641873
 30
0.0
 40
0.478307224452398
 50
217.1352143970644875
 51
224.050541496276594
  0
ARC
  5
23AAF
  8
0
 10
4513.0204040618828003
 20
304.5684126344767719
 30
0.0
 40
0.7907535772722784
 50
223.531591007331798
 51
238.5936231355071016
  0
ARC
  5
23AB0
  8
0
 10
4512.4861091414149996
 20
304.0636029126986841
 30
0.0
 40
0.0557886915224143
 50
205.0958645661590936
 51
220.7318227763319953
  0
ARC
  5
23AB1
  8
0
 10
4512.5376603140421139
 20
303.9128306217648969
 30
0.0
 40
0.1659093475810498
 50
119.3066906344703995
 51
128.1967583657132081
  0
ARC
  5
23AB2
  8
0
 10
4512.351065446739085
 20
304.2225228672169806
 30
0.0
 40
0.1957975238424691
 50
302.5634880843336987
 51
313.2550255212231036
  0
ARC
  5
23AB3
  8
0
 10
4512.2846270845348045
 20
304.296948142531221
 30
0.0
 40
0.2955404826632593
 50
312.7486544875745267
 51
319.3999629941841931
  0
ARC
  5
23AB4
  8
0
 10
4512.3878961728978538
 20
304.189059997050208
 30
0.0
 40
0.1476550980118112
 50
325.1180381087481237
 51
333.2887820054899066
  0
ARC
  5
23AB5
  8
0
 10
4512.5742545432422048
 20
304.0990341594297774
 30
0.0
 40
0.0593762918008874
 50
139.4478530612406075
 51
156.5215373441984923
  0
ARC
  5
23AB6
  8
0
 10
4512.5506425972916986
 20
304.1180295433579204
 30
0.0
 40
0.0291004215404461
 50
120.4172900315841019
 51
137.6399118247136073
  0
ARC
  5
23AB7
  8
0
 10
4512.5559314266238289
 20
304.1083376982741129
 30
0.0
 40
0.0401374844235998
 50
103.9302862533846934
 51
119.9233110150804009
  0
ARC
  5
23AB8
  8
0
 10
4513.1750773774101617
 20
304.7816149975616895
 30
0.0
 40
1.1103011717948521
 50
255.004942826806996
 51
267.2363685251540915
  0
ARC
  5
23AB9
  8
0
 10
4513.1505478380431668
 20
304.5262873990178036
 30
0.0
 40
0.85836754213597
 50
238.2509505281649922
 51
252.1757347155904085
  0
ARC
  5
23ABA
  8
0
 10
4513.2411037805113665
 20
304.6895115187637089
 30
0.0
 40
1.043981492923407
 50
208.9340414304807894
 51
232.78636220117059
  0
ARC
  5
23ABB
  8
0
 10
4513.1215428022305787
 20
303.7920018647498068
 30
0.0
 40
0.1367496539892134
 50
81.9453880316664538
 51
98.0546125169948937
  0
ARC
  5
23ABC
  8
0
 10
4513.1215428008636081
 20
304.0653439853028885
 30
0.0
 40
0.1392659361046326
 50
262.0918602500490806
 51
277.9081403480275867
  0
ARC
  5
23ABD
  8
0
 10
4513.1816547345561048
 20
303.9392683663651269
 30
0.0
 40
0.0123556056551892
 50
304.5376442471389851
 51
352.7906383827088916
  0
ARC
  5
23ABE
  8
0
 10
4513.1761454831630545
 20
303.9499129355020273
 30
0.0
 40
0.0242937126594371
 50
274.4052110100068944
 51
301.0056271769947216
  0
ARC
  5
23ABF
  8
0
 10
4513.1209256472257039
 20
304.5669362081064264
 30
0.0
 40
0.6437811887504835
 50
265.2228787271881174
 51
275.0872542334021773
  0
ARC
  5
23AC0
  8
0
 10
4513.0693800522285528
 20
303.9586073840487757
 30
0.0
 40
0.0332803352313586
 50
246.4906583013649026
 51
266.4366273583514726
  0
ARC
  5
23AC1
  8
0
 10
4513.0616277067310875
 20
303.9393749662951905
 30
0.0
 40
0.0125645202140504
 50
187.5789885064828013
 51
243.9228052391941048
  0
ARC
  5
23AC2
  8
0
 10
4513.1217603862251053
 20
303.6278053145917966
 30
0.0
 40
0.3804239949571445
 50
74.2713582367094034
 51
105.7974114698580053
  0
ARC
  5
23AC3
  8
0
 10
4513.1215407136078284
 20
304.2620423309426201
 30
0.0
 40
0.2874050617018135
 50
248.9254635619257954
 51
254.2012856061926129
  0
ARC
  5
23AC4
  8
0
 10
4513.1350057819317954
 20
304.2183237238958782
 30
0.0
 40
0.2416742600548146
 50
285.5499849518820952
 51
291.8333316335758241
  0
ARC
  5
23AC5
  8
0
 10
4512.9401324215750719
 20
302.8552010915689152
 30
0.0
 40
1.116132986548332
 50
84.5752150598890324
 51
90.2678176601786362
  0
ARC
  5
23AC6
  8
0
 10
4513.0076829310728499
 20
303.7841104009713717
 30
0.0
 40
0.109604301273143
 50
78.4089724147191305
 51
98.5910377919571346
  0
ARC
  5
23AC7
  8
0
 10
4513.0134039475306054
 20
304.0025879487441216
 30
0.0
 40
0.1122978766075384
 50
258.6534577824360213
 51
278.3465524242013771
  0
ARC
  5
23AC8
  8
0
 10
4512.997411336337791
 20
303.7261884744593772
 30
0.0
 40
0.1367890929387895
 50
80.4439883683497641
 51
96.5560260130214516
  0
ARC
  5
23AC9
  8
0
 10
4513.0045584230283566
 20
303.9991260126079737
 30
0.0
 40
0.138920888565267
 50
260.5684132662103139
 51
276.4316011151051953
  0
ARC
  5
23ACA
  8
0
 10
4512.9887001697352389
 20
303.6544550388422863
 30
0.0
 40
0.182200540162492
 50
82.4688533597367837
 51
94.5311419643682456
  0
ARC
  5
23ACB
  8
0
 10
4512.9982499984698734
 20
304.0191477160768159
 30
0.0
 40
0.1846208438550777
 50
262.548206738698525
 51
274.4517885854552901
  0
ARC
  5
23ACC
  8
0
 10
4513.0263286609051647
 20
304.4188360963976834
 30
0.0
 40
0.5324135193402715
 50
262.0507784079998146
 51
273.4670111697428183
  0
ARC
  5
23ACD
  8
0
 10
4513.0571631130660535
 20
303.9426507669963939
 30
0.0
 40
0.0552705571583305
 50
271.4127105125684807
 51
289.1451897587859889
  0
ARC
  5
23ACE
  8
0
 10
4513.0699889943107337
 20
303.90301495460659
 30
0.0
 40
0.0136491301404899
 50
292.8526979886892718
 51
325.0838525360031781
  0
ARC
  5
23ACF
  8
0
 10
4513.0715757137413675
 20
303.901984173634105
 30
0.0
 40
0.0117582084357399
 50
324.7770039972305085
 51
352.0863062184582191
  0
ARC
  5
23AD0
  8
0
 10
4512.9557163038953149
 20
303.9122218135877915
 30
0.0
 40
0.0209023119191058
 50
230.184530899402688
 51
261.6982924308371139
  0
ARC
  5
23AD1
  8
0
 10
4512.9508201920343708
 20
303.9054121916809095
 30
0.0
 40
0.0125510331607535
 50
185.7287055915311953
 51
227.4464752714480937
  0
ARC
  5
23AD2
  8
0
 10
4512.9410386567760725
 20
303.8749816185001009
 30
0.0
 40
0.0122354496670765
 50
185.5982416946492037
 51
223.0614396835007938
  0
ARC
  5
23AD3
  8
0
 10
4512.9423534409752392
 20
303.8763579157811137
 30
0.0
 40
0.0141361825370007
 50
223.4985404829859874
 51
251.3167712063913939
  0
ARC
  5
23AD4
  8
0
 10
4512.9964977797653773
 20
304.1729463639485971
 30
0.0
 40
0.3154836017886511
 50
259.2819067548409748
 51
269.9840925770243985
  0
ARC
  5
23AD5
  8
0
 10
4513.0196437365902966
 20
304.4312080128478897
 30
0.0
 40
0.5742154616757553
 50
267.6811010059849991
 51
273.3301211896605878
  0
ARC
  5
23AD6
  8
0
 10
4513.053111877829906
 20
303.8924000239441057
 30
0.0
 40
0.0344380461297458
 50
269.8126315191909157
 51
294.5137233385181048
  0
ARC
  5
23AD7
  8
0
 10
4513.0612813051429839
 20
303.871919795698318
 30
0.0
 40
0.0124598290075507
 50
299.4143909529487928
 51
351.1278772334979976
  0
ARC
  5
23AD8
  8
0
 10
4513.0222556337357673
 20
304.9061410215571186
 30
0.0
 40
1.0738576104567941
 50
265.5898158489500815
 51
271.2157684768533272
  0
ARC
  5
23AD9
  8
0
 10
4512.9411384498780535
 20
303.8685149196268185
 30
0.0
 40
0.0330840851092315
 50
247.0126229909025994
 51
267.4734222723373023
  0
ARC
  5
23ADA
  8
0
 10
4512.933566310804963
 20
303.8490429094990759
 30
0.0
 40
0.012217631209858
 50
185.7692434198833951
 51
244.0402937435098067
  0
ARC
  5
23ADB
  8
0
 10
4513.0423755220754174
 20
303.9085640001651996
 30
0.0
 40
0.0760855230001961
 50
272.0070941241679066
 51
279.6909563297530212
  0
ARC
  5
23ADC
  8
0
 10
4513.0534598551603267
 20
303.8461889860839165
 30
0.0
 40
0.0127418638739762
 50
277.773505054897214
 51
350.2360904848334258
  0
ARC
  5
23ADD
  8
0
 10
4513.0277667104692227
 20
305.3226155269746869
 30
0.0
 40
1.5113779705174339
 50
266.1778298025449203
 51
270.6829680105519742
  0
ARC
  5
23ADE
  8
0
 10
4512.9274500574083504
 20
303.8269097353664279
 30
0.0
 40
0.0123180654779365
 50
186.2126469001291014
 51
267.9912057548302755
  0
ARC
  5
23ADF
  8
0
 10
4513.0481771699323872
 20
303.823307521947811
 30
0.0
 40
0.0116136373335134
 50
282.9465087848120106
 51
352.5075516615386277
  0
ARC
  5
23AE0
  8
0
 10
4513.0450286138247975
 20
303.8368934156126784
 30
0.0
 40
0.0255595913930525
 50
271.6890099866731134
 51
283.0019171727468006
  0
ARC
  5
23AE1
  8
0
 10
4513.0426350978841583
 20
303.8041080564797198
 30
0.0
 40
0.0119842550933364
 50
266.3755409954923721
 51
351.2314027781437176
  0
ARC
  5
23AE2
  8
0
 10
4512.9220056103986281
 20
303.8073063355885211
 30
0.0
 40
0.0120445476784934
 50
185.921327548898887
 51
270.3946088624401796
  0
ARC
  5
23AE3
  8
0
 10
4513.0355793681192154
 20
303.8194009505249937
 30
0.0
 40
0.0446888588047564
 50
268.315157826545601
 51
276.1611713665578236
  0
ARC
  5
23AE4
  8
0
 10
4513.0385606757399728
 20
303.7866770262357932
 30
0.0
 40
0.0118466623837292
 50
278.8126256194929056
 51
351.459421497812798
  0
ARC
  5
23AE5
  8
0
 10
4513.0555690829378364
 20
303.7427962161206096
 30
0.0
 40
0.0449060013522681
 50
69.5580684249808741
 51
82.5435367390283403
  0
ARC
  5
23AE6
  8
0
 10
4513.0616269328520502
 20
303.8147860470883757
 30
0.0
 40
0.0314224271877451
 50
269.7699886948503831
 51
287.8387602040422166
  0
ARC
  5
23AE7
  8
0
 10
4512.9178555329835945
 20
303.7899573197768746
 30
0.0
 40
0.0120989904309292
 50
185.9632911518827996
 51
272.1786188400924971
  0
ARC
  5
23AE8
  8
0
 10
4512.9901446221847436
 20
304.4398217307492018
 30
0.0
 40
0.6969050377249097
 50
263.7731900013901054
 51
273.3292632163129952
  0
ARC
  5
23AE9
  8
0
 10
4512.9123746921268321
 20
303.7600443775356212
 30
0.0
 40
0.0122353211226595
 50
185.583669261811508
 51
251.0689701478439986
  0
ARC
  5
23AEA
  8
0
 10
4512.9190597158512901
 20
303.7800606586213803
 30
0.0
 40
0.0333381737316466
 50
251.3619066385959115
 51
262.2345853411416101
  0
ARC
  5
23AEB
  8
0
 10
4513.0314968258953741
 20
303.7576127027878101
 30
0.0
 40
0.0135484557522269
 50
266.2750443825053139
 51
349.1709731361452782
  0
ARC
  5
23AEC
  8
0
 10
4512.9677320041619168
 20
304.2420492657765863
 30
0.0
 40
0.4829254066908469
 50
263.6804192409841789
 51
268.5173608223915949
  0
ARC
  5
23AED
  8
0
 10
4512.9153000839805827
 20
303.77529956212868
 30
0.0
 40
0.0132610229572845
 50
220.6443466001597074
 51
266.8633691220347259
  0
ARC
  5
23AEE
  8
0
 10
4512.9144782905596003
 20
303.7743058554797813
 30
0.0
 40
0.011992204968084
 50
185.6043457912140013
 51
219.5993587860562002
  0
ARC
  5
23AEF
  8
0
 10
4513.0150385239303432
 20
304.0160325655946281
 30
0.0
 40
0.2579265940864796
 50
268.8820381181557764
 51
274.3663179307918085
  0
ARC
  5
23AF0
  8
0
 10
4513.0346120523990976
 20
303.7714944162382267
 30
0.0
 40
0.012640017110779
 50
270.2863306704982733
 51
350.2332032644094966
  0
ARC
  5
23AF1
  8
0
 10
4512.9110545249477582
 20
303.7471150988764066
 30
0.0
 40
0.0123575123371761
 50
185.7758981770379876
 51
229.0749039527171078
  0
ARC
  5
23AF2
  8
0
 10
4512.9156487139944147
 20
303.7543876145044806
 30
0.0
 40
0.0209019250372701
 50
232.6209664870204961
 51
263.6373066444750748
  0
ARC
  5
23AF3
  8
0
 10
4512.99041587631109
 20
304.3958957333417175
 30
0.0
 40
0.6667521177021642
 50
263.3611604448620938
 51
272.3642229059590818
  0
ARC
  5
23AF4
  8
0
 10
4513.0182673072959005
 20
303.7883891132103145
 30
0.0
 40
0.0586789716707299
 50
269.6614420497829201
 51
287.2432871548402886
  0
ARC
  5
23AF5
  8
0
 10
4513.0310434981338403
 20
303.7440767784345894
 30
0.0
 40
0.0126056412814962
 50
291.4903035398173188
 51
350.8929590214112864
  0
ARC
  5
23AF6
  8
0
 10
4512.9832961944193812
 20
304.2251191709029854
 30
0.0
 40
0.5091558024533521
 50
262.1957075446647991
 51
274.9797358735384023
  0
ARC
  5
23AF7
  8
0
 10
4513.026292498667317
 20
303.7381983897390114
 30
0.0
 40
0.0203486158563346
 50
273.3812474946540192
 51
307.7396435193646198
  0
ARC
  5
23AF8
  8
0
 10
4513.0307379760070035
 20
303.7317234464612739
 30
0.0
 40
0.0125152754623254
 50
309.7895088061885076
 51
351.3301178243406753
  0
ARC
  5
23AF9
  8
0
 10
4512.916937687796235
 20
303.7442250481901169
 30
0.0
 40
0.0237092172952544
 50
231.8327013411995949
 51
263.2671887072577874
  0
ARC
  5
23AFA
  8
0
 10
4512.9105829162681403
 20
303.7348278849153758
 30
0.0
 40
0.0124205809079062
 50
185.5299620824708029
 51
228.0894463133658974
  0
ARC
  5
23AFB
  8
0
 10
4513.0526118644238522
 20
303.8647397606874847
 30
0.0
 40
0.0942496450634606
 50
267.9342885867287123
 51
280.8334272707825789
  0
ARC
  5
23AFC
  8
0
 10
4513.0362566350950146
 20
303.6509722982776225
 30
0.0
 40
0.1258952074775607
 50
74.2987887313985027
 51
84.3694217672779558
  0
ARC
  5
23AFD
  8
0
 10
4513.0552614688003814
 20
303.869369281710874
 30
0.0
 40
0.0726344791313379
 50
267.5329071055321037
 51
284.2573087715866791
  0
ARC
  5
23AFE
  8
0
 10
4513.0453630111660459
 20
303.7115719810404926
 30
0.0
 40
0.0917107304769583
 50
72.3632331790940526
 51
84.2446310464952717
  0
ARC
  5
23AFF
  8
0
 10
4513.0573015124209633
 20
303.7759480312341225
 30
0.0
 40
0.059418767832303
 50
67.6414050980446433
 51
85.7581713083291532
  0
ARC
  5
23B00
  8
0
 10
4513.061335081629295
 20
303.8904594003500961
 30
0.0
 40
0.0623872969215755
 50
269.3532828644172241
 51
287.3163946486195073
  0
ARC
  5
23B01
  8
0
 10
4513.0668512740130609
 20
303.8951216747919943
 30
0.0
 40
0.0488993562396878
 50
269.407776980670576
 51
291.555984767776124
  0
ARC
  5
23B02
  8
0
 10
4513.0625078585899246
 20
303.800138934990116
 30
0.0
 40
0.0542983175376382
 50
65.7405165185858351
 51
84.6828154355443132
  0
ARC
  5
23B03
  8
0
 10
4513.0722500919346203
 20
303.9133373439906904
 30
0.0
 40
0.0469220684196407
 50
270.2557440223093863
 51
293.2787540149003007
  0
ARC
  5
23B04
  8
0
 10
4513.0711105690515978
 20
303.8336342171731985
 30
0.0
 40
0.0415578656318229
 50
61.7293395198498303
 51
85.5279666810425567
  0
ARC
  5
23B05
  8
0
 10
4513.0764312122500996
 20
303.926253551874197
 30
0.0
 40
0.0371367177201594
 50
270.0370421714874283
 51
298.1870097045293733
  0
ARC
  5
23B06
  8
0
 10
4513.0804006463340556
 20
303.8751649133633919
 30
0.0
 40
0.0228285642618074
 50
53.5212930775573668
 51
84.4784812980035724
  0
ARC
  5
23B07
  8
0
 10
4513.0752103334179992
 20
304.0054806211160781
 30
0.0
 40
0.0896033135511221
 50
276.6836117884084842
 51
284.0575664222022283
  0
ARC
  5
23B08
  8
0
 10
4513.0912274744623573
 20
303.9407045872176809
 30
0.0
 40
0.0228775144525056
 50
284.5494964719010227
 51
295.7468679493978811
  0
ARC
  5
23B09
  8
0
 10
4513.0996208341066449
 20
303.9227612310024256
 30
0.0
 40
0.0030784368190241
 50
300.1144679626185052
 51
342.0976886571315845
  0
ARC
  5
23B0A
  8
0
 10
4513.1009034870494361
 20
303.9216972713730911
 30
0.0
 40
0.0016509304749498
 50
4.086994626260112
 51
47.3667404960654324
  0
ARC
  5
23B0B
  8
0
 10
4513.1001495515729403
 20
303.9212024656113158
 30
0.0
 40
0.002535127819987
 50
42.3987528519717429
 51
62.6285557912264821
  0
ARC
  5
23B0C
  8
0
 10
4512.8621044097571939
 20
303.6305202842249855
 30
0.0
 40
0.1692457965218304
 50
79.190996093638276
 51
87.5385943592156366
  0
ARC
  5
23B0D
  8
0
 10
4512.9273188158549601
 20
303.9325657048181029
 30
0.0
 40
0.1450343607281593
 50
246.4510593291375926
 51
256.1484302322501776
  0
ARC
  5
23B0E
  8
0
 10
4512.9161631416418459
 20
303.9101229496769747
 30
0.0
 40
0.1090001575377361
 50
244.6414785370255913
 51
257.8310097818796862
  0
ARC
  5
23B0F
  8
0
 10
4512.8654402905413008
 20
303.6439159126189224
 30
0.0
 40
0.1677581835063082
 50
79.7256552244220416
 51
88.620002959016503
  0
ARC
  5
23B10
  8
0
 10
4512.869646290793753
 20
303.6580565564042899
 30
0.0
 40
0.1667624647397024
 50
80.2829021339762363
 51
89.7134088372697249
  0
ARC
  5
23B11
  8
0
 10
4512.9251124769034504
 20
303.944784094304282
 30
0.0
 40
0.1318210159968921
 50
245.5158734419144082
 51
256.631420018516792
  0
ARC
  5
23B12
  8
0
 10
4512.9197653112496482
 20
303.9351162396520749
 30
0.0
 40
0.1071961408198826
 50
243.7669436131282907
 51
257.7543088904752722
  0
ARC
  5
23B13
  8
0
 10
4512.8802510830792016
 20
303.7451975394423016
 30
0.0
 40
0.0940930049961629
 50
77.1500006338514197
 51
94.7972377628227463
  0
ARC
  5
23B14
  8
0
 10
4512.9188234331486456
 20
303.9382201186310795
 30
0.0
 40
0.0942730700518884
 50
242.4492677839052135
 51
258.684210643545498
  0
ARC
  5
23B15
  8
0
 10
4512.8831480225071573
 20
303.7137727827279718
 30
0.0
 40
0.1410876597450388
 50
80.8852809023049844
 51
93.2216987495068139
  0
ARC
  5
23B16
  8
0
 10
4512.9199574565191142
 20
303.9455701873512794
 30
0.0
 40
0.0842294551046188
 50
240.867131327649787
 51
259.4709141048875836
  0
ARC
  5
23B17
  8
0
 10
4512.8908651531819487
 20
303.7348987705358923
 30
0.0
 40
0.1376142412711084
 50
81.6611115402832866
 51
94.9664832139905712
  0
ARC
  5
23B18
  8
0
 10
4512.9263250644753498
 20
303.9630896146476857
 30
0.0
 40
0.0837483134920515
 50
239.3587158235168033
 51
258.6671397308721225
  0
ARC
  5
23B19
  8
0
 10
4512.8998450558119657
 20
303.7603586196257766
 30
0.0
 40
0.1316767760209266
 50
82.4015517690353363
 51
97.0683587147290439
  0
ARC
  5
23B1A
  8
0
 10
4512.9224800234787836
 20
303.9512643137891814
 30
0.0
 40
0.0489606598832825
 50
233.5037553101950039
 51
262.5296975667483252
  0
ARC
  5
23B1B
  8
0
 10
4512.9132401467977616
 20
303.7987823440809052
 30
0.0
 40
0.1148563347587173
 50
84.0875489984528599
 51
99.967515306471455
  0
ARC
  5
23B1C
  8
0
 10
4512.9217500358918187
 20
303.5919121133524072
 30
0.0
 40
0.3491533894317445
 50
87.8605949309514642
 51
90.9917257531010222
  0
ARC
  5
23B1D
  8
0
 10
4512.9519960490370067
 20
304.0503096056220897
 30
0.0
 40
0.125392866393747
 50
247.8125748395771097
 51
256.9154413368917176
  0
ARC
  5
23B1E
  8
0
 10
4512.9089621835855723
 20
303.9456058411166737
 30
0.0
 40
0.0121947179087362
 50
225.847469016806599
 51
249.2564649636150875
  0
ARC
  5
23B1F
  8
0
 10
4512.9011838388350952
 20
303.9377691194168278
 30
0.0
 40
0.0011602316772545
 50
128.4361486511963051
 51
231.8851579463504038
  0
ARC
  5
23B20
  8
0
 10
4512.9040056265266685
 20
303.9340856607842056
 30
0.0
 40
0.005800176666167
 50
100.5146514177649948
 51
127.6509718418728028
  0
ARC
  5
23B21
  8
0
 10
4512.8536707092844154
 20
303.8551240305092165
 30
0.0
 40
0.0936006794493788
 50
75.0291026228894964
 51
98.7928023189680005
  0
ARC
  5
23B22
  8
0
 10
4512.8635094510727868
 20
304.0374365672266777
 30
0.0
 40
0.0930012839304557
 50
254.9513958066584962
 51
278.8705093177184153
  0
ARC
  5
23B23
  8
0
 10
4512.7966323422106143
 20
303.592387162887519
 30
0.0
 40
0.4383810759919545
 50
67.6234861211817986
 51
95.3962001938240434
  0
ARC
  5
23B24
  8
0
 10
4512.9409976130018549
 20
304.0273911361844057
 30
0.0
 40
0.0372199739204064
 50
265.7970323720240913
 51
307.2376092777969916
  0
ARC
  5
23B25
  8
0
 10
4512.7941913581598783
 20
304.0659710474363919
 30
0.0
 40
0.0537038429855428
 50
223.7628738474207921
 51
257.8380326745618163
  0
ARC
  5
23B26
  8
0
 10
4512.7996338686898525
 20
303.9616284963391877
 30
0.0
 40
0.0130642623699223
 50
184.5856110619268975
 51
230.1539158486235124
  0
ARC
  5
23B27
  8
0
 10
4512.8137674557356149
 20
303.9862866769531138
 30
0.0
 40
0.0413489115121323
 50
237.026452753596601
 51
264.6690493656114995
  0
ARC
  5
23B28
  8
0
 10
4512.8527487492556247
 20
304.1888271397883727
 30
0.0
 40
0.2474441879553571
 50
260.0341556797066005
 51
263.6341339096496199
  0
ARC
  5
23B29
  8
0
 10
4512.8849078354023732
 20
304.4583224605344753
 30
0.0
 40
0.5188477093255864
 50
263.4044413279415835
 51
271.9924653513625117
  0
ARC
  5
23B2A
  8
0
 10
4512.9032393647894423
 20
304.0038229568838801
 30
0.0
 40
0.0640351810564785
 50
269.7385563946742764
 51
288.3358585804895142
  0
ARC
  5
23B2B
  8
0
 10
4512.9185681810276947
 20
303.9554745697731732
 30
0.0
 40
0.013335563206719
 50
291.169246531054398
 51
349.2269527164752958
  0
ARC
  5
23B2C
  8
0
 10
4512.7417914778434351
 20
303.8226551330196799
 30
0.0
 40
0.1105890385105834
 50
75.1578841362994865
 51
95.2421146646174037
  0
ARC
  5
23B2D
  8
0
 10
4512.7602261241590895
 20
304.042187453395286
 30
0.0
 40
0.1130667195098143
 50
255.380147001939406
 51
275.0198517990285723
  0
ARC
  5
23B2E
  8
0
 10
4512.7268554768261311
 20
303.7705536516073153
 30
0.0
 40
0.1379419161134349
 50
77.1858329259030427
 51
93.2301068103201658
  0
ARC
  5
23B2F
  8
0
 10
4512.7499002844597271
 20
304.0452171545966848
 30
0.0
 40
0.1403654918238561
 50
257.317371791283108
 51
273.0826288719065928
  0
ARC
  5
23B30
  8
0
 10
4512.7123372008318256
 20
303.7043268597569181
 30
0.0
 40
0.1834621517842957
 50
79.1853185790540834
 51
91.2146833532902548
  0
ARC
  5
23B31
  8
0
 10
4512.7430878336463138
 20
304.0705264532612091
 30
0.0
 40
0.1860321372432526
 50
259.2687100552341803
 51
271.1312918770635747
  0
ARC
  5
23B32
  8
0
 10
4512.6963088916154447
 20
303.608415514055423
 30
0.0
 40
0.2622179363846604
 50
81.0024536073684658
 51
89.4035396264581124
  0
ARC
  5
23B33
  8
0
 10
4512.7401968207677783
 20
304.131390945306407
 30
0.0
 40
0.2639997761351194
 50
261.03085513483461
 51
269.3751380989988888
  0
ARC
  5
23B34
  8
0
 10
4512.6923016655764513
 20
303.9479837294812796
 30
0.0
 40
0.012519432268967
 50
182.397464067666192
 51
223.2419709316193916
  0
ARC
  5
23B35
  8
0
 10
4512.6967419413667812
 20
303.9532929642958834
 30
0.0
 40
0.0194088516516567
 50
225.6800735629057044
 51
255.4254693107338028
  0
ARC
  5
23B36
  8
0
 10
4512.7933314409010563
 20
304.4220393780465201
 30
0.0
 40
0.4979789857160355
 50
258.2424535141834099
 51
271.4593937004327131
  0
ARC
  5
23B37
  8
0
 10
4512.8053288021646949
 20
303.9528695187973995
 30
0.0
 40
0.0286557930231277
 50
271.3705568457244794
 51
294.1806786500404769
  0
ARC
  5
23B38
  8
0
 10
4512.810947645944907
 20
303.9384648803982145
 30
0.0
 40
0.0132361574568451
 50
297.5353070312718842
 51
329.6196048081499725
  0
ARC
  5
23B39
  8
0
 10
4512.8116502695629606
 20
303.937903567683918
 30
0.0
 40
0.0123468086492163
 50
330.2177487018220177
 51
348.1725163878921876
  0
ARC
  5
23B3A
  8
0
 10
4512.679048278287155
 20
303.9235144587245259
 30
0.0
 40
0.0122520520072641
 50
182.3215141487794142
 51
220.8379408578192908
  0
ARC
  5
23B3B
  8
0
 10
4512.6808773924558409
 20
303.9253742124450923
 30
0.0
 40
0.0148535216629275
 50
221.6515753794037948
 51
251.2382327040618861
  0
ARC
  5
23B3C
  8
0
 10
4512.7024946346509751
 20
303.9929668845222182
 30
0.0
 40
0.0858168546830664
 50
252.0871876164995058
 51
261.6768634791330896
  0
ARC
  5
23B3D
  8
0
 10
4512.7806379106677923
 20
304.4793973644401035
 30
0.0
 40
0.5784768862119706
 50
260.9927758675843279
 51
264.8285324974536934
  0
ARC
  5
23B3E
  8
0
 10
4512.7895537264257655
 20
304.4865032512944936
 30
0.0
 40
0.586415370705789
 50
264.0235114037337212
 51
270.2262384363173737
  0
ARC
  5
23B3F
  8
0
 10
4512.7932162913175489
 20
303.9301590587779742
 30
0.0
 40
0.0300967668289576
 50
267.4347427262986798
 51
293.4611030918957795
  0
ARC
  5
23B40
  8
0
 10
4512.7993773625166796
 20
303.9134346853649049
 30
0.0
 40
0.0123432219854225
 50
298.1391690026669039
 51
348.016950638079777
  0
ARC
  5
23B41
  8
0
 10
4512.8250615335628027
 20
304.0119436632456882
 30
0.0
 40
0.0898458689208863
 50
262.8924795935170096
 51
270.246921925237416
  0
ARC
  5
23B42
  8
0
 10
4512.8255304826352585
 20
303.9362792034099243
 30
0.0
 40
0.0141808103902638
 50
269.6696957260118097
 51
285.2270969413875719
  0
ARC
  5
23B43
  8
0
 10
4512.8290022039727774
 20
303.9239617795386721
 30
0.0
 40
0.0013887363007538
 50
280.4885916263394279
 51
341.4829647470693885
  0
ARC
  5
23B44
  8
0
 10
4512.8285548484873289
 20
303.9232660903138026
 30
0.0
 40
0.0017824789857164
 50
8.2133838354434783
 51
57.1460914973675997
  0
ARC
  5
23B45
  8
0
 10
4512.804553385500185
 20
303.8861452113540054
 30
0.0
 40
0.0459868889114629
 50
57.1155014586804626
 51
69.7329058909515709
  0
ARC
  5
23B46
  8
0
 10
4512.8012139147631387
 20
303.8750711184976012
 30
0.0
 40
0.0361372844715576
 50
51.0670637832736176
 51
73.9981516589422057
  0
ARC
  5
23B47
  8
0
 10
4512.8157772276763353
 20
303.9526154742371205
 30
0.0
 40
0.0501004451669108
 50
259.3646287096416927
 51
279.3571433382817872
  0
ARC
  5
23B48
  8
0
 10
4512.7930488429801699
 20
303.8596294456115174
 30
0.0
 40
0.0342680306839363
 50
50.7046933421081292
 51
76.1386103429632612
  0
ARC
  5
23B49
  8
0
 10
4512.8088681504841588
 20
303.9253213161459826
 30
0.0
 40
0.0396114486977866
 50
256.1460737950275757
 51
278.5413773485619231
  0
ARC
  5
23B4A
  8
0
 10
4512.7622167854397048
 20
303.7986197525939929
 30
0.0
 40
0.0695121173381273
 50
57.5002967865173531
 51
71.641879481583473
  0
ARC
  5
23B4B
  8
0
 10
4512.7988403568433569
 20
303.9168576231928114
 30
0.0
 40
0.0596161600597476
 50
254.6114617234007937
 51
270.6967586807884913
  0
ARC
  5
23B4C
  8
0
 10
4512.7793243037403954
 20
303.8336761370765089
 30
0.0
 40
0.0459902515870739
 50
53.6310688205295278
 51
73.7193877512667086
  0
ARC
  5
23B4D
  8
0
 10
4512.8034694355401371
 20
303.9212461249595094
 30
0.0
 40
0.0506345295338978
 50
255.7226610289542919
 51
273.5398054417595972
  0
ARC
  5
23B4E
  8
0
 10
4512.7514811865958109
 20
303.77590576612522
 30
0.0
 40
0.0809632940410977
 50
58.7425583705544909
 51
70.1636469041895481
  0
ARC
  5
23B4F
  8
0
 10
4512.7979566259564308
 20
303.9249262473139765
 30
0.0
 40
0.0799342491931475
 50
254.0136640848147067
 51
266.7979842037624962
  0
ARC
  5
23B50
  8
0
 10
4512.7447791703316398
 20
303.7617909906476257
 30
0.0
 40
0.0844072282407998
 50
58.8906675254409535
 51
70.2230443425477517
  0
ARC
  5
23B51
  8
0
 10
4512.7999295573563359
 20
303.938691488155996
 30
0.0
 40
0.1052668649444504
 50
253.3345488845598936
 51
263.7065263564159068
  0
ARC
  5
23B52
  8
0
 10
4512.7317343673566938
 20
303.7341400461472745
 30
0.0
 40
0.1038726806670673
 50
59.6415911213867105
 51
69.6217071475222724
  0
ARC
  5
23B53
  8
0
 10
4512.7991113393636624
 20
303.9308311843773254
 30
0.0
 40
0.1080903602402164
 50
251.7300252685525948
 51
262.0879554316650797
  0
ARC
  5
23B54
  8
0
 10
4512.2230480945963791
 20
301.7728972728215808
 30
0.0
 40
2.296303990321273
 50
75.8642466611115367
 51
78.6027794771546837
  0
ARC
  5
23B55
  8
0
 10
4512.6526394686407002
 20
303.9126141162057024
 30
0.0
 40
0.1139020921531933
 50
77.7431611242347458
 51
92.2516585040310275
  0
ARC
  5
23B56
  8
0
 10
4512.7103353359598259
 20
304.1018095052493209
 30
0.0
 40
0.0977116004573314
 50
230.4857757534715006
 51
250.2819197552204002
  0
ARC
  5
23B57
  8
0
 10
4512.6275830176318777
 20
303.8535787555700836
 30
0.0
 40
0.1524799106225354
 50
70.7532304443625151
 51
86.8993961419384249
  0
ARC
  5
23B58
  8
0
 10
4512.7035897380328606
 20
304.0898732902384722
 30
0.0
 40
0.1079521437565041
 50
231.1209851327579941
 51
248.6215594579377921
  0
ARC
  5
23B59
  8
0
 10
4512.5978919917106396
 20
303.800364612830208
 30
0.0
 40
0.1895569535329176
 50
69.3674341955016445
 51
81.6530436175299172
  0
ARC
  5
23B5A
  8
0
 10
4512.7101900293300787
 20
304.0994792154365882
 30
0.0
 40
0.1401236347279149
 50
232.7681779176128885
 51
246.1598486626581916
  0
ARC
  5
23B5B
  8
0
 10
4512.5309517263740418
 20
303.6551301169020007
 30
0.0
 40
0.3310345697231718
 50
68.1986803608297123
 51
75.8138167012451589
  0
ARC
  5
23B5C
  8
0
 10
4512.7072786127018844
 20
304.0989252870991777
 30
0.0
 40
0.1554232156678655
 50
232.228422383201206
 51
246.0029596443509092
  0
ARC
  5
23B5D
  8
0
 10
4512.603263040578895
 20
303.9445038417625256
 30
0.0
 40
0.0196931591713066
 50
64.8335928135050779
 51
88.311573698451582
  0
ARC
  5
23B5E
  8
0
 10
4512.7137765622883308
 20
304.1083033614924034
 30
0.0
 40
0.1812579174411552
 50
232.6630030936183005
 51
244.4697635674577896
  0
ARC
  5
23B5F
  8
0
 10
4512.5937539334572648
 20
303.9305047836921858
 30
0.0
 40
0.0234926253275814
 50
63.2541761916256888
 51
83.1161403753765029
  0
ARC
  5
23B60
  8
0
 10
4512.7252140315013094
 20
304.1237235826257006
 30
0.0
 40
0.2131052707459646
 50
232.8671136884807993
 51
242.9221348887917884
  0
ARC
  5
23B61
  8
0
 10
4512.586654679473213
 20
303.9263944323515716
 30
0.0
 40
0.0189577887766471
 50
63.2084012491465472
 51
79.2845592064469002
  0
ARC
  5
23B62
  8
0
 10
4512.7245843987002445
 20
304.1173148715071761
 30
0.0
 40
0.2185168730600353
 50
232.0424286758511982
 51
241.9128409486183102
  0
ARC
  5
23B63
  8
0
 10
4512.5753663270261313
 20
303.9032617465051089
 30
0.0
 40
0.0350661409276186
 50
60.7367353816014273
 51
74.3525140183212869
  0
ARC
  5
23B64
  8
0
 10
4512.7454492416409266
 20
304.1453741988742081
 30
0.0
 40
0.2630748582457345
 50
232.369455277455188
 51
240.5444869239863976
  0
ARC
  5
23B65
  8
0
 10
4512.5652609241142272
 20
303.8870624712075141
 30
0.0
 40
0.0454626170141167
 50
59.1712440346100905
 51
70.6475658161358524
  0
ARC
  5
23B66
  8
0
 10
4512.7612848152875813
 20
304.1607009332075791
 30
0.0
 40
0.2932389207806597
 50
231.8951216015078103
 51
239.2584388747592072
  0
ARC
  5
23B67
  8
0
 10
4512.7521890672469453
 20
304.1428791389553794
 30
0.0
 40
0.2809524688633784
 50
231.3564010832355109
 51
239.1262405639292865
  0
ARC
  5
23B68
  8
0
 10
4512.5743726446307846
 20
303.9142660555232851
 30
0.0
 40
0.0094772499757823
 50
59.1782624113113371
 51
75.525190030904696
  0
ARC
  5
23B69
  8
0
 10
4512.7453516365803807
 20
304.3094636028361037
 30
0.0
 40
0.4263445267153371
 50
259.9152436832055173
 51
264.9834636080361179
  0
ARC
  5
23B6A
  8
0
 10
4512.6746490529985749
 20
303.915872972070872
 30
0.0
 40
0.0264636009103378
 50
242.0617405844749044
 51
261.4106379445120183
  0
ARC
  5
23B6B
  8
0
 10
4512.6684028209019743
 20
303.9030350683200936
 30
0.0
 40
0.012205538003838
 50
182.4608561840070138
 51
239.7301211199902014
  0
ARC
  5
23B6C
  8
0
 10
4512.7886435304999395
 20
304.4698843686330747
 30
0.0
 40
0.5898677497316366
 50
265.9243824316146174
 51
269.002119892722817
  0
ARC
  5
23B6D
  8
0
 10
4512.7820100708368045
 20
303.9203035889694888
 30
0.0
 40
0.0403619202509247
 50
264.8267604757667186
 51
285.7673084902236269
  0
ARC
  5
23B6E
  8
0
 10
4512.7887709774731775
 20
303.8929476499272937
 30
0.0
 40
0.0122333176476895
 50
290.1129058047156946
 51
347.8607781894622804
  0
ARC
  5
23B6F
  8
0
 10
4512.7795908034004242
 20
303.8757127828015996
 30
0.0
 40
0.0119279197548042
 50
292.3589277284575019
 51
348.1697022070017056
  0
ARC
  5
23B70
  8
0
 10
4512.7761632009505774
 20
303.8882897446745801
 30
0.0
 40
0.0249155795817384
 50
266.4251047248724262
 51
288.6437202258774164
  0
ARC
  5
23B71
  8
0
 10
4512.791239188628424
 20
304.5685916453667801
 30
0.0
 40
0.7053650530377329
 50
265.6329461345964091
 51
268.6490802882830167
  0
ARC
  5
23B72
  8
0
 10
4512.7499363928664025
 20
304.44991817892668
 30
0.0
 40
0.5836361489229278
 50
260.9958092370844156
 51
264.9247375670341853
  0
ARC
  5
23B73
  8
0
 10
4512.6596034093799972
 20
303.8862419318559773
 30
0.0
 40
0.0128075780949406
 50
183.7848788351321048
 51
265.4770370194927978
  0
ARC
  5
23B74
  8
0
 10
4512.7712282200091067
 20
303.861112241550984
 30
0.0
 40
0.0118975034575671
 50
268.1279410059216275
 51
348.0806769602803001
  0
ARC
  5
23B75
  8
0
 10
4512.8737482346587058
 20
305.8099846499159753
 30
0.0
 40
1.9634622332263549
 50
263.4322738635862038
 51
266.9956458765494745
  0
ARC
  5
23B76
  8
0
 10
4512.6503600062796977
 20
303.8712178614670734
 30
0.0
 40
0.0118695152006498
 50
182.0619848223931001
 51
264.2565650062996951
  0
ARC
  5
23B77
  8
0
 10
4512.8476917548341589
 20
305.5532005855636157
 30
0.0
 40
1.718753956957648
 50
263.0620168953304869
 51
267.1911486844836077
  0
ARC
  5
23B78
  8
0
 10
4512.7638551914051277
 20
303.8484018230238917
 30
0.0
 40
0.0118966209211317
 50
268.1243822896017264
 51
348.0842405620202271
  0
ARC
  5
23B79
  8
0
 10
4512.6429890262552362
 20
303.8585426635094109
 30
0.0
 40
0.0118735693072804
 50
182.288093163119612
 51
255.793128738796014
  0
ARC
  5
23B7A
  8
0
 10
4512.6360289460435524
 20
303.8469490759039218
 30
0.0
 40
0.0113391092376358
 50
180.3712856982120059
 51
248.2869571772816073
  0
ARC
  5
23B7B
  8
0
 10
4512.6412768834579765
 20
303.860679763190376
 30
0.0
 40
0.0260379004352819
 50
248.7362844360685017
 51
263.5334893807719254
  0
ARC
  5
23B7C
  8
0
 10
4512.7563415412014365
 20
303.839260151449821
 30
0.0
 40
0.0142273473931088
 50
263.6561074517641146
 51
303.7161101655506172
  0
ARC
  5
23B7D
  8
0
 10
4512.7574789454820348
 20
303.8371780503089212
 30
0.0
 40
0.0118659632003623
 50
304.7284197121201146
 51
348.1909856884407759
  0
ARC
  5
23B7E
  8
0
 10
4512.7411597716627512
 20
304.188848067293975
 30
0.0
 40
0.3743356314325683
 50
265.1519314239395726
 51
271.2628115250578844
  0
ARC
  5
23B7F
  8
0
 10
4512.7497501272009686
 20
303.8310667457196814
 30
0.0
 40
0.016466915312926
 50
268.8148703338064252
 51
302.5076868291008054
  0
ARC
  5
23B80
  8
0
 10
4512.7518282820446984
 20
303.8272129705005113
 30
0.0
 40
0.0121043167475367
 50
304.0155740274537948
 51
348.0633371808689844
  0
ARC
  5
23B81
  8
0
 10
4512.6965364348207004
 20
304.1344080716143026
 30
0.0
 40
0.3164247267421451
 50
257.5227684495715721
 51
265.9212845259759206
  0
ARC
  5
23B82
  8
0
 10
4512.6316475829453339
 20
303.8374795068061758
 30
0.0
 40
0.0125150105937237
 50
182.9047446023865859
 51
253.8779321325013996
  0
ARC
  5
23B83
  8
0
 10
4512.742750035521567
 20
304.456839817388925
 30
0.0
 40
0.6522373398359624
 50
259.7825565285334051
 51
269.2506415070579919
  0
ARC
  5
23B84
  8
0
 10
4512.6299230402592002
 20
303.8315293696105073
 30
0.0
 40
0.0168299489625496
 50
221.8912774842785041
 51
260.1823975984743242
  0
ARC
  5
23B85
  8
0
 10
4512.6267133361925517
 20
303.8281603939391857
 30
0.0
 40
0.0121965277085828
 50
182.266276630273893
 51
220.1776308304744987
  0
ARC
  5
23B86
  8
0
 10
4512.7370080315258747
 20
303.8695927385568893
 30
0.0
 40
0.0649943117537255
 50
267.5412909542703233
 51
279.9692161234195282
  0
ARC
  5
23B87
  8
0
 10
4512.7462338017130605
 20
303.8190036262149079
 30
0.0
 40
0.0135758683613217
 50
278.5825435295752186
 51
321.9466666318558055
  0
ARC
  5
23B88
  8
0
 10
4512.7473501724361995
 20
303.8179945948136265
 30
0.0
 40
0.0120753037370035
 50
322.4516413572330862
 51
348.2322212027066826
  0
ARC
  5
23B89
  8
0
 10
4512.7427182455412549
 20
303.8097053121019258
 30
0.0
 40
0.012747548877699
 50
295.2623641684260747
 51
347.7259006871386191
  0
ARC
  5
23B8A
  8
0
 10
4512.7360393570452288
 20
303.8278479580388876
 30
0.0
 40
0.0320506452685195
 50
271.8234806772048842
 51
292.2174578344440761
  0
ARC
  5
23B8B
  8
0
 10
4512.7256187671318912
 20
304.325758734671183
 30
0.0
 40
0.5300686654073467
 50
259.6221766124504029
 51
271.2367088130408206
  0
ARC
  5
23B8C
  8
0
 10
4512.633710793780665
 20
303.8345706337751722
 30
0.0
 40
0.0304204375735977
 50
232.6396821157908903
 51
263.2457748612861224
  0
ARC
  5
23B8D
  8
0
 10
4512.6237702611670102
 20
303.8196046943281772
 30
0.0
 40
0.0125484786360521
 50
182.3852134262380957
 51
227.2409964717408002
  0
ARC
  5
23B8E
  8
0
 10
4513.0587519091341164
 20
303.8729710978515755
 30
0.0
 40
0.0613374700864785
 50
267.3229789561962093
 51
286.3581542018611117
  0
ARC
  5
23B8F
  8
0
 10
4513.0530681003638165
 20
303.7522336787818062
 30
0.0
 40
0.0660045871653994
 50
69.6448320296703827
 51
85.2673927267423721
  0
LINE
  5
23B90
  8
0
 10
4513.8080187515852231
 20
304.0432174307998139
 30
0.0
 11
4513.8082478866981546
 21
304.0695157283880121
 31
0.0
  0
LINE
  5
23B91
  8
0
 10
4513.6318540544843927
 20
303.8190824541998154
 30
0.0
 11
4513.6352454979441973
 21
303.9063051664069803
 31
0.0
  0
LINE
  5
23B92
  8
0
 10
4513.6285603608839665
 20
303.8276780983998151
 30
0.0
 11
4513.6318992762007838
 21
303.9139231033677788
 31
0.0
  0
LINE
  5
23B93
  8
0
 10
4513.6239380568849811
 20
303.8368453005998049
 30
0.0
 11
4513.6272247191391216
 21
303.9220279640230729
 31
0.0
  0
LINE
  5
23B94
  8
0
 10
4513.6183966340840925
 20
303.8468755971998121
 30
0.0
 11
4513.6216294911910154
 21
303.9309376560440228
 31
0.0
  0
LINE
  5
23B95
  8
0
 10
4513.5632935171843201
 20
303.9474600236998185
 30
0.0
 11
4513.5662664738301828
 21
304.0239198983038023
 31
0.0
  0
LINE
  5
23B96
  8
0
 10
4513.58687816998372
 20
303.9025110010998105
 30
0.0
 11
4513.5899330923712114
 21
303.9816875056142749
 31
0.0
  0
LINE
  5
23B97
  8
0
 10
4513.5762804268842956
 20
303.9230181650999043
 30
0.0
 11
4513.5793267285152979
 21
304.0017048859608053
 31
0.0
  0
LINE
  5
23B98
  8
0
 10
4513.6119617853846648
 20
303.8580686213998092
 30
0.0
 11
4513.6151543889545792
 21
303.9411599603661216
 31
0.0
  0
LINE
  5
23B99
  8
0
 10
4513.6045885322182585
 20
303.8707907885204236
 30
0.0
 11
4513.6077434129419998
 21
303.9529003436015273
 31
0.0
  0
LINE
  5
23B9A
  8
0
 10
4513.5962629433843176
 20
303.8853964963997782
 30
0.0
 11
4513.5993802763778149
 21
303.9663699963809904
 31
0.0
  0
LINE
  5
23B9B
  8
0
 10
4513.6387603105831658
 20
303.9514839740998013
 30
0.0
 11
4513.6071579406889214
 21
303.9376627259421753
 31
0.0
  0
LINE
  5
23B9C
  8
0
 10
4513.6406115883837629
 20
303.9399520028998154
 30
0.0
 11
4513.6146339755960071
 21
303.9276155782275168
 31
0.0
  0
LINE
  5
23B9D
  8
0
 10
4513.6545273801848452
 20
303.9261013477997722
 30
0.0
 11
4513.6507259817853992
 21
303.9240678050998099
 31
0.0
  0
LINE
  5
23B9E
  8
0
 10
4513.6507259817853992
 20
303.9240678050998099
 30
0.0
 11
4513.6268061132850562
 21
303.9111786710814727
 31
0.0
  0
LINE
  5
23B9F
  8
0
 10
4513.4564752837841297
 20
303.9605840268998236
 30
0.0
 11
4513.4614125924053951
 21
304.0305129659091108
 31
0.0
  0
LINE
  5
23BA0
  8
0
 10
4513.3448665674841322
 20
303.7336309597998252
 30
0.0
 11
4513.3510070436695969
 21
303.7970904607138891
 31
0.0
  0
LINE
  5
23BA1
  8
0
 10
4513.3443269588842668
 20
303.7458714661997874
 30
0.0
 11
4513.3504688771381552
 21
303.8094580202013049
 31
0.0
  0
LINE
  5
23BA2
  8
0
 10
4513.3428892834836006
 20
303.7588538901998163
 30
0.0
 11
4513.349079657459697
 21
303.8230301087800171
 31
0.0
  0
LINE
  5
23BA3
  8
0
 10
4513.3405433005846135
 20
303.7731347160998894
 30
0.0
 11
4513.3467859994580067
 21
303.837911632656926
 31
0.0
  0
LINE
  5
23BA4
  8
0
 10
4513.3372646946836539
 20
303.7887003403998278
 30
0.0
 11
4513.3435435944293204
 21
303.8539046088404234
 31
0.0
  0
LINE
  5
23BA5
  8
0
 10
4513.3330613823836757
 20
303.8060637863998181
 30
0.0
 11
4513.3394025468851396
 21
303.8719146543282932
 31
0.0
  0
LINE
  5
23BA6
  8
0
 10
4513.4739929409843171
 20
303.834749680299808
 30
0.0
 11
4513.4732944275683622
 21
303.8380925770891849
 31
0.0
  0
LINE
  5
23BA7
  8
0
 10
4513.4675912422835609
 20
303.8459454881997885
 30
0.0
 11
4513.4666582327718061
 21
303.850411404008014
 31
0.0
  0
LINE
  5
23BA8
  8
0
 10
4513.460217502984051
 20
303.8586550003997786
 30
0.0
 11
4513.4589767077695797
 21
303.864594153391522
 31
0.0
  0
LINE
  5
23BA9
  8
0
 10
4513.4794158437844089
 20
303.8247094312998229
 30
0.0
 11
4513.4788478755281176
 21
303.8274258711958851
 31
0.0
  0
LINE
  5
23BAA
  8
0
 10
4513.4518213453848148
 20
303.8732673964997844
 30
0.0
 11
4513.4501090456842576
 21
303.8814603588998011
 31
0.0
  0
LINE
  5
23BAB
  8
0
 10
4513.4839150286843505
 20
303.8155318904998126
 30
0.0
 11
4513.4833967037684488
 21
303.8180092868381053
 31
0.0
  0
LINE
  5
23BAC
  8
0
 10
4513.4879123008840907
 20
303.8069953273998181
 30
0.0
 11
4513.4874478490619367
 21
303.8092133717673846
 31
0.0
  0
LINE
  5
23BAD
  8
0
 10
4513.3047548662843838
 20
303.9041593692998049
 30
0.0
 11
4513.3101643140107626
 21
303.9600639673777778
 31
0.0
  0
LINE
  5
23BAE
  8
0
 10
4513.3216761447838508
 20
303.8478147659997717
 30
0.0
 11
4513.3280240588501329
 21
303.9136242184815728
 31
0.0
  0
LINE
  5
23BAF
  8
0
 10
4513.3142251435838261
 20
303.8737880214998199
 30
0.0
 11
4513.3207235219351787
 21
303.941064964403779
 31
0.0
  0
LINE
  5
23BB0
  8
0
 10
4513.3278823742848544
 20
303.8255766891998064
 30
0.0
 11
4513.3342548648051888
 21
303.8917283687251256
 31
0.0
  0
LINE
  5
23BB1
  8
0
 10
4513.4423559567849225
 20
303.8903751317997717
 30
0.0
 11
4513.4402008794477297
 21
303.9006822890320905
 31
0.0
  0
LINE
  5
23BB2
  8
0
 10
4513.4316350947847241
 20
303.9108719571997881
 30
0.0
 11
4513.4285239037881183
 21
303.925742269359489
 31
0.0
  0
LINE
  5
23BB3
  8
0
 10
4513.4193517635849275
 20
303.9353728969998087
 30
0.0
 11
4513.4177737982836334
 21
303.9429086554998207
 31
0.0
  0
LINE
  5
23BB4
  8
0
 10
4513.3114180001839486
 20
303.9529818967998267
 30
0.0
 11
4513.3019832917461827
 21
304.0062785451032141
 31
0.0
  0
LINE
  5
23BB5
  8
0
 10
4513.1858415203842014
 20
304.1390853648998132
 30
0.0
 11
4513.1215433544848565
 21
304.1387819908288748
 31
0.0
  0
LINE
  5
23BB6
  8
0
 10
4513.3221525100843792
 20
304.1417687962998002
 30
0.0
 11
4513.2326030997837734
 21
304.1396315263997963
 31
0.0
  0
LINE
  5
23BB7
  8
0
 10
4513.4454843400835671
 20
304.1460260792998156
 30
0.0
 11
4513.3221525100843792
 21
304.1417687962998002
 31
0.0
  0
LINE
  5
23BB8
  8
0
 10
4513.1928107392841412
 20
303.7849176804998024
 30
0.0
 11
4513.1910541080396797
 21
303.7966710337768745
 31
0.0
  0
LINE
  5
23BB9
  8
0
 10
4513.1886074269841629
 20
303.8022811264997927
 30
0.0
 11
4513.1866913069152361
 21
303.8151015952515763
 31
0.0
  0
LINE
  5
23BBA
  8
0
 10
4513.183395058383212
 20
303.8217931556998224
 30
0.0
 11
4513.1811732625492368
 21
303.8366552622690051
 31
0.0
  0
LINE
  5
23BBB
  8
0
 10
4513.1982826955845667
 20
303.7550672333998136
 30
0.0
 11
4513.1963687854140517
 21
303.7678587710267948
 31
0.0
  0
LINE
  5
23BBC
  8
0
 10
4513.1960178391846057
 20
303.769350183699828
 30
0.0
 11
4513.1943284644867163
 21
303.7806476812144183
 31
0.0
  0
LINE
  5
23BBD
  8
0
 10
4513.1770695568839074
 20
303.8440281091998258
 30
0.0
 11
4513.1743950419331668
 21
303.8619031158335133
 31
0.0
  0
LINE
  5
23BBE
  8
0
 10
4513.1995964716843446
 20
303.7420815649998076
 30
0.0
 11
4513.1936057205130055
 21
303.7820846216549171
 31
0.0
  0
LINE
  5
23BBF
  8
0
 10
4513.1694946563839039
 20
303.869998120299897
 30
0.0
 11
4513.1663247914239037
 21
303.8911647957700097
 31
0.0
  0
LINE
  5
23BC0
  8
0
 10
4513.1999764662841699
 20
303.7298368788999028
 30
0.0
 11
4513.1930387522970705
 21
303.7761098334738108
 31
0.0
  0
LINE
  5
23BC1
  8
0
 10
4513.1598647650853309
 20
303.9003652884998132
 30
0.0
 11
4513.1563119920401732
 21
303.9240614668473768
 31
0.0
  0
ARC
  5
23BC2
  8
0
 10
4513.7234964516492255
 20
303.7703601489429843
 30
0.0
 40
0.1887625425945227
 50
114.0743945873057044
 51
116.046211823706102
  0
ARC
  5
23BC3
  8
0
 10
4513.708831752084734
 20
303.8032986345997983
 30
0.0
 40
0.1527071061
 50
113.5217129441915063
 51
114.092117125485899
  0
ARC
  5
23BC4
  8
0
 10
4513.7957668308836219
 20
304.0435306840997782
 30
0.0
 40
0.0122697832
 50
342.9886796536815154
 51
348.1574768063107967
  0
ARC
  5
23BC5
  8
0
 10
4513.4564537968326476
 20
304.9651753382275956
 30
0.0
 40
1.151907436188645
 50
273.8382991532690767
 51
275.6098118971116264
  0
ARC
  5
23BC6
  8
0
 10
4513.4197612491707332
 20
305.0260957621392208
 30
0.0
 40
1.14714812381783
 50
273.8290133170416993
 51
275.7662761881296092
  0
ARC
  5
23BC7
  8
0
 10
4513.1447476728835682
 20
304.708936410199783
 30
0.0
 40
0.9523153858
 50
282.3998307203875129
 51
290.7880794212791784
  0
ARC
  5
23BC8
  8
0
 10
4513.4167747390620207
 20
305.389353071686628
 30
0.0
 40
1.5658683433748779
 50
272.6186813123262027
 51
276.8944369969347008
  0
ARC
  5
23BC9
  8
0
 10
4513.3885718139472374
 20
305.4925767630602991
 30
0.0
 40
1.6315019168504941
 50
274.111900529890022
 51
275.4942458965355172
  0
ARC
  5
23BCA
  8
0
 10
4513.2285366070145756
 20
305.3056122195799276
 30
0.0
 40
1.5474638217948169
 50
270.1682428061675978
 51
272.1966499353513882
  0
LINE
  5
23BCB
  8
0
 10
4513.3247712339543796
 20
303.7778670748340915
 30
0.0
 11
4513.2088212739836308
 21
303.7747314118997792
 31
0.0
  0
LINE
  5
23BCC
  8
0
 10
4513.2012092144841517
 20
303.7921477718998062
 30
0.0
 11
4513.2049271219848379
 21
303.7920995520997849
 31
0.0
  0
LINE
  5
23BCD
  8
0
 10
4513.2049271219848379
 20
303.7920995520997849
 30
0.0
 11
4513.3209981457275717
 21
303.7952620735684945
 31
0.0
  0
LINE
  5
23BCE
  8
0
 10
4513.6918806162675537
 20
304.1483515892567766
 30
0.0
 11
4513.6968180254852996
 21
304.1472947136998073
 31
0.0
  0
LINE
  5
23BCF
  8
0
 10
4513.5987236265100364
 20
303.9493133527126929
 30
0.0
 11
4513.6314491777839066
 21
303.9623276579998219
 31
0.0
  0
LINE
  5
23BD0
  8
0
 10
4513.6315228414523517
 20
303.9041997010896239
 30
0.0
 11
4513.6596363399848997
 21
303.9201001732997725
 31
0.0
  0
LINE
  5
23BD1
  8
0
 10
4513.6596363399848997
 20
303.9201001732997725
 30
0.0
 11
4513.6623866778845695
 21
303.9216209094997794
 31
0.0
  0
LINE
  5
23BD2
  8
0
 10
4513.6623866778845695
 20
303.9216209094997794
 30
0.0
 11
4513.6638582179839432
 21
303.9224047914999005
 31
0.0
  0
LINE
  5
23BD3
  8
0
 10
4513.6211689234642108
 20
303.9189617876198781
 30
0.0
 11
4513.6505792379839477
 21
303.9338528468998106
 31
0.0
  0
LINE
  5
23BD4
  8
0
 10
4513.8077754559835739
 20
304.0410126487997786
 30
0.0
 11
4513.8080187515852231
 21
304.0432174307998139
 31
0.0
  0
LINE
  5
23BD5
  8
0
 10
4513.1922458773760809
 20
303.788697085874503
 30
0.0
 11
4513.1816900486846862
 21
303.7873224813998263
 31
0.0
  0
LINE
  5
23BD6
  8
0
 10
4513.1815859196840393
 20
303.7833638730998018
 30
0.0
 11
4513.1932199192151529
 21
303.7831393440101806
 31
0.0
  0
LINE
  5
23BD7
  8
0
 10
4513.8184580296838249
 20
304.0649649274997728
 30
0.0
 11
4513.8212627412840448
 21
304.0637739964997763
 31
0.0
  0
ARC
  5
23BD8
  8
0
 10
4513.1199738159875778
 20
303.9735670381347177
 30
0.0
 40
0.7766397165498309
 50
68.7848541425444324
 51
89.8842088668547063
  0
ARC
  5
23BD9
  8
0
 10
4513.0359126367447971
 20
303.787617189720379
 30
0.0
 40
0.9804692524173503
 50
47.6188156661736386
 51
68.1376880841205974
  0
ARC
  5
23BDA
  8
0
 10
4512.9821997796752839
 20
303.7057416130231218
 30
0.0
 40
1.0772662128185331
 50
34.37049300025825
 51
48.4439016563675224
  0
ARC
  5
23BDB
  8
0
 10
4513.3264105668849879
 20
303.945851472210677
 30
0.0
 40
0.6576123993741018
 50
25.8659831541473118
 51
34.0336342496241571
  0
ARC
  5
23BDC
  8
0
 10
4513.8616810938774506
 20
304.2114337101718888
 30
0.0
 40
0.060348942993882
 50
333.4199605238874824
 51
20.6806541021500401
  0
ARC
  5
23BDD
  8
0
 10
4513.0960368796122566
 20
313.8301357963262035
 30
0.0
 40
9.6914665215308808
 50
270.5309310540533261
 51
270.8074038123431819
  0
ARC
  5
23BDE
  8
0
 10
4513.6505989523438984
 20
299.8403895352773816
 30
0.0
 40
4.3105194644478528
 50
90.6499257338179945
 51
92.7274302566485744
  0
ARC
  5
23BDF
  8
0
 10
4513.6252898749489759
 20
303.1061533055570862
 30
0.0
 40
1.0447446381848271
 50
87.6643277346422707
 51
91.2935878228912401
  0
ARC
  5
23BE0
  8
0
 10
4513.6551290825818796
 20
303.7951583849836084
 30
0.0
 40
0.3551001475259008
 50
84.0594639922224616
 51
87.9442384178862824
  0
ARC
  5
23BE1
  8
0
 10
4513.6786255423776311
 20
303.9850854550040253
 30
0.0
 40
0.1638033198006034
 50
79.6463594975706854
 51
85.3585123476966601
  0
ARC
  5
23BE2
  8
0
 10
4513.7045269276623003
 20
304.1216157273598242
 30
0.0
 40
0.0248589131870642
 50
49.6471923944689308
 51
81.8179768786456947
  0
ARC
  5
23BE3
  8
0
 10
4513.6164793329817257
 20
304.0549182306871785
 30
0.0
 40
0.1348346887350096
 50
30.1787563265815493
 51
39.4319483898361298
  0
ARC
  5
23BE4
  8
0
 10
4514.1806873856839957
 20
304.4772380026012115
 30
0.0
 40
0.5710401553133179
 50
218.3792777411470922
 51
219.9957757444377933
  0
ARC
  5
23BE5
  8
0
 10
4513.9234636808760115
 20
304.3146667519077937
 30
0.0
 40
0.2725617174974176
 50
228.6007857701997921
 51
236.6262155035508954
  0
ARC
  5
23BE6
  8
0
 10
4513.8892795147239667
 20
304.2731047341073918
 30
0.0
 40
0.2191223584905487
 50
238.1126188276149094
 51
248.2966660860205081
  0
ARC
  5
23BE7
  8
0
 10
4513.7634167011256068
 20
303.9552037134317857
 30
0.0
 40
0.1227887289742574
 50
63.3678703351476784
 51
68.5857514384322258
  0
ARC
  5
23BE8
  8
0
 10
4513.8244270177228827
 20
304.0750977054282771
 30
0.0
 40
0.0117575094844502
 50
254.387608416298491
 51
275.9692635902990787
  0
ARC
  5
23BE9
  8
0
 10
4513.8244693107480998
 20
304.0750907915464154
 30
0.0
 40
0.0117463075931387
 50
275.7675932776280092
 51
300.6359392417032268
  0
ARC
  5
23BEA
  8
0
 10
4513.8244388684206569
 20
304.0751550142387032
 30
0.0
 40
0.0118170808912618
 50
300.604261632447276
 51
320.182142641822395
  0
ARC
  5
23BEB
  8
0
 10
4513.452202621448123
 20
304.3563411073641873
 30
0.0
 40
0.478307224452398
 50
315.949458503723406
 51
322.8647856029355125
  0
ARC
  5
23BEC
  8
0
 10
4513.2226826470850938
 20
304.5684126344767719
 30
0.0
 40
0.7907535772722784
 50
301.4063768644929269
 51
316.4684089926681168
  0
ARC
  5
23BED
  8
0
 10
4513.7569775675528945
 20
304.0636029126986841
 30
0.0
 40
0.0557886915224143
 50
319.2681772236679762
 51
334.9041354338407928
  0
ARC
  5
23BEE
  8
0
 10
4513.7054263949266897
 20
303.9128306217648969
 30
0.0
 40
0.1659093475810498
 50
51.8032416342867776
 51
60.6933093655296219
  0
ARC
  5
23BEF
  8
0
 10
4513.8920212622288091
 20
304.2225228672169806
 30
0.0
 40
0.1957975238424691
 50
226.7449744787768964
 51
237.4365119156663013
  0
ARC
  5
23BF0
  8
0
 10
4513.9584596244330896
 20
304.296948142531221
 30
0.0
 40
0.2955404826632593
 50
220.6000370058156932
 51
227.2513455124255017
  0
ARC
  5
23BF1
  8
0
 10
4513.8551905360700403
 20
304.189059997050208
 30
0.0
 40
0.1476550980118112
 50
206.7112179945071944
 51
214.8819618912519047
  0
ARC
  5
23BF2
  8
0
 10
4513.6688321657256893
 20
304.0990341594297774
 30
0.0
 40
0.0593762918008874
 50
23.478462655801529
 51
40.5521469387593925
  0
ARC
  5
23BF3
  8
0
 10
4513.692444111677105
 20
304.1180295433579204
 30
0.0
 40
0.0291004215404461
 50
42.3600881752864282
 51
59.5827099684158483
  0
ARC
  5
23BF4
  8
0
 10
4513.6871552823449747
 20
304.1083376982741129
 30
0.0
 40
0.0401374844235998
 50
60.0766889849195707
 51
76.0697137466152356
  0
ARC
  5
23BF5
  8
0
 10
4513.0905428583882895
 20
304.6373787251291105
 30
0.0
 40
0.9652714881906462
 50
271.8404180470978986
 51
285.9182706009657977
  0
ARC
  5
23BF6
  8
0
 10
4513.0925388709247272
 20
304.5262873990178036
 30
0.0
 40
0.85836754213597
 50
287.8242652844094778
 51
301.7490494718350078
  0
ARC
  5
23BF7
  8
0
 10
4513.0019829284583466
 20
304.6895115187635952
 30
0.0
 40
1.0439814929233291
 50
307.2136377987661717
 51
331.0659585695220244
  0
ARC
  5
23BF8
  8
0
 10
4513.3029542873928222
 20
302.8552010915689152
 30
0.0
 40
1.116132986548332
 50
89.7321823398213638
 51
95.4247849401109676
  0
ARC
  5
23BF9
  8
0
 10
4513.2354037778959537
 20
303.7841104009713717
 30
0.0
 40
0.109604301273143
 50
81.4089622080428654
 51
101.5910275852807985
  0
ARC
  5
23BFA
  8
0
 10
4513.2296827614381982
 20
304.0025879487441216
 30
0.0
 40
0.1122978766075384
 50
261.6534475757985092
 51
281.3465422175639787
  0
ARC
  5
23BFB
  8
0
 10
4513.2456753726310126
 20
303.7261884744593772
 30
0.0
 40
0.1367890929387895
 50
83.4439739869785484
 51
99.5560116316501933
  0
ARC
  5
23BFC
  8
0
 10
4513.2385282859413564
 20
303.9991260126079737
 30
0.0
 40
0.138920888565267
 50
263.5683988848948047
 51
279.4315867337897998
  0
ARC
  5
23BFD
  8
0
 10
4513.2543865392326552
 20
303.6544550388422863
 30
0.0
 40
0.182200540162492
 50
85.4688580356317544
 51
97.5311466402632021
  0
ARC
  5
23BFE
  8
0
 10
4513.2448367104998397
 20
304.0191477160768159
 30
0.0
 40
0.1846208438550777
 50
265.5482114145445962
 51
277.451793261301475
  0
ARC
  5
23BFF
  8
0
 10
4513.2167580480636389
 20
304.4188360963976834
 30
0.0
 40
0.5324135193402715
 50
266.5329888302571817
 51
277.9492215920002991
  0
ARC
  5
23C00
  8
0
 10
4513.1859235959018406
 20
303.9426507669963939
 30
0.0
 40
0.0552705571583305
 50
250.8548102412138974
 51
268.5872894874314056
  0
ARC
  5
23C01
  8
0
 10
4513.1730977146580699
 20
303.90301495460659
 30
0.0
 40
0.0136491301404899
 50
214.9161474639967935
 51
247.1473020113106998
  0
ARC
  5
23C02
  8
0
 10
4513.1715109952274361
 20
303.901984173634105
 30
0.0
 40
0.0117582084357399
 50
187.9136937815418094
 51
215.2229960027694915
  0
ARC
  5
23C03
  8
0
 10
4513.2873704050743981
 20
303.9122218135877915
 30
0.0
 40
0.0209023119191058
 50
278.3017075691628861
 51
309.8154691005972836
  0
ARC
  5
23C04
  8
0
 10
4513.2922665169344327
 20
303.9054121916809095
 30
0.0
 40
0.0125510331607535
 50
312.5535247285519063
 51
354.2712944084688047
  0
ARC
  5
23C05
  8
0
 10
4513.3020480521918216
 20
303.8749816185001009
 30
0.0
 40
0.0122354496670765
 50
316.9385603164992062
 51
354.4017583053475846
  0
ARC
  5
23C06
  8
0
 10
4513.3007332679926549
 20
303.8763579157811137
 30
0.0
 40
0.0141361825370007
 50
288.6832287936086914
 51
316.5014595170139273
  0
ARC
  5
23C07
  8
0
 10
4513.2465889292043357
 20
304.1729463639485971
 30
0.0
 40
0.3154836017886511
 50
270.0159074229756015
 51
280.7180932451590252
  0
ARC
  5
23C08
  8
0
 10
4513.2234429723775975
 20
304.4312080128478897
 30
0.0
 40
0.5742154616757553
 50
266.6698788103394122
 51
272.3188989940151146
  0
ARC
  5
23C09
  8
0
 10
4513.1899748311379881
 20
303.8924000239441057
 30
0.0
 40
0.0344380461297458
 50
245.4862766614818952
 51
270.1873684808090843
  0
ARC
  5
23C0A
  8
0
 10
4513.1818054038249102
 20
303.871919795698318
 30
0.0
 40
0.0124598290075507
 50
188.8721227665020024
 51
240.5856090470512072
  0
ARC
  5
23C0B
  8
0
 10
4513.2208310752330362
 20
304.9061410215571186
 30
0.0
 40
1.0738576104567941
 50
268.7842315231466728
 51
274.4101841510499185
  0
ARC
  5
23C0C
  8
0
 10
4513.3019482590898406
 20
303.8685149196268185
 30
0.0
 40
0.0330840851092315
 50
272.526577727662584
 51
292.9873770090973153
  0
ARC
  5
23C0D
  8
0
 10
4513.3095203981629311
 20
303.8490429094990759
 30
0.0
 40
0.012217631209858
 50
295.9597062564902217
 51
354.2307565801133933
  0
ARC
  5
23C0E
  8
0
 10
4513.2007111868952052
 20
303.9085640001651996
 30
0.0
 40
0.0760855230001961
 50
260.3090436702469788
 51
267.9929058758320934
  0
ARC
  5
23C0F
  8
0
 10
4513.1896268538112054
 20
303.8461889860839165
 30
0.0
 40
0.0127418638739762
 50
189.7639095151666027
 51
262.226494945102786
  0
ARC
  5
23C10
  8
0
 10
4513.2153199984995808
 20
305.3226155269746869
 30
0.0
 40
1.5113779705174339
 50
269.3170319894480258
 51
273.8221701974551934
  0
ARC
  5
23C11
  8
0
 10
4513.3156366515613627
 20
303.8269097353664279
 30
0.0
 40
0.0123180654779365
 50
272.0087942451697245
 51
353.7873530998709271
  0
ARC
  5
23C12
  8
0
 10
4513.1949095390373259
 20
303.823307521947811
 30
0.0
 40
0.0116136373335134
 50
187.492448338461287
 51
257.0534912151881031
  0
ARC
  5
23C13
  8
0
 10
4513.1980580951430966
 20
303.8368934156126784
 30
0.0
 40
0.0255595913930525
 50
256.9980828271998803
 51
268.3109900133270003
  0
ARC
  5
23C14
  8
0
 10
4513.2004516110837358
 20
303.8041080564797198
 30
0.0
 40
0.0119842550933364
 50
188.7685972218563109
 51
273.6244590045076279
  0
ARC
  5
23C15
  8
0
 10
4513.321081098569266
 20
303.8073063355885211
 30
0.0
 40
0.0120445476784934
 50
269.6053911375598204
 51
354.0786724510978161
  0
ARC
  5
23C16
  8
0
 10
4513.2075073408486787
 20
303.8194009505249937
 30
0.0
 40
0.0446888588047564
 50
263.8388286334421764
 51
271.684842173454399
  0
ARC
  5
23C17
  8
0
 10
4513.2045260332297403
 20
303.7866770262357932
 30
0.0
 40
0.0118466623837292
 50
188.5405785021870884
 51
261.1873743805070944
  0
ARC
  5
23C18
  8
0
 10
4513.1875176260309672
 20
303.7427962161206096
 30
0.0
 40
0.0449060013522681
 50
97.4564632609716455
 51
110.4419315750190975
  0
ARC
  5
23C19
  8
0
 10
4513.1814597761158439
 20
303.8147860470883757
 30
0.0
 40
0.0314224271877451
 50
252.1612397959578118
 51
270.2300113051496169
  0
ARC
  5
23C1A
  8
0
 10
4513.3252311759852091
 20
303.7899573197768746
 30
0.0
 40
0.0120989904309292
 50
267.8213811599075029
 51
354.0367088481170867
  0
ARC
  5
23C1B
  8
0
 10
4513.2529420867831504
 20
304.4398217307492018
 30
0.0
 40
0.6969050377249097
 50
266.6707367836870048
 51
276.2268099986098946
  0
ARC
  5
23C1C
  8
0
 10
4513.330712016841062
 20
303.7600443775356212
 30
0.0
 40
0.0122353211226595
 50
288.931029852155973
 51
354.416330738188492
  0
ARC
  5
23C1D
  8
0
 10
4513.324026993116604
 20
303.7800606586213803
 30
0.0
 40
0.0333381737316466
 50
277.7654146588583899
 51
288.6380933614041169
  0
ARC
  5
23C1E
  8
0
 10
4513.2115898830734295
 20
303.7576127027878101
 30
0.0
 40
0.0135484557522269
 50
190.8290268638546934
 51
273.7249556174946861
  0
ARC
  5
23C1F
  8
0
 10
4513.2753547048059772
 20
304.2420492657765863
 30
0.0
 40
0.4829254066908469
 50
271.4826391776082914
 51
276.3195807590158211
  0
ARC
  5
23C20
  8
0
 10
4513.3277866249891304
 20
303.77529956212868
 30
0.0
 40
0.0132610229572845
 50
273.1366308779652172
 51
319.3556533998403211
  0
ARC
  5
23C21
  8
0
 10
4513.3286084184092033
 20
303.7743058554797813
 30
0.0
 40
0.011992204968084
 50
320.4006412139436861
 51
354.3956542087860271
  0
ARC
  5
23C22
  8
0
 10
4513.2280481850375509
 20
304.0160325655946281
 30
0.0
 40
0.2579265940864796
 50
265.6336820692081915
 51
271.1179618818441099
  0
ARC
  5
23C23
  8
0
 10
4513.2084746565706155
 20
303.7714944162382267
 30
0.0
 40
0.012640017110779
 50
189.7667967355872065
 51
269.7136693295017267
  0
ARC
  5
23C24
  8
0
 10
4513.3320321840219549
 20
303.7471150988764066
 30
0.0
 40
0.0123575123371761
 50
310.9250960472829206
 51
354.224101822961984
  0
ARC
  5
23C25
  8
0
 10
4513.3274379949762078
 20
303.7543876145044806
 30
0.0
 40
0.0209019250372701
 50
276.3626933555249252
 51
307.3790335129793903
  0
ARC
  5
23C26
  8
0
 10
4513.2526708326577136
 20
304.3958957333417175
 30
0.0
 40
0.6667521177021642
 50
267.6357770940409182
 51
276.6388395551380199
  0
ARC
  5
23C27
  8
0
 10
4513.224819401672903
 20
303.7883891132103145
 30
0.0
 40
0.0586789716707299
 50
252.7567128451595977
 51
270.3385579502170799
  0
ARC
  5
23C28
  8
0
 10
4513.2120432108349632
 20
303.7440767784345894
 30
0.0
 40
0.0126056412814962
 50
189.1070409785887136
 51
248.5096964601827096
  0
ARC
  5
23C29
  8
0
 10
4513.2597905145503319
 20
304.2251191709029854
 30
0.0
 40
0.5091558024533521
 50
265.0202641264617114
 51
277.8042924553352009
  0
ARC
  5
23C2A
  8
0
 10
4513.2167942103023961
 20
303.7381983897390114
 30
0.0
 40
0.0203486158563346
 50
232.2603564806354086
 51
266.6187525053460945
  0
ARC
  5
23C2B
  8
0
 10
4513.2123487329618001
 20
303.7317234464612739
 30
0.0
 40
0.0125152754623254
 50
188.669882175659211
 51
230.2104911938114924
  0
ARC
  5
23C2C
  8
0
 10
4513.3261490211743876
 20
303.7442250481901169
 30
0.0
 40
0.0237092172952544
 50
276.7328112927422126
 51
308.1672986588002914
  0
ARC
  5
23C2D
  8
0
 10
4513.3325037927006633
 20
303.7348278849153758
 30
0.0
 40
0.0124205809079062
 50
311.9105536866342163
 51
354.4700379175292255
  0
ARC
  5
23C2E
  8
0
 10
4513.1904748445449513
 20
303.8647397606874847
 30
0.0
 40
0.0942496450634606
 50
259.1665727292173074
 51
272.0657114132712877
  0
ARC
  5
23C2F
  8
0
 10
4513.2068300738728794
 20
303.6509722982776225
 30
0.0
 40
0.1258952074775607
 50
95.6305782327220584
 51
105.7012112686014973
  0
ARC
  5
23C30
  8
0
 10
4513.1878252401684222
 20
303.869369281710874
 30
0.0
 40
0.0726344791313379
 50
255.7426912284132925
 51
272.4670928944678963
  0
ARC
  5
23C31
  8
0
 10
4513.1977236978018482
 20
303.7115719810404926
 30
0.0
 40
0.0917107304769583
 50
95.7553689535047425
 51
107.6367668209059048
  0
ARC
  5
23C32
  8
0
 10
4513.1857851965478403
 20
303.7759480312341225
 30
0.0
 40
0.059418767832303
 50
94.2418286916708325
 51
112.3585949019552999
  0
ARC
  5
23C33
  8
0
 10
4513.1817516273413275
 20
303.8904594003500961
 30
0.0
 40
0.0623872969215755
 50
252.6836053513804927
 51
270.6467171355827759
  0
ARC
  5
23C34
  8
0
 10
4513.1762354349557427
 20
303.8951216747919943
 30
0.0
 40
0.0488993562396878
 50
248.4440152322239044
 51
270.592223019329424
  0
ARC
  5
23C35
  8
0
 10
4513.180578850378879
 20
303.800138934990116
 30
0.0
 40
0.0542983175376382
 50
95.3171845644556868
 51
114.2594834814140938
  0
ARC
  5
23C36
  8
0
 10
4513.1708366170332738
 20
303.9133373439906904
 30
0.0
 40
0.0469220684196407
 50
246.7212459850996993
 51
269.7442559776906137
  0
ARC
  5
23C37
  8
0
 10
4513.1719761399162962
 20
303.8336342171731985
 30
0.0
 40
0.0415578656318229
 50
94.4720333189574433
 51
118.2706604801501982
  0
ARC
  5
23C38
  8
0
 10
4513.1666554967187039
 20
303.926253551874197
 30
0.0
 40
0.0371367177201594
 50
241.8129902954705983
 51
269.9629578285125717
  0
ARC
  5
23C39
  8
0
 10
4513.1626860626347479
 20
303.8751649133633919
 30
0.0
 40
0.0228285642618074
 50
95.5215187019964134
 51
126.4787069224425977
  0
ARC
  5
23C3A
  8
0
 10
4513.1678763755498949
 20
304.0054806211160781
 30
0.0
 40
0.0896033135511221
 50
255.9424335777978001
 51
263.3163882115915158
  0
ARC
  5
23C3B
  8
0
 10
4513.1518592345073557
 20
303.9407045872176809
 30
0.0
 40
0.0228775144525056
 50
244.2531320506020904
 51
255.450503528098892
  0
ARC
  5
23C3C
  8
0
 10
4513.1434658748621587
 20
303.9227612310024256
 30
0.0
 40
0.0030784368190241
 50
197.9023113428683871
 51
239.8855320373814948
  0
ARC
  5
23C3D
  8
0
 10
4513.3809822992116096
 20
303.6305202842249855
 30
0.0
 40
0.1692457965218304
 50
92.4614056407321669
 51
100.8090039063616956
  0
ARC
  5
23C3E
  8
0
 10
4513.315767893112934
 20
303.9325657048181029
 30
0.0
 40
0.1450343607281593
 50
283.8515697677498224
 51
293.5489406708624074
  0
ARC
  5
23C3F
  8
0
 10
4513.3269235673260482
 20
303.9101229496769747
 30
0.0
 40
0.1090001575377361
 50
282.1689902181203138
 51
295.3585214629744087
  0
ARC
  5
23C40
  8
0
 10
4513.3776464184293218
 20
303.6439159126189224
 30
0.0
 40
0.1677581835063082
 50
91.379997040983497
 51
100.2743447755779016
  0
ARC
  5
23C41
  8
0
 10
4513.3734404181741411
 20
303.6580565564042899
 30
0.0
 40
0.1667624647397024
 50
90.2865911627303035
 51
99.7170978660237637
  0
ARC
  5
23C42
  8
0
 10
4513.3179742320653531
 20
303.944784094304282
 30
0.0
 40
0.1318210159968921
 50
283.368579981483208
 51
294.4841265580856202
  0
ARC
  5
23C43
  8
0
 10
4513.3233213977182459
 20
303.9351162396520749
 30
0.0
 40
0.1071961408198826
 50
282.2456911095247278
 51
296.2330563868716808
  0
ARC
  5
23C44
  8
0
 10
4513.3628356258896019
 20
303.7451975394423016
 30
0.0
 40
0.0940930049961629
 50
85.2027622371772395
 51
102.8499993661485945
  0
ARC
  5
23C45
  8
0
 10
4513.324263275818339
 20
303.9382201186310795
 30
0.0
 40
0.0942730700518884
 50
281.315789356454502
 51
297.5507322160947865
  0
ARC
  5
23C46
  8
0
 10
4513.3599386864616463
 20
303.7137727827279718
 30
0.0
 40
0.1410876597450388
 50
86.7783012504931861
 51
99.1147190976950156
  0
ARC
  5
23C47
  8
0
 10
4513.3231292524505989
 20
303.9455701873512794
 30
0.0
 40
0.0842294551046188
 50
280.5290858951124164
 51
299.1328686723501846
  0
ARC
  5
23C48
  8
0
 10
4513.3522215557877644
 20
303.7348987705358923
 30
0.0
 40
0.1376142412711084
 50
85.0335167860094145
 51
98.3388884597167134
  0
ARC
  5
23C49
  8
0
 10
4513.3167616444952728
 20
303.9630896146476857
 30
0.0
 40
0.0837483134920515
 50
281.3328602691278775
 51
300.6412841764832251
  0
ARC
  5
23C4A
  8
0
 10
4513.3432416531559284
 20
303.7603586196257766
 30
0.0
 40
0.1316767760209266
 50
82.9316412852709703
 51
97.5984482309647063
  0
ARC
  5
23C4B
  8
0
 10
4513.320606685488201
 20
303.9512643137891814
 30
0.0
 40
0.0489606598832825
 50
277.4703024332516748
 51
306.4962446898049961
  0
ARC
  5
23C4C
  8
0
 10
4513.3298465621701325
 20
303.7987823440809052
 30
0.0
 40
0.1148563347587173
 50
80.0324846935285592
 51
95.9124510015471259
  0
ARC
  5
23C4D
  8
0
 10
4513.3213366730760754
 20
303.5919121133524072
 30
0.0
 40
0.3491533894317445
 50
89.0082742468989778
 51
92.1394050690485358
  0
ARC
  5
23C4E
  8
0
 10
4513.2910906599317968
 20
304.0503096056220897
 30
0.0
 40
0.125392866393747
 50
283.0845586631082824
 51
292.1874251604228903
  0
ARC
  5
23C4F
  8
0
 10
4513.3341245253823217
 20
303.9456058411166737
 30
0.0
 40
0.0121947179087362
 50
290.7435350363849125
 51
314.152530983193401
  0
ARC
  5
23C50
  8
0
 10
4513.3419028701318894
 20
303.9377691194168278
 30
0.0
 40
0.0011602316772545
 50
308.1148420536496246
 51
51.5638513488036807
  0
ARC
  5
23C51
  8
0
 10
4513.3390810824412256
 20
303.9340856607842056
 30
0.0
 40
0.005800176666167
 50
52.3490281581251722
 51
79.4853485822349484
  0
ARC
  5
23C52
  8
0
 10
4513.3894159996843882
 20
303.8551240305092165
 30
0.0
 40
0.0936006794493788
 50
81.207197681032028
 51
104.9708973771105036
  0
ARC
  5
23C53
  8
0
 10
4513.3795772578960168
 20
304.0374365672266777
 30
0.0
 40
0.0930012839304557
 50
261.1294906822815847
 51
285.0486041933414754
  0
ARC
  5
23C54
  8
0
 10
4513.4464543667581893
 20
303.592387162887519
 30
0.0
 40
0.4383810759919545
 50
84.6037998061759708
 51
112.3765138788182014
  0
ARC
  5
23C55
  8
0
 10
4513.3020890959669487
 20
304.0273911361844057
 30
0.0
 40
0.0372199739204064
 50
232.7623907222030084
 51
274.202967627975795
  0
ARC
  5
23C56
  8
0
 10
4513.4488953508080158
 20
304.0659710474363919
 30
0.0
 40
0.0537038429855428
 50
282.1619673254381837
 51
316.2371261525790942
  0
ARC
  5
23C57
  8
0
 10
4513.443452840278951
 20
303.9616284963391877
 30
0.0
 40
0.0130642623699223
 50
309.8460841513764876
 51
355.4143889380731025
  0
ARC
  5
23C58
  8
0
 10
4513.4293192532331886
 20
303.9862866769531138
 30
0.0
 40
0.0413489115121323
 50
275.3309506343883868
 51
302.9735472464034274
  0
ARC
  5
23C59
  8
0
 10
4513.3903379597131789
 20
304.1888271397883727
 30
0.0
 40
0.2474441879553571
 50
276.3658660903503801
 51
279.9658443202932858
  0
ARC
  5
23C5A
  8
0
 10
4513.3581788735664304
 20
304.4583224605344753
 30
0.0
 40
0.5188477093255864
 50
268.0075346486374883
 51
276.5955586720583028
  0
ARC
  5
23C5B
  8
0
 10
4513.3398473441793612
 20
304.0038229568838801
 30
0.0
 40
0.0640351810564785
 50
251.6641414195104005
 51
270.2614436053257236
  0
ARC
  5
23C5C
  8
0
 10
4513.3245185279401994
 20
303.9554745697731732
 30
0.0
 40
0.013335563206719
 50
190.7730472835247042
 51
248.830753468945602
  0
ARC
  5
23C5D
  8
0
 10
4513.5012952311253684
 20
303.8226551330196799
 30
0.0
 40
0.1105890385105834
 50
84.7578853353825821
 51
104.8421158637004993
  0
ARC
  5
23C5E
  8
0
 10
4513.4828605848106235
 20
304.042187453395286
 30
0.0
 40
0.1130667195098143
 50
264.9801482009713141
 51
284.619852998060594
  0
ARC
  5
23C5F
  8
0
 10
4513.5162312321408535
 20
303.7705536516073153
 30
0.0
 40
0.1379419161134349
 50
86.7698931896798484
 51
102.8141670740969005
  0
ARC
  5
23C60
  8
0
 10
4513.493186424508167
 20
304.0452171545966848
 30
0.0
 40
0.1403654918238561
 50
266.9173711280932935
 51
282.6826282087170057
  0
ARC
  5
23C61
  8
0
 10
4513.530749508136978
 20
303.7043268597569181
 30
0.0
 40
0.1834621517842957
 50
88.7853166467097594
 51
100.8146814209459023
  0
ARC
  5
23C62
  8
0
 10
4513.4999988753233993
 20
304.0705264532612091
 30
0.0
 40
0.1860321372432526
 50
268.8687081229364253
 51
280.7312899447658197
  0
ARC
  5
23C63
  8
0
 10
4513.5467778173533588
 20
303.608415514055423
 30
0.0
 40
0.2622179363846604
 50
90.5964603735418734
 51
98.9975463926315484
  0
ARC
  5
23C64
  8
0
 10
4513.5028898882001158
 20
304.131390945306407
 30
0.0
 40
0.2639997761351194
 50
270.6248619010011112
 51
278.96914486516539
  0
ARC
  5
23C65
  8
0
 10
4513.5507850433932617
 20
303.9479837294812796
 30
0.0
 40
0.012519432268967
 50
316.7580290683804947
 51
357.602535932333808
  0
ARC
  5
23C66
  8
0
 10
4513.5463447676020223
 20
303.9532929642958834
 30
0.0
 40
0.0194088516516567
 50
284.5745306892662256
 51
314.3199264370942956
  0
ARC
  5
23C67
  8
0
 10
4513.4497552680686567
 20
304.4220393780465201
 30
0.0
 40
0.4979789857160355
 50
268.5406062995672869
 51
281.7575464858165901
  0
ARC
  5
23C68
  8
0
 10
4513.4377579068041086
 20
303.9528695187973995
 30
0.0
 40
0.0286557930231277
 50
245.8193213499594094
 51
268.6294431542755206
  0
ARC
  5
23C69
  8
0
 10
4513.4321390630238966
 20
303.9384648803982145
 30
0.0
 40
0.0132361574568451
 50
210.3803951918499138
 51
242.4646929687280874
  0
ARC
  5
23C6A
  8
0
 10
4513.431436439405843
 20
303.937903567683918
 30
0.0
 40
0.0123468086492163
 50
191.8274836121046008
 51
209.7822512981780108
  0
ARC
  5
23C6B
  8
0
 10
4513.5640384306816486
 20
303.9235144587245259
 30
0.0
 40
0.0122520520072641
 50
319.1620591421806807
 51
357.6784858512206142
  0
ARC
  5
23C6C
  8
0
 10
4513.5622093165129627
 20
303.9253742124450923
 30
0.0
 40
0.0148535216629275
 50
288.7617672959381139
 51
318.3484246205961767
  0
ARC
  5
23C6D
  8
0
 10
4513.5405920743178285
 20
303.9929668845222182
 30
0.0
 40
0.0858168546830664
 50
278.3231365208667967
 51
287.9128123835004089
  0
ARC
  5
23C6E
  8
0
 10
4513.4624487983010113
 20
304.4793973644401035
 30
0.0
 40
0.5784768862119706
 50
275.1714675025463066
 51
279.0072241324156721
  0
ARC
  5
23C6F
  8
0
 10
4513.4535329825439476
 20
304.4865032512944936
 30
0.0
 40
0.586415370705789
 50
269.7737615636826263
 51
275.9764885962662788
  0
ARC
  5
23C70
  8
0
 10
4513.4498704176512547
 20
303.9301590587779742
 30
0.0
 40
0.0300967668289576
 50
246.5388969081041921
 51
272.5652572737013202
  0
ARC
  5
23C71
  8
0
 10
4513.443709346452124
 20
303.9134346853649049
 30
0.0
 40
0.0123432219854225
 50
191.9830493619201093
 51
241.8608309973332098
  0
ARC
  5
23C72
  8
0
 10
4513.4180251754060009
 20
304.0119436632456882
 30
0.0
 40
0.0898458689208863
 50
269.753078074762584
 51
277.1075204064829904
  0
ARC
  5
23C73
  8
0
 10
4513.4175562263344545
 20
303.9362792034099243
 30
0.0
 40
0.0141808103902638
 50
254.7729030586123997
 51
270.3303042739881903
  0
ARC
  5
23C74
  8
0
 10
4513.4140845049960262
 20
303.9239617795386721
 30
0.0
 40
0.0013887363007538
 50
198.5170352529275135
 51
259.5114083736605721
  0
ARC
  5
23C75
  8
0
 10
4513.4145318604805652
 20
303.9232660903138026
 30
0.0
 40
0.0017824789857164
 50
122.8539085026323932
 51
171.7866161645565057
  0
ARC
  5
23C76
  8
0
 10
4513.4385333234677091
 20
303.8861452113540054
 30
0.0
 40
0.0459868889114629
 50
110.2670941090484007
 51
122.8844985413195019
  0
ARC
  5
23C77
  8
0
 10
4513.4418727942056648
 20
303.8750711184976012
 30
0.0
 40
0.0361372844715576
 50
106.0018483410577943
 51
128.93293621672629
  0
ARC
  5
23C78
  8
0
 10
4513.4273094812933778
 20
303.9526154742371205
 30
0.0
 40
0.0501004451669108
 50
260.6428566617182128
 51
280.6353712903581936
  0
ARC
  5
23C79
  8
0
 10
4513.4500378659886337
 20
303.8596294456115174
 30
0.0
 40
0.0342680306839363
 50
103.8613896570366961
 51
129.2953066578918992
  0
ARC
  5
23C7A
  8
0
 10
4513.4342185584846447
 20
303.9253213161459826
 30
0.0
 40
0.0396114486977866
 50
261.4586226514380769
 51
283.8539262049724243
  0
ARC
  5
23C7B
  8
0
 10
4513.4808699235290987
 20
303.7986197525939929
 30
0.0
 40
0.0695121173381273
 50
108.3581205184164986
 51
122.4997032134826043
  0
ARC
  5
23C7C
  8
0
 10
4513.4442463521254467
 20
303.9168576231928114
 30
0.0
 40
0.0596161600597476
 50
269.3032413192115087
 51
285.3885382765992063
  0
ARC
  5
23C7D
  8
0
 10
4513.4637624052284082
 20
303.8336761370765089
 30
0.0
 40
0.0459902515870739
 50
106.2806122487333056
 51
126.3689311794704935
  0
ARC
  5
23C7E
  8
0
 10
4513.439617273427757
 20
303.9212461249595094
 30
0.0
 40
0.0506345295338978
 50
266.4601945582404028
 51
284.2773389710457081
  0
ARC
  5
23C7F
  8
0
 10
4513.4916055223729927
 20
303.77590576612522
 30
0.0
 40
0.0809632940410977
 50
109.8363530958104946
 51
121.2574416294454949
  0
ARC
  5
23C80
  8
0
 10
4513.4451300830123728
 20
303.9249262473139765
 30
0.0
 40
0.0799342491931475
 50
273.2020157962375038
 51
285.9863359151852933
  0
ARC
  5
23C81
  8
0
 10
4513.4983075386371638
 20
303.7617909906476257
 30
0.0
 40
0.0844072282407998
 50
109.7769556574522056
 51
121.1093324745589968
  0
ARC
  5
23C82
  8
0
 10
4513.4431571516115582
 20
303.938691488155996
 30
0.0
 40
0.1052668649444504
 50
276.2934736435840932
 51
286.665451115440078
  0
ARC
  5
23C83
  8
0
 10
4513.5113523416121097
 20
303.7341400461472745
 30
0.0
 40
0.1038726806670673
 50
110.3782928524776992
 51
120.3584088786133037
  0
ARC
  5
23C84
  8
0
 10
4513.4439753696051412
 20
303.9308311843773254
 30
0.0
 40
0.1080903602402164
 50
277.9120445683349203
 51
288.2699747314474052
  0
ARC
  5
23C85
  8
0
 10
4514.0200386143724245
 20
301.7728972728215808
 30
0.0
 40
2.296303990321273
 50
101.3972205228453021
 51
104.1357533388884065
  0
ARC
  5
23C86
  8
0
 10
4513.5904472403281034
 20
303.9126141162057024
 30
0.0
 40
0.1139020921531933
 50
87.7483414959690009
 51
102.2568388757651974
  0
ARC
  5
23C87
  8
0
 10
4513.5327513730089777
 20
304.1018095052493209
 30
0.0
 40
0.0977116004573314
 50
289.7180802447796282
 51
309.5142242465284994
  0
ARC
  5
23C88
  8
0
 10
4513.6155036913360163
 20
303.8535787555700836
 30
0.0
 40
0.1524799106225354
 50
93.1006038580615751
 51
109.2467695556374991
  0
ARC
  5
23C89
  8
0
 10
4513.539496970935943
 20
304.0898732902384722
 30
0.0
 40
0.1079521437565041
 50
291.3784405420623216
 51
308.8790148672420059
  0
ARC
  5
23C8A
  8
0
 10
4513.645194717258164
 20
303.800364612830208
 30
0.0
 40
0.1895569535329176
 50
98.3469563824700685
 51
110.6325658044982987
  0
ARC
  5
23C8B
  8
0
 10
4513.5328966796378154
 20
304.0994792154365882
 30
0.0
 40
0.1401236347279149
 50
293.8401513373418084
 51
307.2318220823869979
  0
ARC
  5
23C8C
  8
0
 10
4513.7121349825929428
 20
303.6551301169020007
 30
0.0
 40
0.3310345697231718
 50
104.1861832987547984
 51
111.8013196391703019
  0
ARC
  5
23C8D
  8
0
 10
4513.5358080962678287
 20
304.0989252870991777
 30
0.0
 40
0.1554232156678655
 50
293.9970403556491192
 51
307.7715776167987087
  0
ARC
  5
23C8E
  8
0
 10
4513.6398236683889991
 20
303.9445038417625256
 30
0.0
 40
0.0196931591713066
 50
91.6884263015484322
 51
115.1664071864948937
  0
ARC
  5
23C8F
  8
0
 10
4513.5293101466786538
 20
304.1083033614924034
 30
0.0
 40
0.1812579174411552
 50
295.5302364325422104
 51
307.336996906381728
  0
ARC
  5
23C90
  8
0
 10
4513.6493327755097198
 20
303.9305047836921858
 30
0.0
 40
0.0234926253275814
 50
96.8838596246234971
 51
116.745823808374297
  0
ARC
  5
23C91
  8
0
 10
4513.5178726774684037
 20
304.1237235826257006
 30
0.0
 40
0.2131052707459646
 50
297.0778651112082116
 51
307.1328863115192007
  0
ARC
  5
23C92
  8
0
 10
4513.656432029494681
 20
303.9263944323515716
 30
0.0
 40
0.0189577887766471
 50
100.7154407935530998
 51
116.7915987508533959
  0
ARC
  5
23C93
  8
0
 10
4513.5185023102676496
 20
304.1173148715071761
 30
0.0
 40
0.2185168730600353
 50
298.0871590513817182
 51
307.957571324148887
  0
ARC
  5
23C94
  8
0
 10
4513.6677203819417628
 20
303.9032617465051089
 30
0.0
 40
0.0350661409276186
 50
105.6474859816786989
 51
119.2632646183985941
  0
ARC
  5
23C95
  8
0
 10
4513.4976374673269675
 20
304.1453741988742081
 30
0.0
 40
0.2630748582457345
 50
299.4555130760119255
 51
307.6305447225428793
  0
ARC
  5
23C96
  8
0
 10
4513.6778257848545763
 20
303.8870624712075141
 30
0.0
 40
0.0454626170141167
 50
109.352434183864105
 51
120.8287559653899024
  0
ARC
  5
23C97
  8
0
 10
4513.4818018936812223
 20
304.1607009332075791
 30
0.0
 40
0.2932389207806597
 50
300.7415611252408212
 51
308.1048783984921897
  0
ARC
  5
23C98
  8
0
 10
4513.4908976417218582
 20
304.1428791389553794
 30
0.0
 40
0.2809524688633784
 50
300.8737594360707135
 51
308.6435989167644038
  0
ARC
  5
23C99
  8
0
 10
4513.6687140643380189
 20
303.9142660555232851
 30
0.0
 40
0.0094772499757823
 50
104.474809969095304
 51
120.8217375886887055
  0
ARC
  5
23C9A
  8
0
 10
4513.4977350723902418
 20
304.3094636028361037
 30
0.0
 40
0.4263445267153371
 50
275.0165363919638821
 51
280.0847563167944827
  0
ARC
  5
23C9B
  8
0
 10
4513.5684376559702287
 20
303.915872972070872
 30
0.0
 40
0.0264636009103378
 50
278.5893620554879249
 51
297.938259415525124
  0
ARC
  5
23C9C
  8
0
 10
4513.5746838880650103
 20
303.9030350683200936
 30
0.0
 40
0.012205538003838
 50
300.269878880009685
 51
357.5391438159928725
  0
ARC
  5
23C9D
  8
0
 10
4513.4544431784697736
 20
304.4698843686330747
 30
0.0
 40
0.5898677497316366
 50
270.997880107277183
 51
274.0756175683853826
  0
ARC
  5
23C9E
  8
0
 10
4513.4610766381319991
 20
303.9203035889694888
 30
0.0
 40
0.0403619202509247
 50
254.2326915097764868
 51
275.1732395242333951
  0
ARC
  5
23C9F
  8
0
 10
4513.4543157314956261
 20
303.8929476499272937
 30
0.0
 40
0.0122333176476895
 50
192.139221810534508
 51
249.8870941952843054
  0
ARC
  5
23CA0
  8
0
 10
4513.4634959055692889
 20
303.8757127828015996
 30
0.0
 40
0.0119279197548042
 50
191.8302977929982092
 51
247.6410722715424981
  0
ARC
  5
23CA1
  8
0
 10
4513.4669235080182261
 20
303.8882897446745801
 30
0.0
 40
0.0249155795817384
 50
251.356279774122612
 51
273.5748952751275738
  0
ARC
  5
23CA2
  8
0
 10
4513.4518475203385606
 20
304.5685916453667801
 30
0.0
 40
0.7053650530377329
 50
271.3509197117169833
 51
274.3670538654035909
  0
ARC
  5
23CA3
  8
0
 10
4513.4931503161033106
 20
304.44991817892668
 30
0.0
 40
0.5836361489229278
 50
275.0752624329658147
 51
279.0041907629155844
  0
ARC
  5
23CA4
  8
0
 10
4513.5834832995888064
 20
303.8862419318559773
 30
0.0
 40
0.0128075780949406
 50
274.5229629805072022
 51
356.2151211648679237
  0
ARC
  5
23CA5
  8
0
 10
4513.4718584889587873
 20
303.861112241550984
 30
0.0
 40
0.0118975034575671
 50
191.9193230397196999
 51
271.8720589940783725
  0
ARC
  5
23CA6
  8
0
 10
4513.3693384743110073
 20
305.8099846499159753
 30
0.0
 40
1.9634622332263549
 50
273.0043541234504119
 51
276.5677261364137962
  0
ARC
  5
23CA7
  8
0
 10
4513.5927267026881964
 20
303.8712178614670734
 30
0.0
 40
0.0118695152006498
 50
275.7434349937003049
 51
357.9380151776069283
  0
ARC
  5
23CA8
  8
0
 10
4513.3953949541346446
 20
305.5532005855636157
 30
0.0
 40
1.718753956957648
 50
272.808851315516506
 51
276.9379831046695131
  0
ARC
  5
23CA9
  8
0
 10
4513.4792315175627664
 20
303.8484018230238917
 30
0.0
 40
0.0118966209211317
 50
191.9157594379765044
 51
271.8756177103982168
  0
ARC
  5
23CAA
  8
0
 10
4513.6000976827135673
 20
303.8585426635094109
 30
0.0
 40
0.0118735693072804
 50
284.2068712612041281
 51
357.7119068368804164
  0
ARC
  5
23CAB
  8
0
 10
4513.6070577629243417
 20
303.8469490759039218
 30
0.0
 40
0.0113391092376358
 50
291.7130428227184211
 51
359.6287143017880226
  0
ARC
  5
23CAC
  8
0
 10
4513.6018098255108271
 20
303.860679763190376
 30
0.0
 40
0.0260379004352819
 50
276.4665106192280746
 51
291.2637155639313846
  0
ARC
  5
23CAD
  8
0
 10
4513.4867451677655481
 20
303.839260151449821
 30
0.0
 40
0.0142273473931088
 50
236.2838898344494964
 51
276.3438925482357718
  0
ARC
  5
23CAE
  8
0
 10
4513.4856077634867688
 20
303.8371780503089212
 30
0.0
 40
0.0118659632003623
 50
191.8090143115591957
 51
235.2715802878799138
  0
ARC
  5
23CAF
  8
0
 10
4513.5019269373069619
 20
304.188848067293975
 30
0.0
 40
0.3743356314325683
 50
268.7371884749421156
 51
274.8480685760604274
  0
ARC
  5
23CB0
  8
0
 10
4513.493336581767835
 20
303.8310667457196814
 30
0.0
 40
0.016466915312926
 50
237.4923131708991946
 51
271.1851296661935748
  0
ARC
  5
23CB1
  8
0
 10
4513.4912584269231957
 20
303.8272129705005113
 30
0.0
 40
0.0121043167475367
 50
191.9366628191309019
 51
235.9844259725460915
  0
ARC
  5
23CB2
  8
0
 10
4513.5465502741481032
 20
304.1344080716143026
 30
0.0
 40
0.3164247267421451
 50
274.0787154740240226
 51
282.4772315504284279
  0
ARC
  5
23CB3
  8
0
 10
4513.6114391260243792
 20
303.8374795068061758
 30
0.0
 40
0.0125150105937237
 50
286.122067867498572
 51
357.0952553976133004
  0
ARC
  5
23CB4
  8
0
 10
4513.5003366734472365
 20
304.456839817388925
 30
0.0
 40
0.6522373398359624
 50
270.7493584929420081
 51
280.2174434714665949
  0
ARC
  5
23CB5
  8
0
 10
4513.6131636687096034
 20
303.8315293696105073
 30
0.0
 40
0.0168299489625496
 50
279.8176024015257894
 51
318.1087225157215244
  0
ARC
  5
23CB6
  8
0
 10
4513.6163733727762519
 20
303.8281603939391857
 30
0.0
 40
0.0121965277085828
 50
319.8223691695254729
 51
357.7337233697260217
  0
ARC
  5
23CB7
  8
0
 10
4513.5060786774429289
 20
303.8695927385568893
 30
0.0
 40
0.0649943117537255
 50
260.0307838765804718
 51
272.4587090457296767
  0
ARC
  5
23CB8
  8
0
 10
4513.4968529072539241
 20
303.8190036262149079
 30
0.0
 40
0.0135758683613217
 50
218.0533333681441945
 51
261.4174564704247814
  0
ARC
  5
23CB9
  8
0
 10
4513.4957365365316946
 20
303.8179945948136265
 30
0.0
 40
0.0120753037370035
 50
191.7677787972932038
 51
217.5483586427668001
  0
ARC
  5
23CBA
  8
0
 10
4513.5003684634275487
 20
303.8097053121019258
 30
0.0
 40
0.012747548877699
 50
192.2740993128614946
 51
244.7376358315738969
  0
ARC
  5
23CBB
  8
0
 10
4513.5070473519226653
 20
303.8278479580388876
 30
0.0
 40
0.0320506452685195
 50
247.7825421655558955
 51
268.1765193227950022
  0
ARC
  5
23CBC
  8
0
 10
4513.5174679418369124
 20
304.325758734671183
 30
0.0
 40
0.5300686654073467
 50
268.7632911869591794
 51
280.3778233875497108
  0
ARC
  5
23CBD
  8
0
 10
4513.6093759151872291
 20
303.8345706337751722
 30
0.0
 40
0.0304204375735977
 50
276.7542251387138776
 51
307.3603178842091097
  0
ARC
  5
23CBE
  8
0
 10
4513.6193164478008839
 20
303.8196046943281772
 30
0.0
 40
0.0125484786360521
 50
312.7590035282591998
 51
357.6147865737618758
  0
ARC
  5
23CBF
  8
0
 10
4513.1843347998346871
 20
303.8729710978515755
 30
0.0
 40
0.0613374700864785
 50
253.6418457981388883
 51
272.6770210438039044
  0
ARC
  5
23CC0
  8
0
 10
4513.1900186086049871
 20
303.7522336787818062
 30
0.0
 40
0.0660045871653994
 50
94.7326072732576279
 51
110.3551679703296031
  0
LINE
  5
23CC1
  8
0
 10
4513.1405364897836989
 20
303.9218149348998281
 30
0.0
 11
4513.1402098011885755
 21
303.9234439079232857
 31
0.0
  0
ARC
  5
23CC2
  8
0
 10
4513.2295596794601806
 20
304.5236687997207241
 30
0.0
 40
0.9243893063899825
 50
218.5492785255001138
 51
227.9588966062779036
  0
ARC
  5
23CC3
  8
0
 10
4513.1289097658445826
 20
296.7267245142600132
 30
0.0
 40
0.3090838773090662
 50
178.8952688177294021
 51
359.9924469283540134
  0
ARC
  5
23CC4
  8
0
 10
4513.9508052546998442
 20
303.865159871600099
 30
0.0
 40
0.0113312210991631
 50
279.6651415947212058
 51
357.0389436523399809
  0
ARC
  5
23CC5
  8
0
 10
4513.9542827478544496
 20
303.9011284213821114
 30
0.0
 40
0.0124697647197609
 50
352.9338955337677248
 51
82.9713151105182476
  0
ARC
  5
23CC6
  8
0
 10
4513.9736062638703515
 20
303.9010983021959191
 30
0.0
 40
0.0119925126787226
 50
353.5858513797776936
 51
85.7198800979349329
  0
ARC
  5
23CC7
  8
0
 10
4513.7168436100319013
 20
280.4191069078875103
 30
0.0
 40
23.4956128110571498
 50
89.4172561898354843
 51
89.7782816210306436
  0
ARC
  5
23CC8
  8
0
 10
4513.9548583724308628
 20
303.4828007576963955
 30
0.0
 40
0.4307047665587093
 50
87.3860348854166489
 51
89.8735895788890531
  0
ARC
  5
23CC9
  8
0
 10
4513.1396631529014485
 20
304.426938653064326
 30
0.0
 40
0.792336859855212
 50
232.2463357298940991
 51
306.3168723253824055
  0
ARC
  5
23CCA
  8
0
 10
4513.1421038914213568
 20
304.4305530605004719
 30
0.0
 40
0.7846480043509846
 50
233.7438990330823003
 51
307.1040041949777901
  0
ARC
  5
23CCB
  8
0
 10
4514.0179339865262591
 20
304.5706710418314174
 30
0.0
 40
0.0133280740613522
 50
356.4850979791629015
 51
36.9405346189658914
  0
ARC
  5
23CCC
  8
0
 10
4514.02134126171768
 20
304.5733315965886732
 30
0.0
 40
0.0090061649842935
 50
36.4395328919146735
 51
88.8491555443279424
  0
ARC
  5
23CCD
  8
0
 10
4514.0157393842600868
 20
304.5353560878527901
 30
0.0
 40
0.0130224239203113
 50
316.7277396244875263
 51
357.6952049497905932
  0
ARC
  5
23CCE
  8
0
 10
4514.015532357300799
 20
304.5376102063867165
 30
0.0
 40
0.0147944522802816
 50
277.1057662656302796
 51
310.9111882191375003
  0
ARC
  5
23CCF
  8
0
 10
4514.037088739293722
 20
304.5705061559875162
 30
0.0
 40
0.0118299315934579
 50
356.1199685214053829
 51
90.2814249252442238
  0
ARC
  5
23CD0
  8
0
 10
4514.0333235662847073
 20
304.5373696281207003
 30
0.0
 40
0.0143321078638025
 50
264.8243619665092865
 51
305.1627426474959748
  0
ARC
  5
23CD1
  8
0
 10
4514.0344184756595496
 20
304.5352851075135732
 30
0.0
 40
0.0120012978666682
 50
306.6207639243070844
 51
355.0449767275753175
  0
ARC
  5
23CD2
  8
0
 10
4513.7426881233241147
 20
329.3565801349992057
 30
0.0
 40
24.83516973283864
 50
270.1539874078213188
 51
270.6675405295666792
  0
ARC
  5
23CD3
  8
0
 10
4513.1460720838867928
 20
304.026346114402088
 30
0.0
 40
0.7758011323589064
 50
56.8951830800401908
 51
80.5244982237187372
  0
ARC
  5
23CD4
  8
0
 10
4513.1401708628827691
 20
303.9977200971101752
 30
0.0
 40
0.8050088349904743
 50
80.4456286170519945
 51
106.9651722846888049
  0
ARC
  5
23CD5
  8
0
 10
4513.1634325628101578
 20
303.9689046561604187
 30
0.0
 40
0.8394719506033208
 50
107.9099163072691994
 51
147.1681427055528957
  0
LINE
  5
23CD6
  8
0
 10
4512.8198833399692376
 20
296.7326836519786184
 30
0.0
 11
4512.819883502459561
 21
301.9216119106013139
 31
0.0
  0
ARC
  5
23CD7
  8
0
 10
4512.3912208309257039
 20
306.5952258782804165
 30
0.0
 40
1.6909942716812789
 50
0.1411722554091371
 51
61.7779858100636829
  0
ARC
  5
23CD8
  8
0
 10
4495.5771377505170676
 20
306.3434881728729238
 30
0.0
 40
18.5068415669486015
 50
0.4658982335835472
 51
0.792285194844096
  0
ARC
  5
23CD9
  8
0
 10
4509.9596739322669237
 20
305.0135160672417101
 30
0.0
 40
4.218263119476517
 50
69.9945811841348871
 51
110.0054188158650987
  0
ARC
  5
23CDA
  8
0
 10
4502.0445043902127509
 20
287.980730831363303
 30
0.0
 40
22.9876303484730187
 50
60.9950262588653231
 51
65.9771787525931046
  0
ARC
  5
23CDB
  8
0
 10
4507.5281270336090529
 20
306.5952258782804165
 30
0.0
 40
1.6909942716812789
 50
118.2220141899363028
 51
179.8588277445907977
  0
ARC
  5
23CDC
  8
0
 10
4524.3422101222231504
 20
306.3434881727779953
 30
0.0
 40
18.506841575153171
 50
179.2077148052144935
 51
179.53410176632201
  0
ARC
  5
23CDD
  8
0
 10
4517.8748434743229154
 20
287.980730831363303
 30
0.0
 40
22.9876303484730187
 50
114.0228212474068954
 51
119.0049737411347053
  0
ENDSEC
  0
EOF
