  0
SECTION
  2
HEADER
  9
$ACADVER
  1
AC1009
  9
$INSBASE
 10
4447.9060014620290531
 20
275.7893972304763111
 30
0.0
  9
$EXTMIN
 10
4440.8641870132851182
 20
271.8518845946812235
 30
-0.0000000000000058
  9
$EXTMAX
 10
4454.7996636450552614
 20
275.8077462339693966
 30
0.0000000000000104
  9
$LIMMIN
 10
0.0
 20
0.0
  9
$LIMMAX
 10
11.6929133858000007
 20
8.2677165353999982
  9
$ORTHOMODE
 70
     0
  9
$REGENMODE
 70
     1
  9
$FILLMODE
 70
     1
  9
$QTEXTMODE
 70
     0
  9
$MIRRTEXT
 70
     0
  9
$DRAGMODE
 70
     2
  9
$LTSCALE
 40
0.6431102362
  9
$OSMODE
 70
   311
  9
$ATTMODE
 70
     1
  9
$TEXTSIZE
 40
0.2
  9
$TRACEWID
 40
0.05
  9
$TEXTSTYLE
  7
STANDARD
  9
$CLAYER
  8
0
  9
$CELTYPE
  6
BYLAYER
  9
$CECOLOR
 62
   256
  9
$DIMSCALE
 40
1.0
  9
$DIMASZ
 40
0.1875
  9
$DIMEXO
 40
0.0625
  9
$DIMDLI
 40
0.4443307087
  9
$DIMRND
 40
0.0
  9
$DIMDLE
 40
0.0
  9
$DIMEXE
 40
0.125
  9
$DIMTP
 40
0.01
  9
$DIMTM
 40
0.01
  9
$DIMTXT
 40
2.0
  9
$DIMCEN
 40
0.1052362205
  9
$DIMTSZ
 40
0.0
  9
$DIMTOL
 70
     1
  9
$DIMLIM
 70
     0
  9
$DIMTIH
 70
     1
  9
$DIMTOH
 70
     1
  9
$DIMSE1
 70
     0
  9
$DIMSE2
 70
     0
  9
$DIMTAD
 70
     0
  9
$DIMZIN
 70
     0
  9
$DIMBLK
  1

  9
$DIMASO
 70
     1
  9
$DIMSHO
 70
     1
  9
$DIMPOST
  1
\X
  9
$DIMAPOST
  1

  9
$DIMALT
 70
     1
  9
$DIMALTD
 70
     2
  9
$DIMALTF
 40
25.3999999999999986
  9
$DIMLFAC
 40
1.0
  9
$DIMTOFL
 70
     0
  9
$DIMTVP
 40
0.0
  9
$DIMTIX
 70
     0
  9
$DIMSOXD
 70
     0
  9
$DIMSAH
 70
     0
  9
$DIMBLK1
  1

  9
$DIMBLK2
  1

  9
$DIMSTYLE
  2
STANDARD
  9
$DIMCLRD
 70
     0
  9
$DIMCLRE
 70
     0
  9
$DIMCLRT
 70
     0
  9
$DIMTFAC
 40
1.0
  9
$DIMGAP
 40
0.09
  9
$LUNITS
 70
     2
  9
$LUPREC
 70
     4
  9
$SKETCHINC
 40
0.1
  9
$FILLETRAD
 40
0.0
  9
$AUNITS
 70
     0
  9
$AUPREC
 70
     0
  9
$MENU
  1
.
  9
$ELEVATION
 40
0.0
  9
$PELEVATION
 40
0.0
  9
$THICKNESS
 40
0.0
  9
$LIMCHECK
 70
     0
  9
$BLIPMODE
 70
     0
  9
$CHAMFERA
 40
0.0
  9
$CHAMFERB
 40
0.0
  9
$SKPOLY
 70
     0
  9
$TDCREATE
 40
2458060.468368056230247
  9
$TDUPDATE
 40
2459366.0069097219966352
  9
$TDINDWG
 40
0.5222524306
  9
$TDUSRTIMER
 40
0.5222524306
  9
$USRTIMER
 70
     1
  9
$ANGBASE
 50
0.0
  9
$ANGDIR
 70
     0
  9
$PDMODE
 70
     0
  9
$PDSIZE
 40
0.3125
  9
$PLINEWID
 40
0.0
  9
$COORDS
 70
     2
  9
$SPLFRAME
 70
     0
  9
$SPLINETYPE
 70
     6
  9
$SPLINESEGS
 70
     8
  9
$ATTDIA
 70
     1
  9
$ATTREQ
 70
     1
  9
$HANDLING
 70
     1
  9
$HANDSEED
  5
21B9A
  9
$SURFTAB1
 70
     6
  9
$SURFTAB2
 70
     6
  9
$SURFTYPE
 70
     6
  9
$SURFU
 70
     6
  9
$SURFV
 70
     6
  9
$UCSNAME
  2

  9
$UCSORG
 10
0.0
 20
0.0
 30
0.0
  9
$UCSXDIR
 10
1.0
 20
0.0
 30
0.0
  9
$UCSYDIR
 10
0.0
 20
1.0
 30
0.0
  9
$PUCSNAME
  2

  9
$PUCSORG
 10
0.0
 20
0.0
 30
0.0
  9
$PUCSXDIR
 10
1.0
 20
0.0
 30
0.0
  9
$PUCSYDIR
 10
0.0
 20
1.0
 30
0.0
  9
$USERI1
 70
     0
  9
$USERI2
 70
     0
  9
$USERI3
 70
     0
  9
$USERI4
 70
     0
  9
$USERI5
 70
     0
  9
$USERR1
 40
0.0
  9
$USERR2
 40
0.0
  9
$USERR3
 40
0.0
  9
$USERR4
 40
0.0
  9
$USERR5
 40
0.0
  9
$WORLDVIEW
 70
     1
  9
$SHADEDGE
 70
     3
  9
$SHADEDIF
 70
    70
  9
$TILEMODE
 70
     1
  9
$MAXACTVP
 70
    64
  9
$PLIMCHECK
 70
     0
  9
$PEXTMIN
 10
1.0000000000000000E+20
 20
1.0000000000000000E+20
 30
1.0000000000000000E+20
  9
$PEXTMAX
 10
-1.0000000000000000E+20
 20
-1.0000000000000000E+20
 30
-1.0000000000000000E+20
  9
$PLIMMIN
 10
0.0
 20
0.0
  9
$PLIMMAX
 10
12.0
 20
9.0
  9
$UNITMODE
 70
     0
  9
$VISRETAIN
 70
     1
  9
$PLINEGEN
 70
     0
  9
$PSLTSCALE
 70
     1
  0
ENDSEC
  0
SECTION
  2
TABLES
  0
TABLE
  2
VPORT
 70
     1
  0
VPORT
  2
*ACTIVE
 70
     0
 10
0.0
 20
0.0
 11
1.0
 21
1.0
 12
536.4665688674664352
 22
141.2502103217194929
 13
0.0
 23
0.0
 14
1.0
 24
1.0
 15
0.0
 25
0.0
 16
0.0
 26
0.0
 36
60.4960186965801583
 17
3911.3653564453120453
 27
132.5796051025390057
 37
0.0
 40
7.8020270032513768
 41
2.528428093645485
 42
50.0
 43
0.0
 44
0.0
 50
0.0
 51
0.0
 71
     0
 72
   100
 73
     1
 74
     1
 75
     0
 76
     0
 77
     0
 78
     0
  0
ENDTAB
  0
TABLE
  2
LTYPE
 70
     2
  0
LTYPE
  2
CONTINUOUS
 70
     0
  3
Solid line
 72
    65
 73
     0
 40
0.0
  0
LTYPE
  2
PHANTOM2
 70
     0
  3
___ _ _ ___ _ _ ___ _ _ ___ _ _
 72
    65
 73
     6
 40
1.25
 49
0.625
 49
-0.125
 49
0.125
 49
-0.125
 49
0.125
 49
-0.125
  0
ENDTAB
  0
TABLE
  2
LAYER
 70
     2
  0
LAYER
  2
0
 70
     0
 62
   255
  6
CONTINUOUS
  0
LAYER
  2
DEFPOINTS
 70
     0
 62
     7
  6
CONTINUOUS
  0
ENDTAB
  0
TABLE
  2
STYLE
 70
     1
  0
STYLE
  2
STANDARD
 70
     0
 40
0.0
 41
0.8
 50
0.0
 71
     0
 42
0.2
  3
txt
  4

  0
ENDTAB
  0
TABLE
  2
VIEW
 70
     1
  0
ENDTAB
  0
TABLE
  2
UCS
 70
     0
  0
ENDTAB
  0
TABLE
  2
APPID
 70
    11
  0
APPID
  2
ACAD
 70
     0
  0
APPID
  2
ACAD_MLEADERVER
 70
     0
  0
APPID
  2
ACAD_EXEMPT_FROM_CAD_STANDARDS
 70
     0
  0
APPID
  2
ACAD_NAV_VCDISPLAY
 70
     0
  0
APPID
  2
ACAECLAYERSTANDARD
 70
     0
  0
APPID
  2
ACCMTRANSPARENCY
 70
     0
  0
APPID
  2
ACAD_DSTYLE_DIMJAG
 70
     0
  0
APPID
  2
ACAD_DSTYLE_DIMTALN
 70
     0
  0
APPID
  2
ACDBATTR
 70
     0
  0
APPID
  2
ACADANNOTATIVE
 70
     0
  0
APPID
  2
DCO15
 70
     0
  0
ENDTAB
  0
TABLE
  2
DIMSTYLE
 70
     1
  0
DIMSTYLE
  2
STANDARD
 70
     0
  3

  4

  5

  6

  7

 40
1.0
 41
0.1875
 42
0.0625
 43
0.38
 44
0.125
 45
0.0
 46
0.0
 47
0.01
 48
0.01
140
0.15625
141
0.09
142
0.0
143
25.3999999999999986
144
1.0
145
0.0
146
1.0
147
0.09
 71
     1
 72
     0
 73
     1
 74
     1
 75
     0
 76
     0
 77
     0
 78
     4
170
     0
171
     2
172
     0
173
     0
174
     0
175
     0
176
     0
177
     0
178
     0
  0
ENDTAB
  0
ENDSEC
  0
SECTION
  2
BLOCKS
  0
BLOCK
  8
0
  2
$MODEL_SPACE
 70
     0
 10
0.0
 20
0.0
 30
0.0
  3
$MODEL_SPACE
  1

  0
ENDBLK
  5
21
  8
0
  0
BLOCK
 67
     1
  8
0
  2
$PAPER_SPACE
 70
     0
 10
0.0
 20
0.0
 30
0.0
  3
$PAPER_SPACE
  1

  0
ENDBLK
  5
1D
 67
     1
  8
0
  0
ENDSEC
  0
SECTION
  2
ENTITIES
  0
ATTDEF
  5
20106
  8
DEFPOINTS
 10
4447.9060155830711665
 20
275.7929041754028958
 30
0.0
 40
0.001
  1
K-37268X
  3

  2
MODELNUMBER
 70
     0
1001
ACDBATTR
1070
     0
1070
     1
  0
ATTDEF
  5
20107
  8
DEFPOINTS
 10
4447.9058897734139464
 20
275.791237335023709
 30
0.0
 40
0.001
  1
AIRFOIL 
  3

  2
TRADENAME
 70
     0
1001
ACDBATTR
1070
     0
1070
     1
  0
ATTDEF
  5
20108
  8
DEFPOINTS
 10
4447.9060155830711665
 20
275.7895708420696224
 30
0.0
 40
0.001
  1
SHOWERHEAD 
  3

  2
PRODUCT
 70
     0
1001
ACDBATTR
1070
     0
1070
     1
  0
LINE
  5
216CF
  8
0
 10
4441.0324856328797978
 20
272.7368543526882831
 30
0.0
 11
4441.0324856330798866
 21
272.7281137193882046
 31
0.0
  0
LINE
  5
216D0
  8
0
 10
4443.0893088727798386
 20
272.0663856686883264
 30
0.0
 11
4443.0887072236791937
 21
272.1331191347882736
 31
0.0
  0
LINE
  5
216D1
  8
0
 10
4443.2630179742800465
 20
272.0569794713882743
 30
0.0
 11
4443.268538088825153
 21
272.1143029308805126
 31
0.0
  0
LINE
  5
216D2
  8
0
 10
4443.2622828400799335
 20
272.0588319848882861
 30
0.0
 11
4443.2678876006066275
 21
272.1168536283342974
 31
0.0
  0
LINE
  5
216D3
  8
0
 10
4443.8790488968797945
 20
272.004195535488293
 30
0.0
 11
4443.8772485339068226
 21
272.0740345756403826
 31
0.0
  0
LINE
  5
216D4
  8
0
 10
4443.8813488128798781
 20
272.0370256717882853
 30
0.0
 11
4443.8801957735140604
 21
272.0906132509339272
 31
0.0
  0
LINE
  5
216D5
  8
0
 10
4441.3954793227803748
 20
272.4520037872882767
 30
0.0
 11
4441.3956078779801828
 21
272.4519484121883011
 31
0.0
  0
LINE
  5
216D6
  8
0
 10
4444.6776129595800739
 20
272.0039478132882778
 30
0.0
 11
4444.6749834443799045
 21
272.054099595088303
 31
0.0
  0
LINE
  5
216D7
  8
0
 10
4444.6775649920800788
 20
272.0334864155882997
 30
0.0
 11
4444.6745085629918322
 21
272.0917605614037029
 31
0.0
  0
LINE
  5
216D8
  8
0
 10
4444.6699305063802967
 20
271.9721208274881974
 30
0.0
 11
4444.6683118648288655
 21
272.0339543958195918
 31
0.0
  0
LINE
  5
216D9
  8
0
 10
4444.0539840751789598
 20
272.0316945131881994
 30
0.0
 11
4444.0580586891801431
 21
272.0805221212883112
 31
0.0
  0
LINE
  5
216DA
  8
0
 10
4444.0529963939798108
 20
271.9949858133883254
 30
0.0
 11
4444.0574160304813631
 21
272.046091663488312
 31
0.0
  0
LINE
  5
216DB
  8
0
 10
4444.0528163305798444
 20
271.9981259599882719
 30
0.0
 11
4444.059075381306684
 21
272.0633953864299883
 31
0.0
  0
LINE
  5
216DC
  8
0
 10
4444.8508816926796499
 20
272.0039463129883188
 30
0.0
 11
4444.8546345601753274
 21
272.0754996830635264
 31
0.0
  0
LINE
  5
216DD
  8
0
 10
4444.8509240886796761
 20
272.0334849087882958
 30
0.0
 11
4444.8536666759391665
 21
272.08575794472398
 31
0.0
  0
LINE
  5
216DE
  8
0
 10
4444.8434410225790998
 20
271.9680754490883032
 30
0.0
 11
4444.8447324211356317
 21
271.9847805758926143
 31
0.0
  0
LINE
  5
216DF
  8
0
 10
4441.8840542687803463
 20
272.2953272036883163
 30
0.0
 11
4441.8840579839798011
 21
272.2953263332883012
 31
0.0
  0
LINE
  5
216E0
  8
0
 10
4445.9710448092791921
 20
274.6817739221881993
 30
0.0
 11
4445.9687778008947134
 21
274.6778473484882852
 31
0.0
  0
LINE
  5
216E1
  8
0
 10
4443.199718379280057
 20
272.0238536713882809
 30
0.0
 11
4443.2220510650804499
 21
272.023261194588315
 31
0.0
  0
LINE
  5
216E2
  8
0
 10
4443.9178785627800607
 20
271.9623038904882719
 30
0.0
 11
4444.0123958584799766
 21
271.9590024670882826
 31
0.0
  0
LINE
  5
216E3
  8
0
 10
4443.9170315692799704
 20
271.96586402598831
 30
0.0
 11
4444.0122517044810593
 21
271.9625380528883056
 31
0.0
  0
LINE
  5
216E4
  8
0
 10
4443.8558157914803814
 20
272.0913159618881991
 30
0.0
 11
4443.8851253640796131
 21
272.0904431066883262
 31
0.0
  0
LINE
  5
216E5
  8
0
 10
4443.199718379280057
 20
272.0238536713882809
 30
0.0
 11
4443.1485860089796915
 21
272.0260865955883105
 31
0.0
  0
LINE
  5
216E6
  8
0
 10
4443.1274699373798285
 20
272.0255536178883062
 30
0.0
 11
4443.2221115457814449
 21
272.0214206677882771
 31
0.0
  0
LINE
  5
216E7
  8
0
 10
4443.1485860089796915
 20
272.0260865955883105
 30
0.0
 11
4443.1262866911802121
 21
272.0274431753883277
 31
0.0
  0
LINE
  5
216E8
  8
0
 10
4443.8851253640796131
 20
272.0904431066883262
 30
0.0
 11
4444.0257533725798567
 21
272.0829089394882772
 31
0.0
  0
LINE
  5
216E9
  8
0
 10
4443.0449931127795935
 20
272.1362308339882929
 30
0.0
 11
4443.0593643229804002
 21
272.1353298533883276
 31
0.0
  0
LINE
  5
216EA
  8
0
 10
4443.0593643229804002
 20
272.1353298533883276
 30
0.0
 11
4443.0677027490801265
 21
272.1347342242883087
 31
0.0
  0
LINE
  5
216EB
  8
0
 10
4444.0257533725798567
 20
272.0829089394882772
 30
0.0
 11
4444.0580586891801431
 21
272.0805221212883112
 31
0.0
  0
LINE
  5
216EC
  8
0
 10
4443.0677027490801265
 20
272.1347342242883087
 30
0.0
 11
4443.0862037793813215
 21
272.1333176972883052
 31
0.0
  0
LINE
  5
216ED
  8
0
 10
4443.0862037793813215
 20
272.1333176972883052
 30
0.0
 11
4443.1225075895799819
 21
272.1303562923882851
 31
0.0
  0
LINE
  5
216EE
  8
0
 10
4443.1225075895799819
 20
272.1303562923882851
 30
0.0
 11
4443.1799380764814487
 21
272.1254390327882788
 31
0.0
  0
LINE
  5
216EF
  8
0
 10
4443.1799380764814487
 20
272.1254390327882788
 30
0.0
 11
4443.2371797953801433
 21
272.1203325865882903
 31
0.0
  0
LINE
  5
216F0
  8
0
 10
4443.2371797953801433
 20
272.1203325865882903
 30
0.0
 11
4443.3126993627802221
 21
272.1117768001882951
 31
0.0
  0
LINE
  5
216F1
  8
0
 10
4447.9060019470180123
 20
272.7479039225780184
 30
0.0
 11
4441.0429420644122729
 21
272.7486728109400929
 31
0.0
  0
LINE
  5
216F2
  8
0
 10
4441.0475251926800411
 20
272.7684028665883034
 30
0.0
 11
4447.9060019437501978
 21
272.7684006980218214
 31
0.0
  0
LINE
  5
216F3
  8
0
 10
4445.2496379178801362
 20
275.7568280686883213
 30
0.0
 11
4445.6850956811804281
 21
275.2869317300883267
 31
0.0
  0
LINE
  5
216F4
  8
0
 10
4447.8193719964792763
 20
271.9077064466882803
 30
0.0
 11
4447.8158598998597881
 21
271.9747296530904919
 31
0.0
  0
LINE
  5
216F5
  8
0
 10
4447.8193839730793115
 20
271.9159438371883084
 30
0.0
 11
4447.8161318329675851
 21
271.9779990815284236
 31
0.0
  0
LINE
  5
216F6
  8
0
 10
4447.8193811606788586
 20
271.9370478306883001
 30
0.0
 11
4447.8162976437351972
 21
271.9958743154629133
 31
0.0
  0
LINE
  5
216F7
  8
0
 10
4447.8193064021797909
 20
271.9649443438883054
 30
0.0
 11
4447.8161491163618848
 21
272.0251621017033017
 31
0.0
  0
LINE
  5
216F8
  8
0
 10
4447.8193447801813818
 20
272.0052385905883057
 30
0.0
 11
4447.81602294214008
 21
272.068573047048119
 31
0.0
  0
LINE
  5
216F9
  8
0
 10
4447.992652152480332
 20
271.9649428429883073
 30
0.0
 11
4447.9958088767143636
 21
272.0251299573724282
 31
0.0
  0
LINE
  5
216FA
  8
0
 10
4447.9925829634803449
 20
271.9370463367882849
 30
0.0
 11
4447.9956676622568921
 21
271.9958759551063849
 31
0.0
  0
LINE
  5
216FB
  8
0
 10
4447.9925858664792031
 20
271.9159423490883114
 30
0.0
 11
4447.9958384737192318
 21
271.9779861088471762
 31
0.0
  0
LINE
  5
216FC
  8
0
 10
4447.9926037627801634
 20
271.9077049641883264
 30
0.0
 11
4447.9961161384653678
 21
271.9747115501979806
 31
0.0
  0
LINE
  5
216FD
  8
0
 10
4447.9926083857799313
 20
272.0052370845883161
 30
0.0
 11
4447.9959660080612593
 21
272.0692325372202731
 31
0.0
  0
LINE
  5
216FE
  8
0
 10
4445.9097216819800451
 20
274.6778473484882852
 30
0.0
 11
4447.906001639274109
 21
274.6778473484882852
 31
0.0
  0
LINE
  5
216FF
  8
0
 10
4445.909791910678905
 20
274.6817739221881993
 30
0.0
 11
4447.9060016386483767
 21
274.6817739221881993
 31
0.0
  0
ARC
  5
21700
  8
0
 10
4441.1101825643800112
 20
272.768350335588309
 30
0.0
 40
0.0196850386999978
 50
270.0
 51
0.1528224797625736
  0
ARC
  5
21701
  8
0
 10
4441.0444929850127664
 20
272.7367657118921898
 30
0.0
 40
0.0120076793114484
 50
97.4210966982397508
 51
179.5770382013296
  0
ARC
  5
21702
  8
0
 10
4441.04455309730929
 20
272.7281722766035728
 30
0.0
 40
0.0120633971581307
 50
199.4601567212122859
 51
209.0421075100773862
  0
ARC
  5
21703
  8
0
 10
4443.2230951693800307
 20
272.0626174259883214
 30
0.0
 40
0.0393700787
 50
268.4803234609129845
 51
354.4824753865004823
  0
ARC
  5
21704
  8
0
 10
4443.1286773515794266
 20
272.0667406032882809
 30
0.0
 40
0.0393700787
 50
180.5165477883994072
 51
266.5186997108976925
  0
ARC
  5
21705
  8
0
 10
4443.2238291797802958
 20
272.0607532602883225
 30
0.0
 40
0.0393700787
 50
267.4995115858811232
 51
354.4995115871975031
  0
ARC
  5
21706
  8
0
 10
4443.1291875713795889
 20
272.0648862103882948
 30
0.0
 40
0.0393700787
 50
193.9841263404171912
 51
267.4995115858811232
  0
ARC
  5
21707
  8
0
 10
4443.9184059005801828
 20
272.0052101097883224
 30
0.0
 40
0.0393700787
 50
181.4766864067011056
 51
267.9995115859213115
  0
ARC
  5
21708
  8
0
 10
4444.0136260357803621
 20
272.001884136688318
 30
0.0
 40
0.0393700787
 50
267.9995115859213115
 51
354.5223367650016826
  0
ARC
  5
21709
  8
0
 10
4443.9192528941803175
 20
272.0016499742882843
 30
0.0
 40
0.0393700787
 50
190.7186598045454105
 51
267.9995115860776878
  0
ARC
  5
2170A
  8
0
 10
4444.013770189780189
 20
271.998348550888295
 30
0.0
 40
0.0393700787
 50
267.9995115860776878
 51
355.1001949038019916
  0
ARC
  5
2170B
  8
0
 10
4444.7999431998732689
 20
273.6915944790040953
 30
0.0
 40
1.760451503866024
 50
267.9624447816316888
 51
269.4167675547399199
  0
ARC
  5
2170C
  8
0
 10
4444.7649751134804319
 20
273.1866239698882737
 30
0.0
 40
1.2216341696999991
 50
269.965859060207606
 51
271.1702902504208055
  0
ARC
  5
2170D
  8
0
 10
4444.76353473078143
 20
273.1857718192882771
 30
0.0
 40
1.2207820101999991
 50
268.8255543335134803
 51
270.0334376816172721
  0
ARC
  5
2170E
  8
0
 10
4444.7809130646210178
 20
273.1675106507531723
 30
0.0
 40
1.2360224862919451
 50
267.5282818035749983
 51
267.9802700013972867
  0
ARC
  5
2170F
  8
0
 10
4444.8816440039163354
 20
274.6853612577269246
 30
0.0
 40
1.008588859897483
 50
0.8984227226445192
 51
13.3774272382880994
  0
ARC
  5
21710
  8
0
 10
4444.7649530019798476
 20
272.9826819877882826
 30
0.0
 40
0.9885657989
 50
269.9589297468061773
 51
271.4490617701853807
  0
ARC
  5
21711
  8
0
 10
4444.7635515390802539
 20
272.9825461589883275
 30
0.0
 40
0.9884299588999998
 50
268.5492106331811897
 51
270.0401619419741905
  0
ARC
  5
21712
  8
0
 10
4444.803945438979099
 20
271.9706715572883127
 30
0.0
 40
0.0393700787
 50
268.4995115856827965
 51
331.0989237024049885
  0
ARC
  5
21713
  8
0
 10
4445.2647345306795614
 20
275.7696779580883231
 30
0.0
 40
0.0199001454
 50
151.941717129410506
 51
153.0437477325037037
  0
ARC
  5
21714
  8
0
 10
4445.9097296970412572
 20
274.6581549225085723
 30
0.0
 40
0.0196924276107796
 50
90.0233200918387695
 51
179.1729902484649983
  0
ARC
  5
21715
  8
0
 10
4445.9097986228271111
 20
274.7014658082230198
 30
0.0
 40
0.0196918871786817
 50
180.8440713896798115
 51
269.9804702448669786
  0
ARC
  5
21716
  8
0
 10
4447.8981975729802798
 20
272.7596268920883062
 30
0.0
 40
0.8335790226999999
 50
268.631820790310428
 51
268.7684629062155182
  0
ARC
  5
21717
  8
0
 10
4447.9052523411801303
 20
274.2677355317882757
 30
0.0
 40
2.389926653899999
 50
269.403049623389677
 51
270.017567058806776
  0
ARC
  5
21718
  8
0
 10
4447.9067580327800897
 20
274.2677166709883068
 30
0.0
 40
2.3899078057000001
 50
269.9814696649842176
 51
270.5959682250759215
  0
ARC
  5
21719
  8
0
 10
4447.9067309886795556
 20
273.5088945889883121
 30
0.0
 40
1.6103929852000001
 50
269.9732905640851186
 51
270.8862250812779848
  0
ARC
  5
2171A
  8
0
 10
4447.9052599056803956
 20
273.5088594176881998
 30
0.0
 40
1.610357800099999
 50
269.1127772950216013
 51
270.0256304292789196
  0
ARC
  5
2171B
  8
0
 10
4447.9052715796797202
 20
273.148591517288196
 30
0.0
 40
1.2226065164999991
 50
268.8288015230921246
 51
270.0331651130841237
  0
ARC
  5
2171C
  8
0
 10
4447.9067075494804158
 20
273.1485855762883261
 30
0.0
 40
1.2226005875999999
 50
269.9658701870939126
 51
271.1702088550163126
  0
ARC
  5
2171D
  8
0
 10
4447.9054313505803293
 20
272.9832937568883153
 30
0.0
 40
1.0174232064999991
 50
268.9026417314757964
 51
270.0306970330778995
  0
ARC
  5
2171E
  8
0
 10
4447.9065388624803745
 20
272.9832900011883225
 30
0.0
 40
1.0174194601999991
 50
269.9683278267896753
 51
271.0963723096754165
  0
ARC
  5
2171F
  8
0
 10
4447.9046448972803773
 20
276.3553278555883139
 30
0.0
 40
4.4853447849999988
 50
269.6859553298826881
 51
270.0171625768011836
  0
ARC
  5
21720
  8
0
 10
4447.9074074889804251
 20
276.3551519578883244
 30
0.0
 40
4.4851689104999997
 50
269.9818725285009009
 51
270.3130888393225177
  0
LINE
  5
21721
  8
0
 10
4447.9060018303871402
 20
273.4793280577353016
 30
0.0
 11
4444.2457448178793129
 21
273.479332833288197
 31
0.0
  0
ARC
  5
21722
  8
0
 10
4444.9125834705555462
 20
274.6947383748473044
 30
0.0
 40
0.9763213134465908
 50
13.2621461933094302
 51
25.1527231204990187
  0
ARC
  5
21723
  8
0
 10
4445.2645148207066086
 20
275.7697180894808184
 30
0.0
 40
0.0196843814674095
 50
91.3221221308443774
 51
220.9071355531424103
  0
ARC
  5
21724
  8
0
 10
4445.0144895034591173
 20
274.7425174344875813
 30
0.0
 40
0.8637705545179239
 50
25.157022970896449
 51
39.0705263218684919
  0
ARC
  5
21725
  8
0
 10
4444.5538343284706571
 20
274.660991572790806
 30
0.0
 40
1.336207430113791
 50
339.7793457176088054
 51
359.8905537339487068
  0
ARC
  5
21726
  8
0
 10
4444.9581747098172855
 20
274.5157762903199909
 30
0.0
 40
0.9066021727886283
 50
304.7735539369692219
 51
339.5588242540014221
  0
ARC
  5
21727
  8
0
 10
4444.7246393000677926
 20
274.9139178429384742
 30
0.0
 40
1.36728827227687
 50
284.0555341177378068
 51
303.296462209251672
  0
ARC
  5
21728
  8
0
 10
4444.3389582545069061
 20
276.2852794798798186
 30
0.0
 40
2.7915620944457782
 50
276.9858727012290842
 51
284.8987593419358859
  0
ARC
  5
21729
  8
0
 10
4444.0309922386259132
 20
278.8107212374385995
 30
0.0
 40
5.3357118537459458
 50
272.3066727006059864
 51
276.9700216656377734
  0
ARC
  5
2172A
  8
0
 10
4445.3391482293709487
 20
247.7607950222970885
 30
0.0
 40
25.7417699110927707
 50
92.4344190145644689
 51
94.6961757564970128
  0
ARC
  5
2172B
  8
0
 10
4444.1697496471588238
 20
261.5082404805938268
 30
0.0
 40
11.9448024345583992
 50
94.5045848294600432
 51
99.4222180964219575
  0
ARC
  5
2172C
  8
0
 10
4442.8623693633562652
 20
269.2107073904379035
 30
0.0
 40
4.1323223542089611
 50
99.0231359569249463
 51
110.3223371823172982
  0
ARC
  5
2172D
  8
0
 10
4441.8356798991408141
 20
272.0224985655414116
 30
0.0
 40
1.139067558426766
 50
111.0143338776916977
 51
126.7322157454471068
  0
ARC
  5
2172E
  8
0
 10
4441.4640675681102948
 20
272.528821451410181
 30
0.0
 40
0.5110524436678058
 50
127.2921972232174994
 51
143.9468121886935137
  0
ARC
  5
2172F
  8
0
 10
4441.343409240091205
 20
272.6226066157055925
 30
0.0
 40
0.3583400323465612
 50
144.7160471014848895
 51
150.7743043412880866
  0
ARC
  5
21730
  8
0
 10
4441.0479360004128466
 20
272.7880841417374995
 30
0.0
 40
0.0196855620821945
 50
151.2040038779477982
 51
268.8042374455038726
  0
LINE
  5
21731
  8
0
 10
4447.9060019512089639
 20
272.7216214803885919
 30
0.0
 11
4441.0340065133814278
 21
272.722316073188324
 31
0.0
  0
ARC
  5
21732
  8
0
 10
4443.9636359061532858
 20
282.6761481255899184
 30
0.0
 40
10.5919799358756901
 50
260.7971376922532158
 51
265.2624259613104982
  0
ARC
  5
21733
  8
0
 10
4442.930601061321795
 20
276.6313071244613866
 30
0.0
 40
4.4600473960826248
 50
252.8661094151528062
 51
261.4778030258515855
  0
ARC
  5
21734
  8
0
 10
4442.0979401606036845
 20
274.0191119617498998
 30
0.0
 40
1.718676467908155
 50
238.8761302379020037
 51
253.7375467520217001
  0
ARC
  5
21735
  8
0
 10
4441.5350281291557621
 20
273.0643574541895759
 30
0.0
 40
0.6105041462028858
 50
222.4212473505760101
 51
237.7854155657815909
  0
ARC
  5
21736
  8
0
 10
4441.3813178865757436
 20
272.9198012718750874
 30
0.0
 40
0.3995317179546169
 50
209.6230528659199877
 51
221.9877427649782078
  0
ARC
  5
21737
  8
0
 10
4441.044611544516556
 20
272.7281953303323121
 30
0.0
 40
0.012126186065904
 50
180.3856115951575987
 51
199.4708586949217022
  0
ARC
  5
21738
  8
0
 10
4445.7043469702566654
 20
302.4366284492683121
 30
0.0
 40
30.4288430723354608
 50
265.4069972048438899
 51
266.5581595617593962
  0
ARC
  5
21739
  8
0
 10
4445.8631335931768263
 20
308.4700616025639874
 30
0.0
 40
36.4620425530021421
 50
267.1623688476735765
 51
268.122404768070794
  0
ARC
  5
2173A
  8
0
 10
4452.154716571298195
 20
510.7523697854622924
 30
0.0
 40
238.8424125338860051
 50
268.2478363464189783
 51
268.3927631990794112
  0
ARC
  5
2173B
  8
0
 10
4447.8926513003498258
 20
352.0341491606556019
 30
0.0
 40
80.0671463477656715
 50
268.3842866482336262
 51
268.8208748182344721
  0
ARC
  5
2173C
  8
0
 10
4277.7962057794484281
 20
-10551.6268139024905395
 30
0.0
 40
10824.9209323734794452
 50
89.104201273860653
 51
89.1074226136850882
  0
ARC
  5
2173D
  8
0
 10
4450.0986643459773404
 20
714.0679904467383494
 30
0.0
 40
442.1064363259658876
 50
269.6259598983619981
 51
269.7042029666632175
  0
ARC
  5
2173E
  8
0
 10
4447.8587927294838664
 20
272.0073162938318205
 30
0.0
 40
0.0395026271920346
 50
183.0149534575166115
 51
222.7413619365931936
  0
ARC
  5
2173F
  8
0
 10
4447.8592993517786454
 20
272.0078716497714026
 30
0.0
 40
0.0402516686519621
 50
222.8325014708453011
 51
256.913628591343695
  0
ARC
  5
21740
  8
0
 10
4447.8715383459966688
 20
272.0737207933029822
 30
0.0
 40
0.1072035088259224
 50
258.5110061476324859
 51
269.5064345966201813
  0
ARC
  5
21741
  8
0
 10
4447.8977761463092975
 20
272.6103038526574096
 30
0.0
 40
0.6443553048462883
 50
267.584115891174406
 51
268.9480389268119893
  0
ARC
  5
21742
  8
0
 10
4447.9200732943336334
 20
272.4074394353514208
 30
0.0
 40
0.4414225045454728
 50
270.7701167484004259
 51
274.0411773055055846
  0
ARC
  5
21743
  8
0
 10
4447.9490981222133996
 20
272.0182171128640221
 30
0.0
 40
0.0511451196480823
 50
272.3349411348758053
 51
292.9741373886874953
  0
ARC
  5
21744
  8
0
 10
4447.9529760942668872
 20
272.0074706841649004
 30
0.0
 40
0.039742353578371
 50
293.8739602417130072
 51
325.4703249570794128
  0
ARC
  5
21745
  8
0
 10
4447.9531713740589112
 20
272.0073120483003777
 30
0.0
 40
0.0394915607169635
 50
325.4993393394780128
 51
356.9881810155334279
  0
ARC
  5
21746
  8
0
 10
4447.9059758527728263
 20
271.676775112782309
 30
0.0
 40
0.2932238854061614
 50
84.9932254035326764
 51
95.0066086314538865
  0
ARC
  5
21747
  8
0
 10
4447.9059767004728201
 20
272.262232633094186
 30
0.0
 40
0.2944664801063326
 50
265.0144063685630726
 51
274.9854277555845101
  0
ARC
  5
21748
  8
0
 10
4447.8865081253643439
 20
272.3427689284815187
 30
0.0
 40
0.4165643988816584
 50
266.4948717874972886
 51
268.8701588630281094
  0
ARC
  5
21749
  8
0
 10
4447.8624548347979726
 20
271.9786601038476874
 30
0.0
 40
0.0516956772728878
 50
249.8123885535457873
 51
268.4319939247230877
  0
ARC
  5
2174A
  8
0
 10
4447.8588921099008076
 20
271.9672052482371782
 30
0.0
 40
0.0397197121484542
 50
224.6750470244508904
 51
248.9336420885717018
  0
ARC
  5
2174B
  8
0
 10
4447.8587115253149022
 20
271.9670200624364043
 30
0.0
 40
0.0394610963219407
 50
196.9826452179792113
 51
224.668193269406288
  0
ARC
  5
2174C
  8
0
 10
4447.85872081827074
 20
271.9670161024816935
 30
0.0
 40
0.0394688279468656
 50
183.0088960826120115
 51
196.9732070617623094
  0
ARC
  5
2174D
  8
0
 10
4447.9334329421380971
 20
272.1212789282744779
 30
0.0
 40
0.1950468622493409
 50
269.483944545843201
 51
277.8324275134551158
  0
ARC
  5
2174E
  8
0
 10
4447.9526372932195954
 20
271.9679201482463213
 30
0.0
 40
0.0405450187324532
 50
280.4815571112758903
 51
309.5234339088192996
  0
ARC
  5
2174F
  8
0
 10
4447.9532318991787179
 20
271.9670280867562724
 30
0.0
 40
0.0394786613635759
 50
309.6816916235887902
 51
337.7451022389258242
  0
ARC
  5
21750
  8
0
 10
4447.9532572695161434
 20
271.9670122957398917
 30
0.0
 40
0.0394492007316897
 50
337.7523733058761763
 51
356.9929591318190774
  0
ARC
  5
21751
  8
0
 10
4447.9059757904187791
 20
271.5622299136750257
 30
0.0
 40
0.3663256229270551
 50
85.9937673050676068
 51
94.0052406046701634
  0
ARC
  5
21752
  8
0
 10
4447.9059821295741131
 20
272.2944350392144202
 30
0.0
 40
0.3676660543400168
 50
266.0083950702039033
 51
273.9906128395296037
  0
ARC
  5
21753
  8
0
 10
4447.9059822615718076
 20
271.3921546963421179
 30
0.0
 40
0.4880411392695291
 50
86.9944053471209457
 51
93.0057149275161095
  0
ARC
  5
21754
  8
0
 10
4447.9059812369769134
 20
272.3683362981843743
 30
0.0
 40
0.4894812179962867
 50
267.0032562215326948
 51
272.9968640531214987
  0
ARC
  5
21755
  8
0
 10
4447.8810005083669239
 20
272.2143455890919199
 30
0.0
 40
0.3156516301281508
 50
265.2825838689261104
 51
269.8773082346440901
  0
ARC
  5
21756
  8
0
 10
4447.8593460440843046
 20
271.9400917729537923
 30
0.0
 40
0.0405576675591651
 50
231.5416831121584096
 51
263.9065906724941897
  0
ARC
  5
21757
  8
0
 10
4447.8587494454714033
 20
271.9391157225883262
 30
0.0
 40
0.0394225573031979
 50
183.0068033900583941
 51
231.3383892317667119
  0
ARC
  5
21758
  8
0
 10
4447.8826437375719252
 20
272.4208822604206262
 30
0.0
 40
0.5429485035227291
 50
267.3719303246904246
 51
269.758237431843213
  0
ARC
  5
21759
  8
0
 10
4447.8593759943823898
 20
271.9193523814166156
 30
0.0
 40
0.0408799847191421
 50
237.9285884671685949
 51
267.7180182495250733
  0
ARC
  5
2175A
  8
0
 10
4447.8587278271234027
 20
271.9180092722481845
 30
0.0
 40
0.0393980313331209
 50
183.0050990401483091
 51
237.6902166712156941
  0
ARC
  5
2175B
  8
0
 10
4447.8806644232317922
 20
272.7483120435422848
 30
0.0
 40
0.8782618051533004
 50
268.5474440516658774
 51
269.9605907723906739
  0
ARC
  5
2175C
  8
0
 10
4447.8590090508969297
 20
271.9104497689522191
 30
0.0
 40
0.0401219128447779
 50
238.2405809382312896
 51
269.1319543419760976
  0
ARC
  5
2175D
  8
0
 10
4447.8586999044691765
 20
271.90977258044569
 30
0.0
 40
0.0393835135000359
 50
207.8716944268917928
 51
238.1044331658480075
  0
ARC
  5
2175E
  8
0
 10
4447.858699509311009
 20
271.9097691713253084
 30
0.0
 40
0.0393815705434018
 50
183.0024074817663973
 51
207.8675786679596911
  0
ARC
  5
2175F
  8
0
 10
4447.9298910658153545
 20
272.250953380269209
 30
0.0
 40
0.3522634768579885
 50
270.2842743917304915
 51
274.2549199814401959
  0
ARC
  5
21760
  8
0
 10
4447.9527105155993922
 20
271.9397413739184799
 30
0.0
 40
0.0402175416106154
 50
274.730111802543604
 51
317.2269890632782108
  0
ARC
  5
21761
  8
0
 10
4447.9532243043713606
 20
271.9391114809316718
 30
0.0
 40
0.039412800803623
 50
317.3919317592041125
 51
356.9964516149659062
  0
ARC
  5
21762
  8
0
 10
4447.9266099264868899
 20
272.5805668250166036
 30
0.0
 40
0.7026465114065119
 50
270.4082509876708968
 51
272.0391410366325999
  0
ARC
  5
21763
  8
0
 10
4447.9522732553377864
 20
271.9196482036264229
 30
0.0
 40
0.0412882421687249
 50
269.0818410524232718
 51
307.3643220241951894
  0
ARC
  5
21764
  8
0
 10
4447.9532458916992255
 20
271.9180069111052944
 30
0.0
 40
0.0393941116421156
 50
307.6886969683321809
 51
356.9958732033471733
  0
ARC
  5
21765
  8
0
 10
4447.9305240299672732
 20
272.7871532035828182
 30
0.0
 40
0.9171042495529311
 50
270.0869793538382737
 51
271.4696040266601926
  0
ARC
  5
21766
  8
0
 10
4447.9530345213379405
 20
271.9102777911006115
 30
0.0
 40
0.0399399510273885
 50
271.4492341698324935
 51
302.4866931547766171
  0
ARC
  5
21767
  8
0
 10
4447.9532821216671437
 20
271.9097663836755032
 30
0.0
 40
0.0393756385358052
 50
302.5824740927308767
 51
356.9990415283498919
  0
ARC
  5
21768
  8
0
 10
4444.7274043442248512
 20
270.9938856805194973
 30
0.0
 40
1.0991484056981671
 50
81.3106748895702651
 51
95.7292632415809379
  0
ARC
  5
21769
  8
0
 10
4444.8550437300136764
 20
272.2279703185026278
 30
0.0
 40
0.1524711844617243
 50
269.2804851705515148
 51
284.5933826939125879
  0
ARC
  5
2176A
  8
0
 10
4444.6814434043935762
 20
272.3288835507797785
 30
0.0
 40
0.2496216274490156
 50
255.1999981160620905
 51
268.5562885349099247
  0
ARC
  5
2176B
  8
0
 10
4444.6872761910326517
 20
272.5030115403770878
 30
0.0
 40
0.4558795746683052
 50
261.194187785462816
 51
268.4997380642054736
  0
ARC
  5
2176C
  8
0
 10
4444.6631970027046918
 20
271.467653511143908
 30
0.0
 40
0.5866354913786007
 50
88.7023830449160897
 51
94.4689185723219964
  0
ARC
  5
2176D
  8
0
 10
4444.6311086990581316
 20
270.6650608081909013
 30
0.0
 40
1.3719424376971401
 50
88.1283091121985649
 51
90.5704052722199862
  0
ARC
  5
2176E
  8
0
 10
4444.7395901867357679
 20
273.6855497450695225
 30
0.0
 40
1.65313272208786
 50
265.7629147823503217
 51
267.7974405292592905
  0
ARC
  5
2176F
  8
0
 10
4444.716991726926608
 20
272.0355573663072164
 30
0.0
 40
0.0394810873407805
 50
183.0067869003613055
 51
212.9604928891704105
  0
ARC
  5
21770
  8
0
 10
4444.7173362690718932
 20
272.035856863447691
 30
0.0
 40
0.0399331696485154
 50
213.0520900854453998
 51
253.0291597500390992
  0
ARC
  5
21771
  8
0
 10
4444.7233003653800552
 20
272.0597651906142005
 30
0.0
 40
0.064553775970845
 50
254.1600827714339914
 51
266.5214331228181095
  0
ARC
  5
21772
  8
0
 10
4444.7464980472877869
 20
272.3691406098777748
 30
0.0
 40
0.374792349871347
 50
265.8512911407970023
 51
268.7812136899742086
  0
ARC
  5
21773
  8
0
 10
4444.7132589121911224
 20
271.9747353221090975
 30
0.0
 40
0.0434072152095544
 50
183.4531178817250918
 51
203.6219872844380063
  0
ARC
  5
21774
  8
0
 10
4444.7094869898401157
 20
271.973471493438808
 30
0.0
 40
0.0394465127220746
 50
204.1354221500172912
 51
234.9089170312055046
  0
ARC
  5
21775
  8
0
 10
4444.7099667216407397
 20
271.9742983258814775
 30
0.0
 40
0.0403989314898441
 50
235.0263373490371066
 51
260.1255046280156193
  0
ARC
  5
21776
  8
0
 10
4444.7327195691077577
 20
272.1633909017468795
 30
0.0
 40
0.230809386876576
 50
262.6116021740079987
 51
268.7310229703497271
  0
ARC
  5
21777
  8
0
 10
4444.7891727939049815
 20
272.7835386434097131
 30
0.0
 40
0.8523344472095825
 50
269.5193897145848041
 51
270.92378846872748
  0
ARC
  5
21778
  8
0
 10
4444.8041397591314308
 20
271.9711183663325187
 30
0.0
 40
0.0394188870605279
 50
330.3938425185734218
 51
355.5726822507016891
  0
ARC
  5
21779
  8
0
 10
4444.7428694278050898
 20
271.4311798322489722
 30
0.0
 40
0.5025407082001311
 50
85.6340835434135244
 51
91.4717362847428888
  0
ARC
  5
2177A
  8
0
 10
4444.7682413040847678
 20
272.435534937428713
 30
0.0
 40
0.5034375661876421
 50
265.6392878304449141
 51
271.4665319977701188
  0
ARC
  5
2177B
  8
0
 10
4444.8114981313283351
 20
272.0060130586305149
 30
0.0
 40
0.0394377527539354
 50
327.4265987756522804
 51
356.9960237956640867
  0
ARC
  5
2177C
  8
0
 10
4444.8113648600419765
 20
272.0061128875710779
 30
0.0
 40
0.0396038085921365
 50
293.5204304948588856
 51
327.4086947791706734
  0
ARC
  5
2177D
  8
0
 10
4444.8089535575263653
 20
272.0128573346522103
 30
0.0
 40
0.0467526755199447
 50
273.3687445459112269
 51
292.9314642228250136
  0
ARC
  5
2177E
  8
0
 10
4444.7844894907220805
 20
272.3435244158891919
 30
0.0
 40
0.3783188535488513
 50
270.8233436236697003
 51
274.1246750540803987
  0
ARC
  5
2177F
  8
0
 10
4444.7390407983530167
 20
272.2010895231434802
 30
0.0
 40
0.2358438483411544
 50
263.1674059032790183
 51
269.8717676298712718
  0
ARC
  5
21780
  8
0
 10
4444.7172959955023543
 20
272.0061607084804791
 30
0.0
 40
0.0397446882632061
 50
183.1917511579050881
 51
260.8601130950916058
  0
ARC
  5
21781
  8
0
 10
4444.7641509203031092
 20
271.5992816265817282
 30
0.0
 40
0.3689850885498178
 50
86.0082083745909216
 51
93.9615424163872035
  0
ARC
  5
21782
  8
0
 10
4444.7643441939280819
 20
272.3314503675842957
 30
0.0
 40
0.3649702300109666
 50
265.9643914628786092
 51
274.005359328115901
  0
ARC
  5
21783
  8
0
 10
4444.7862566314815922
 20
272.2662211183813952
 30
0.0
 40
0.2718139099526253
 50
270.7789839195187938
 51
275.8767239382635807
  0
ARC
  5
21784
  8
0
 10
4444.8103703874166968
 20
272.0368197242439123
 30
0.0
 40
0.0411521916680311
 50
275.1819878242469031
 51
320.8705420023936767
  0
ARC
  5
21785
  8
0
 10
4444.8114946675013925
 20
272.0355565064355119
 30
0.0
 40
0.0394838039114398
 50
321.2629298997587171
 51
356.9924800974418986
  0
ARC
  5
21786
  8
0
 10
4444.7642416772650904
 20
271.7041637543010779
 30
0.0
 40
0.2931728984973913
 50
84.9919595171845685
 51
95.007044361467095
  0
ARC
  5
21787
  8
0
 10
4444.7642467664873038
 20
272.2896165235924855
 30
0.0
 40
0.2945127160144681
 50
265.0147979561742773
 51
274.9842059225076127
  0
ARC
  5
21788
  8
0
 10
4444.1063923443771273
 20
272.8856641354274188
 30
0.0
 40
0.8262174229133529
 50
266.6997345504021268
 51
270.0415139468207144
  0
ARC
  5
21789
  8
0
 10
4443.9836720960702223
 20
270.8556472724175137
 30
0.0
 40
1.21009964975008
 50
84.1509452524928463
 51
86.5429270742174452
  0
ARC
  5
2178A
  8
0
 10
4444.0803326248587837
 20
272.487691785497077
 30
0.0
 40
0.4136941366639064
 50
266.8453511997927876
 51
273.6931697083987274
  0
ARC
  5
2178B
  8
0
 10
4444.0241365253314143
 20
271.5735431454247077
 30
0.0
 40
0.5081125811943227
 50
80.616510168923071
 51
86.1720225405893814
  0
ARC
  5
2178C
  8
0
 10
4443.8458810359461495
 20
271.8933247382097989
 30
0.0
 40
0.198240318858776
 50
87.1274355295553562
 51
95.4115590654907066
  0
ARC
  5
2178D
  8
0
 10
4443.9068639499218989
 20
272.5535365501555134
 30
0.0
 40
0.4696631931104702
 50
260.2324766781316043
 51
266.7606566137367849
  0
ARC
  5
2178E
  8
0
 10
4443.8223271246988588
 20
271.136384341768121
 30
0.0
 40
0.9392573248424252
 50
86.4456439299091528
 51
89.700936800315219
  0
ARC
  5
2178F
  8
0
 10
4443.9470431072186329
 20
273.1676755619839128
 30
0.0
 40
1.0985996676068539
 50
263.7388609997419167
 51
266.3612145892403191
  0
ARC
  5
21790
  8
0
 10
4444.0072066950333465
 20
272.076024483948288
 30
0.0
 40
0.0811312481124046
 50
267.0055173332219169
 51
282.3702330292124998
  0
ARC
  5
21791
  8
0
 10
4444.0145136297605859
 20
272.0351660268298133
 30
0.0
 40
0.0396889252094452
 50
284.7033744564257063
 51
317.2638712409421942
  0
ARC
  5
21792
  8
0
 10
4444.0146964442719764
 20
272.0349738801414219
 30
0.0
 40
0.0394242589019894
 50
317.288675060627213
 51
355.2285408441280765
  0
ARC
  5
21793
  8
0
 10
4444.0071140146328617
 20
273.3213265638204916
 30
0.0
 40
1.3263290277297599
 50
266.7894530099734993
 51
269.8209149338132988
  0
ARC
  5
21794
  8
0
 10
4443.9331486324199432
 20
272.0868868001533087
 30
0.0
 40
0.0898081092488274
 50
252.5140020438149975
 51
269.7983541694607084
  0
ARC
  5
21795
  8
0
 10
4443.9208749275021546
 20
272.0379439324793225
 30
0.0
 40
0.0395528523953477
 50
201.7444523068782019
 51
248.1648534917212885
  0
ARC
  5
21796
  8
0
 10
4443.920770061429721
 20
272.0378763723380757
 30
0.0
 40
0.0394304264318993
 50
181.2362365212703139
 51
201.709718505110402
  0
ARC
  5
21797
  8
0
 10
4443.1076168495101228
 20
272.4254452855552131
 30
0.0
 40
0.2959167643057388
 50
257.7823319562588154
 51
266.3414236731147753
  0
ARC
  5
21798
  8
0
 10
4442.8392323156012935
 20
264.2219996348121072
 30
0.0
 40
7.9039708225711607
 50
86.5657877403791645
 51
86.8929130248788368
  0
ARC
  5
21799
  8
0
 10
4447.9099212595419885
 20
270.997472676295672
 30
0.0
 40
1.0752083045794829
 50
82.9056946157140118
 51
97.5744077027214161
  0
ARC
  5
2179A
  8
0
 10
4447.9941720604174407
 20
272.2092126133928787
 30
0.0
 40
0.152684514703852
 50
270.4231454031963153
 51
288.5367965496166107
  0
ARC
  5
2179B
  8
0
 10
4447.8175112873386752
 20
272.239687707251619
 30
0.0
 40
0.1831531095173144
 50
254.3793299661406877
 51
269.7318899810571224
  0
ARC
  5
2179C
  8
0
 10
4447.8127841106297637
 20
272.237037065652828
 30
0.0
 40
0.2210524962793639
 50
258.3680888192304792
 51
270.9965115567136991
  0
ARC
  5
2179D
  8
0
 10
4447.8185779647883464
 20
271.7500247551070061
 30
0.0
 40
0.2751480670416313
 50
90.0580376356326155
 51
100.5469076242499966
  0
ARC
  5
2179E
  8
0
 10
4447.9957043314543625
 20
272.2673585030212848
 30
0.0
 40
0.2514708007050728
 50
269.9133782524048115
 51
281.0251317233045825
  0
ARC
  5
2179F
  8
0
 10
4447.9875100214303529
 20
271.6860318283013953
 30
0.0
 40
0.3391996641189961
 50
80.448380712734064
 51
88.9620503832044278
  0
ARC
  5
217A0
  8
0
 10
4447.8168313973319528
 20
272.4143756912093863
 30
0.0
 40
0.4242160382677611
 50
263.4131119132856043
 51
269.9683668684929216
  0
ARC
  5
217A1
  8
0
 10
4447.8214278644582009
 20
271.5123129697515196
 30
0.0
 40
0.4835885588295814
 50
90.4435741819931138
 51
96.3228815158946503
  0
ARC
  5
217A2
  8
0
 10
4447.9947986905226571
 20
272.4215182500719266
 30
0.0
 40
0.4313606954604148
 50
270.0755977903154985
 51
276.5260576809051258
  0
ARC
  5
217A3
  8
0
 10
4447.9910693916708624
 20
271.522000753613213
 30
0.0
 40
0.473897510736931
 50
83.6084213674061232
 51
89.6124103128477856
  0
ARC
  5
217A4
  8
0
 10
4447.9941604621753868
 20
272.7371443215698719
 30
0.0
 40
0.7624352795691115
 50
270.113195428773281
 51
273.7342527091025772
  0
ARC
  5
217A5
  8
0
 10
4447.9888247604758362
 20
271.0801732326842171
 30
0.0
 40
0.897840271305394
 50
86.4884652100786582
 51
89.623151441892432
  0
ARC
  5
217A6
  8
0
 10
4447.8309373554548074
 20
273.1366287018261119
 30
0.0
 40
1.1619968713898201
 50
266.9039149300302824
 51
269.2784129089876046
  0
ARC
  5
217A7
  8
0
 10
4447.8184240350274194
 20
271.2233483937226879
 30
0.0
 40
0.7546541690045788
 50
90.0903149461522759
 51
93.817724285527234
  0
LINE
  5
217A8
  8
0
 10
4447.0361542710688809
 20
271.9113459395882728
 30
0.0
 11
4447.0326421744493928
 21
271.9783691459905981
 31
0.0
  0
LINE
  5
217A9
  8
0
 10
4447.0361662476689162
 20
271.919583330088301
 30
0.0
 11
4447.0329141075580992
 21
271.981638574428473
 31
0.0
  0
LINE
  5
217AA
  8
0
 10
4447.0361634352693727
 20
271.9406873235882927
 30
0.0
 11
4447.0330799183248018
 21
271.9995138083627921
 31
0.0
  0
LINE
  5
217AB
  8
0
 10
4447.0360886767693955
 20
271.968583836788298
 30
0.0
 11
4447.0329313909523989
 21
272.0288015946032942
 31
0.0
  0
LINE
  5
217AC
  8
0
 10
4447.0361270547691674
 20
272.0088780834882982
 30
0.0
 11
4447.0328052167287751
 21
272.0722125399479978
 31
0.0
  0
LINE
  5
217AD
  8
0
 10
4447.2094344270690272
 20
271.9685823358882999
 30
0.0
 11
4447.2125911513030587
 21
272.0287694502724207
 31
0.0
  0
LINE
  5
217AE
  8
0
 10
4447.2093652380690401
 20
271.9406858296882774
 30
0.0
 11
4447.2124499368474062
 21
271.9995154480064912
 31
0.0
  0
LINE
  5
217AF
  8
0
 10
4447.2093681410688077
 20
271.9195818419883039
 30
0.0
 11
4447.212620748307927
 21
271.9816256017472256
 31
0.0
  0
LINE
  5
217B0
  8
0
 10
4447.2093860373688585
 20
271.9113444570883189
 30
0.0
 11
4447.2128984130549725
 21
271.9783510430979732
 31
0.0
  0
LINE
  5
217B1
  8
0
 10
4447.2093906603686264
 20
272.0088765774883086
 30
0.0
 11
4447.2127482826499545
 21
272.0728720301202088
 31
0.0
  0
ARC
  5
217B2
  8
0
 10
4447.1149798475689749
 20
272.7632663849882988
 30
0.0
 40
0.8335790226999999
 50
268.631820790310428
 51
268.7684629062155182
  0
ARC
  5
217B3
  8
0
 10
4447.1220346157688255
 20
274.2713750246883251
 30
0.0
 40
2.389926653899999
 50
269.403049623389677
 51
270.017567058806776
  0
ARC
  5
217B4
  8
0
 10
4447.1235403073687849
 20
274.2713561638882993
 30
0.0
 40
2.3899078057000001
 50
269.9814696649842176
 51
270.5959682250759215
  0
ARC
  5
217B5
  8
0
 10
4447.1235132632691602
 20
273.5125340818883046
 30
0.0
 40
1.6103929852000001
 50
269.9732905640851186
 51
270.8862250812779848
  0
ARC
  5
217B6
  8
0
 10
4447.1220421802690907
 20
273.512498910588306
 30
0.0
 40
1.610357800099999
 50
269.1127772950216013
 51
270.0256304292789196
  0
ARC
  5
217B7
  8
0
 10
4447.1220538542693248
 20
273.1522310101883022
 30
0.0
 40
1.2226065164999991
 50
268.8288015230921246
 51
270.0331651130841237
  0
ARC
  5
217B8
  8
0
 10
4447.1234898240691109
 20
273.1522250691883187
 30
0.0
 40
1.2226005875999999
 50
269.9658701870939126
 51
271.1702088550163126
  0
ARC
  5
217B9
  8
0
 10
4447.1222136251690245
 20
272.9869332497881942
 30
0.0
 40
1.0174232064999991
 50
268.9026417314757964
 51
270.0306970330778995
  0
ARC
  5
217BA
  8
0
 10
4447.1233211370690697
 20
272.9869294940883151
 30
0.0
 40
1.0174194601999991
 50
269.9683278267896753
 51
271.0963723096754165
  0
ARC
  5
217BB
  8
0
 10
4447.1214271718690725
 20
276.3589673484883065
 30
0.0
 40
4.4853447849999988
 50
269.6859553298826881
 51
270.0171625768011836
  0
ARC
  5
217BC
  8
0
 10
4447.1241897635691203
 20
276.3587914507882033
 30
0.0
 40
4.4851689104999997
 50
269.9818725285009009
 51
270.3130888393225177
  0
ARC
  5
217BD
  8
0
 10
4447.0755750040725616
 20
272.0109557867318131
 30
0.0
 40
0.0395026271920346
 50
183.0149534575166115
 51
222.7413619365931936
  0
ARC
  5
217BE
  8
0
 10
4447.07608162636825
 20
272.0115111426713952
 30
0.0
 40
0.0402516686519621
 50
222.8325014708453011
 51
256.913628591343695
  0
ARC
  5
217BF
  8
0
 10
4447.0883206205862734
 20
272.0773602862029747
 30
0.0
 40
0.1072035088259224
 50
258.5110061476324859
 51
269.5064345966201813
  0
ARC
  5
217C0
  8
0
 10
4447.1145584208979926
 20
272.6139433455574022
 30
0.0
 40
0.6443553048462883
 50
267.584115891174406
 51
268.9480389268119893
  0
ARC
  5
217C1
  8
0
 10
4447.1368555689223285
 20
272.4110789282514133
 30
0.0
 40
0.4414225045454728
 50
270.7701167484004259
 51
274.0411773055055846
  0
ARC
  5
217C2
  8
0
 10
4447.1658803968011853
 20
272.0218566057639009
 30
0.0
 40
0.0511451196480823
 50
272.3349411348758053
 51
292.9741373886874953
  0
ARC
  5
217C3
  8
0
 10
4447.1697583688574014
 20
272.0111101770648929
 30
0.0
 40
0.039742353578371
 50
293.8739602417130072
 51
325.4703249570794128
  0
ARC
  5
217C4
  8
0
 10
4447.1699536486476063
 20
272.0109515412004271
 30
0.0
 40
0.0394915607169635
 50
325.4993393394780128
 51
356.9881810155334279
  0
ARC
  5
217C5
  8
0
 10
4447.122758127362431
 20
271.6804146056823015
 30
0.0
 40
0.2932238854061614
 50
84.9932254035326764
 51
95.0066086314538865
  0
ARC
  5
217C6
  8
0
 10
4447.1227589750633342
 20
272.2658721259941785
 30
0.0
 40
0.2944664801063326
 50
265.0144063685630726
 51
274.9854277555845101
  0
ARC
  5
217C7
  8
0
 10
4447.1032903999539485
 20
272.3464084213815113
 30
0.0
 40
0.4165643988816584
 50
266.4948717874972886
 51
268.8701588630281094
  0
ARC
  5
217C8
  8
0
 10
4447.0792371093866677
 20
271.98229959674768
 30
0.0
 40
0.0516956772728878
 50
249.8123885535457873
 51
268.4319939247230877
  0
ARC
  5
217C9
  8
0
 10
4447.0756743844904122
 20
271.9708447411372276
 30
0.0
 40
0.0397197121484542
 50
224.6750470244508904
 51
248.9336420885717018
  0
ARC
  5
217CA
  8
0
 10
4447.0754937999035974
 20
271.9706595553362831
 30
0.0
 40
0.0394610963219407
 50
196.9826452179792113
 51
224.668193269406288
  0
ARC
  5
217CB
  8
0
 10
4447.0755030928603446
 20
271.970655595381686
 30
0.0
 40
0.0394688279468656
 50
183.0088960826120115
 51
196.9732070617623094
  0
ARC
  5
217CC
  8
0
 10
4447.1502152167267923
 20
272.1249184211745273
 30
0.0
 40
0.1950468622493409
 50
269.483944545843201
 51
277.8324275134551158
  0
ARC
  5
217CD
  8
0
 10
4447.1694195678101096
 20
271.9715596411463139
 30
0.0
 40
0.0405450187324532
 50
280.4815571112758903
 51
309.5234339088192996
  0
ARC
  5
217CE
  8
0
 10
4447.1700141737683225
 20
271.9706675796563218
 30
0.0
 40
0.0394786613635759
 50
309.6816916235887902
 51
337.7451022389258242
  0
ARC
  5
217CF
  8
0
 10
4447.1700395441057481
 20
271.9706517886398842
 30
0.0
 40
0.0394492007316897
 50
337.7523733058761763
 51
356.9929591318190774
  0
ARC
  5
217D0
  8
0
 10
4447.1227580650092932
 20
271.5658694065750183
 30
0.0
 40
0.3663256229270551
 50
85.9937673050676068
 51
94.0052406046701634
  0
ARC
  5
217D1
  8
0
 10
4447.1227644041618987
 20
272.2980745321144127
 30
0.0
 40
0.3676660543400168
 50
266.0083950702039033
 51
273.9906128395296037
  0
ARC
  5
217D2
  8
0
 10
4447.1227645361595933
 20
271.4160224284416927
 30
0.0
 40
0.4880411392695291
 50
86.9944053471209457
 51
93.0057149275161095
  0
ARC
  5
217D3
  8
0
 10
4447.1227635115674275
 20
272.3922040302841197
 30
0.0
 40
0.4894812179962867
 50
267.0032562215326948
 51
272.9968640531214987
  0
ARC
  5
217D4
  8
0
 10
4447.097782782955619
 20
272.2179850819919125
 30
0.0
 40
0.3156516301281508
 50
265.2825838689261104
 51
269.8773082346440901
  0
ARC
  5
217D5
  8
0
 10
4447.0761283186729997
 20
271.9437312658537849
 30
0.0
 40
0.0405576675591651
 50
231.5416831121584096
 51
263.9065906724941897
  0
ARC
  5
217D6
  8
0
 10
4447.0755317200610079
 20
271.9427552154883188
 30
0.0
 40
0.0394225573031979
 50
183.0068033900583941
 51
231.3383892317667119
  0
ARC
  5
217D7
  8
0
 10
4447.0994260121606203
 20
272.4245217533206755
 30
0.0
 40
0.5429485035227291
 50
267.3719303246904246
 51
269.758237431843213
  0
ARC
  5
217D8
  8
0
 10
4447.0761582689719944
 20
271.9229918743164944
 30
0.0
 40
0.0408799847191421
 50
237.9285884671685949
 51
267.7180182495250733
  0
ARC
  5
217D9
  8
0
 10
4447.0755101017111883
 20
271.9216487651481771
 30
0.0
 40
0.0393980313331209
 50
183.0050990401483091
 51
237.6902166712156941
  0
ARC
  5
217DA
  8
0
 10
4447.0974466978213968
 20
272.7519515364422773
 30
0.0
 40
0.8782618051533004
 50
268.5474440516658774
 51
269.9605907723906739
  0
ARC
  5
217DB
  8
0
 10
4447.0757913254856248
 20
271.9140892618522116
 30
0.0
 40
0.0401219128447779
 50
238.2405809382312896
 51
269.1319543419760976
  0
ARC
  5
217DC
  8
0
 10
4447.0754821790578717
 20
271.9134120733456825
 30
0.0
 40
0.0393835135000359
 50
207.8716944268917928
 51
238.1044331658480075
  0
ARC
  5
217DD
  8
0
 10
4447.0754817838997042
 20
271.913408664225301
 30
0.0
 40
0.0393815705434018
 50
183.0024074817663973
 51
207.8675786679596911
  0
ARC
  5
217DE
  8
0
 10
4447.1466733404040497
 20
272.2545928731692015
 30
0.0
 40
0.3522634768579885
 50
270.2842743917304915
 51
274.2549199814401959
  0
ARC
  5
217DF
  8
0
 10
4447.1694927901871779
 20
271.9433808668184724
 30
0.0
 40
0.0402175416106154
 50
274.730111802543604
 51
317.2269890632782108
  0
ARC
  5
217E0
  8
0
 10
4447.1700065789600558
 20
271.9427509738317212
 30
0.0
 40
0.039412800803623
 50
317.3919317592041125
 51
356.9964516149659062
  0
ARC
  5
217E1
  8
0
 10
4447.143392201075585
 20
272.5842063179165962
 30
0.0
 40
0.7026465114065119
 50
270.4082509876708968
 51
272.0391410366325999
  0
ARC
  5
217E2
  8
0
 10
4447.169055529927391
 20
271.9232876965264154
 30
0.0
 40
0.0412882421687249
 50
269.0818410524232718
 51
307.3643220241951894
  0
ARC
  5
217E3
  8
0
 10
4447.1700281662888301
 20
271.9216464040051733
 30
0.0
 40
0.0393941116421156
 50
307.6886969683321809
 51
356.9958732033471733
  0
ARC
  5
217E4
  8
0
 10
4447.1473063045559684
 20
272.7907926964828107
 30
0.0
 40
0.9171042495529311
 50
270.0869793538382737
 51
271.4696040266601926
  0
ARC
  5
217E5
  8
0
 10
4447.1698167959266357
 20
271.913917284000604
 30
0.0
 40
0.0399399510273885
 50
271.4492341698324935
 51
302.4866931547766171
  0
ARC
  5
217E6
  8
0
 10
4447.1700643962567483
 20
271.9134058765756095
 30
0.0
 40
0.0393756385358052
 50
302.5824740927308767
 51
356.9990415283498919
  0
ARC
  5
217E7
  8
0
 10
4447.1267035341315932
 20
271.0011121691957214
 30
0.0
 40
1.0752083045794829
 50
82.9056946157140118
 51
97.5744077027214161
  0
ARC
  5
217E8
  8
0
 10
4447.2109543350043168
 20
272.2128521062929281
 30
0.0
 40
0.152684514703852
 50
270.4231454031963153
 51
288.5367965496166107
  0
ARC
  5
217E9
  8
0
 10
4447.0342935619273703
 20
272.2433272001516116
 30
0.0
 40
0.1831531095173144
 50
254.3793299661406877
 51
269.7318899810571224
  0
ARC
  5
217EA
  8
0
 10
4447.0295663852193684
 20
272.2406765585528206
 30
0.0
 40
0.2210524962793639
 50
258.3680888192304792
 51
270.9965115567136991
  0
ARC
  5
217EB
  8
0
 10
4447.0353602393779511
 20
271.7536642480068849
 30
0.0
 40
0.2751480670416313
 50
90.0580376356326155
 51
100.5469076242499966
  0
ARC
  5
217EC
  8
0
 10
4447.2124866060430577
 20
272.2709979959212774
 30
0.0
 40
0.2514708007050728
 50
269.9133782524048115
 51
281.0251317233045825
  0
ARC
  5
217ED
  8
0
 10
4447.2042922960199576
 20
271.6896713212013879
 30
0.0
 40
0.3391996641189961
 50
80.448380712734064
 51
88.9620503832044278
  0
ARC
  5
217EE
  8
0
 10
4447.0336136719215574
 20
272.4180151841093789
 30
0.0
 40
0.4242160382677611
 50
263.4131119132856043
 51
269.9683668684929216
  0
ARC
  5
217EF
  8
0
 10
4447.0382101390468961
 20
271.5159524626513985
 30
0.0
 40
0.4835885588295814
 50
90.4435741819931138
 51
96.3228815158946503
  0
ARC
  5
217F0
  8
0
 10
4447.2115809651131713
 20
272.4251577429719191
 30
0.0
 40
0.4313606954604148
 50
270.0755977903154985
 51
276.5260576809051258
  0
ARC
  5
217F1
  8
0
 10
4447.2078516662595575
 20
271.5256402465132055
 30
0.0
 40
0.473897510736931
 50
83.6084213674061232
 51
89.6124103128477856
  0
ARC
  5
217F2
  8
0
 10
4447.2109427367649914
 20
272.7407838144699213
 30
0.0
 40
0.7624352795691115
 50
270.113195428773281
 51
273.7342527091025772
  0
ARC
  5
217F3
  8
0
 10
4447.2056070350654409
 20
271.0838127255842096
 30
0.0
 40
0.897840271305394
 50
86.4884652100786582
 51
89.623151441892432
  0
ARC
  5
217F4
  8
0
 10
4447.0477196300425931
 20
273.1402681947261044
 30
0.0
 40
1.1619968713898201
 50
266.9039149300302824
 51
269.2784129089876046
  0
ARC
  5
217F5
  8
0
 10
4447.0352063096170241
 20
271.2269878866226804
 30
0.0
 40
0.7546541690045788
 50
90.0903149461522759
 51
93.817724285527234
  0
LINE
  5
217F6
  8
0
 10
4446.2482230207797329
 20
271.9227640675882753
 30
0.0
 11
4446.2447109241602448
 21
271.9897872739906006
 31
0.0
  0
LINE
  5
217F7
  8
0
 10
4446.2482349973788587
 20
271.9310014580883035
 30
0.0
 11
4446.2449828572680417
 21
271.9930567024284755
 31
0.0
  0
LINE
  5
217F8
  8
0
 10
4446.2482321849802247
 20
271.9521054515882952
 30
0.0
 11
4446.2451486680356538
 21
272.0109319363629083
 31
0.0
  0
LINE
  5
217F9
  8
0
 10
4446.2481574264802475
 20
271.9800019647883005
 30
0.0
 11
4446.2450001406623414
 21
272.0402197226032968
 31
0.0
  0
LINE
  5
217FA
  8
0
 10
4446.2481958044791099
 20
272.0202962114883007
 30
0.0
 11
4446.2448739664396271
 21
272.083630667948114
 31
0.0
  0
LINE
  5
217FB
  8
0
 10
4446.4215031767798791
 20
271.9800004638883024
 30
0.0
 11
4446.4246599010139107
 21
272.0401875782723096
 31
0.0
  0
LINE
  5
217FC
  8
0
 10
4446.4214339877789826
 20
271.9521039576882799
 30
0.0
 11
4446.4245186865582582
 21
272.01093357600638
 31
0.0
  0
LINE
  5
217FD
  8
0
 10
4446.4214368907796597
 20
271.9309999699883065
 30
0.0
 11
4446.424689498018779
 21
271.9930437297472281
 31
0.0
  0
LINE
  5
217FE
  8
0
 10
4446.421454787078801
 20
271.9227625850883214
 30
0.0
 11
4446.4249671627658245
 21
271.9897691710979757
 31
0.0
  0
LINE
  5
217FF
  8
0
 10
4446.4214594100803879
 20
272.0202947054881975
 30
0.0
 11
4446.4248170323608065
 21
272.084290158120325
 31
0.0
  0
ARC
  5
21800
  8
0
 10
4446.3270485972798269
 20
272.7746845129883013
 30
0.0
 40
0.8335790226999999
 50
268.631820790310428
 51
268.7684629062155182
  0
ARC
  5
21801
  8
0
 10
4446.3341033654796774
 20
274.2827931526883276
 30
0.0
 40
2.389926653899999
 50
269.403049623389677
 51
270.017567058806776
  0
ARC
  5
21802
  8
0
 10
4446.3356090570796368
 20
274.2827742918883018
 30
0.0
 40
2.3899078057000001
 50
269.9814696649842176
 51
270.5959682250759215
  0
ARC
  5
21803
  8
0
 10
4446.3355820129800122
 20
273.5239522098883072
 30
0.0
 40
1.6103929852000001
 50
269.9732905640851186
 51
270.8862250812779848
  0
ARC
  5
21804
  8
0
 10
4446.3341109299799427
 20
273.5239170385883085
 30
0.0
 40
1.610357800099999
 50
269.1127772950216013
 51
270.0256304292789196
  0
ARC
  5
21805
  8
0
 10
4446.3341226039801768
 20
273.1636491381883047
 30
0.0
 40
1.2226065164999991
 50
268.8288015230921246
 51
270.0331651130841237
  0
ARC
  5
21806
  8
0
 10
4446.3355585737799629
 20
273.1636431971883212
 30
0.0
 40
1.2226005875999999
 50
269.9658701870939126
 51
271.1702088550163126
  0
ARC
  5
21807
  8
0
 10
4446.3342823748798764
 20
272.9983513777883104
 30
0.0
 40
1.0174232064999991
 50
268.9026417314757964
 51
270.0306970330778995
  0
ARC
  5
21808
  8
0
 10
4446.3353898867799217
 20
272.9983476220882039
 30
0.0
 40
1.0174194601999991
 50
269.9683278267896753
 51
271.0963723096754165
  0
ARC
  5
21809
  8
0
 10
4446.3334959215799245
 20
276.3703854764881953
 30
0.0
 40
4.4853447849999988
 50
269.6859553298826881
 51
270.0171625768011836
  0
ARC
  5
2180A
  8
0
 10
4446.3362585132790628
 20
276.3702095787883195
 30
0.0
 40
4.4851689104999997
 50
269.9818725285009009
 51
270.3130888393225177
  0
ARC
  5
2180B
  8
0
 10
4446.2876437537843231
 20
272.0223739147318156
 30
0.0
 40
0.0395026271920346
 50
183.0149534575166115
 51
222.7413619365931936
  0
ARC
  5
2180C
  8
0
 10
4446.288150376079102
 20
272.0229292706713977
 30
0.0
 40
0.0402516686519621
 50
222.8325014708453011
 51
256.913628591343695
  0
ARC
  5
2180D
  8
0
 10
4446.3003893702953064
 20
272.0887784142029773
 30
0.0
 40
0.1072035088259224
 50
258.5110061476324859
 51
269.5064345966201813
  0
ARC
  5
2180E
  8
0
 10
4446.3266271706079351
 20
272.6253614735574047
 30
0.0
 40
0.6443553048462883
 50
267.584115891174406
 51
268.9480389268119893
  0
ARC
  5
2180F
  8
0
 10
4446.3489243186331805
 20
272.4224970562513022
 30
0.0
 40
0.4414225045454728
 50
270.7701167484004259
 51
274.0411773055055846
  0
ARC
  5
21810
  8
0
 10
4446.3779491465129468
 20
272.0332747337640171
 30
0.0
 40
0.0511451196480823
 50
272.3349411348758053
 51
292.9741373886874953
  0
ARC
  5
21811
  8
0
 10
4446.3818271185673439
 20
272.0225283050648954
 30
0.0
 40
0.039742353578371
 50
293.8739602417130072
 51
325.4703249570794128
  0
ARC
  5
21812
  8
0
 10
4446.3820223983593678
 20
272.0223696692003728
 30
0.0
 40
0.0394915607169635
 50
325.4993393394780128
 51
356.9881810155334279
  0
ARC
  5
21813
  8
0
 10
4446.3348268770723735
 20
271.691832733682304
 30
0.0
 40
0.2932238854061614
 50
84.9932254035326764
 51
95.0066086314538865
  0
ARC
  5
21814
  8
0
 10
4446.3348277247741862
 20
272.2772902539941811
 30
0.0
 40
0.2944664801063326
 50
265.0144063685630726
 51
274.9854277555845101
  0
ARC
  5
21815
  8
0
 10
4446.315359149663891
 20
272.3578265493815138
 30
0.0
 40
0.4165643988816584
 50
266.4948717874972886
 51
268.8701588630281094
  0
ARC
  5
21816
  8
0
 10
4446.2913058590993387
 20
271.9937177247476825
 30
0.0
 40
0.0516956772728878
 50
249.8123885535457873
 51
268.4319939247230877
  0
ARC
  5
21817
  8
0
 10
4446.2877431342021737
 20
271.9822628691371733
 30
0.0
 40
0.0397197121484542
 50
224.6750470244508904
 51
248.9336420885717018
  0
ARC
  5
21818
  8
0
 10
4446.2875625496153589
 20
271.9820776833362856
 30
0.0
 40
0.0394610963219407
 50
196.9826452179792113
 51
224.668193269406288
  0
ARC
  5
21819
  8
0
 10
4446.2875718425711966
 20
271.9820737233816885
 30
0.0
 40
0.0394688279468656
 50
183.0088960826120115
 51
196.9732070617623094
  0
ARC
  5
2181A
  8
0
 10
4446.3622839664385538
 20
272.136336549174473
 30
0.0
 40
0.1950468622493409
 50
269.483944545843201
 51
277.8324275134551158
  0
ARC
  5
2181B
  8
0
 10
4446.3814883175209616
 20
271.9829777691463164
 30
0.0
 40
0.0405450187324532
 50
280.4815571112758903
 51
309.5234339088192996
  0
ARC
  5
2181C
  8
0
 10
4446.3820829234791745
 20
271.9820857076562106
 30
0.0
 40
0.0394786613635759
 50
309.6816916235887902
 51
337.7451022389258242
  0
ARC
  5
2181D
  8
0
 10
4446.3821082938166001
 20
271.9820699166398867
 30
0.0
 40
0.0394492007316897
 50
337.7523733058761763
 51
356.9929591318190774
  0
ARC
  5
2181E
  8
0
 10
4446.3348268147201452
 20
271.5772875345749071
 30
0.0
 40
0.3663256229270551
 50
85.9937673050676068
 51
94.0052406046701634
  0
ARC
  5
2181F
  8
0
 10
4446.3348331538736602
 20
272.3094926601144152
 30
0.0
 40
0.3676660543400168
 50
266.0083950702039033
 51
273.9906128395296037
  0
ARC
  5
21820
  8
0
 10
4446.3348332858713547
 20
271.4274405564418089
 30
0.0
 40
0.4880411392695291
 50
86.9944053471209457
 51
93.0057149275161095
  0
ARC
  5
21821
  8
0
 10
4446.33483226127737
 20
272.4036221582841222
 30
0.0
 40
0.4894812179962867
 50
267.0032562215326948
 51
272.9968640531214987
  0
ARC
  5
21822
  8
0
 10
4446.3098515326673805
 20
272.229403209991915
 30
0.0
 40
0.3156516301281508
 50
265.2825838689261104
 51
269.8773082346440901
  0
ARC
  5
21823
  8
0
 10
4446.2881970683829422
 20
271.9551493938539011
 30
0.0
 40
0.0405576675591651
 50
231.5416831121584096
 51
263.9065906724941897
  0
ARC
  5
21824
  8
0
 10
4446.2876004697718599
 20
271.9541733434883213
 30
0.0
 40
0.0394225573031979
 50
183.0068033900583941
 51
231.3383892317667119
  0
ARC
  5
21825
  8
0
 10
4446.3114947618723818
 20
272.4359398813206781
 30
0.0
 40
0.5429485035227291
 50
267.3719303246904246
 51
269.758237431843213
  0
ARC
  5
21826
  8
0
 10
4446.2882270186819369
 20
271.9344100023166106
 30
0.0
 40
0.0408799847191421
 50
237.9285884671685949
 51
267.7180182495250733
  0
ARC
  5
21827
  8
0
 10
4446.2875788514229498
 20
271.9330668931481796
 30
0.0
 40
0.0393980313331209
 50
183.0050990401483091
 51
237.6902166712156941
  0
ARC
  5
21828
  8
0
 10
4446.3095154475322488
 20
272.7633696644422798
 30
0.0
 40
0.8782618051533004
 50
268.5474440516658774
 51
269.9605907723906739
  0
ARC
  5
21829
  8
0
 10
4446.2878600751973863
 20
271.9255073898521005
 30
0.0
 40
0.0401219128447779
 50
238.2405809382312896
 51
269.1319543419760976
  0
ARC
  5
2182A
  8
0
 10
4446.2875509287696332
 20
271.9248302013456851
 30
0.0
 40
0.0393835135000359
 50
207.8716944268917928
 51
238.1044331658480075
  0
ARC
  5
2182B
  8
0
 10
4446.2875505336123751
 20
271.9248267922253035
 30
0.0
 40
0.0393815705434018
 50
183.0024074817663973
 51
207.8675786679596911
  0
ARC
  5
2182C
  8
0
 10
4446.3587420901149017
 20
272.2660110011692041
 30
0.0
 40
0.3522634768579885
 50
270.2842743917304915
 51
274.2549199814401959
  0
ARC
  5
2182D
  8
0
 10
4446.3815615398989394
 20
271.954798994818475
 30
0.0
 40
0.0402175416106154
 50
274.730111802543604
 51
317.2269890632782108
  0
ARC
  5
2182E
  8
0
 10
4446.3820753286709078
 20
271.9541691018317238
 30
0.0
 40
0.039412800803623
 50
317.3919317592041125
 51
356.9964516149659062
  0
ARC
  5
2182F
  8
0
 10
4446.355460950788256
 20
272.5956244459165987
 30
0.0
 40
0.7026465114065119
 50
270.4082509876708968
 51
272.0391410366325999
  0
ARC
  5
21830
  8
0
 10
4446.381124279638243
 20
271.9347058245264179
 30
0.0
 40
0.0412882421687249
 50
269.0818410524232718
 51
307.3643220241951894
  0
ARC
  5
21831
  8
0
 10
4446.3820969159987726
 20
271.9330645320051758
 30
0.0
 40
0.0393941116421156
 50
307.6886969683321809
 51
356.9958732033471733
  0
ARC
  5
21832
  8
0
 10
4446.3593750542659109
 20
272.8022108244828132
 30
0.0
 40
0.9171042495529311
 50
270.0869793538382737
 51
271.4696040266601926
  0
ARC
  5
21833
  8
0
 10
4446.3818855456393067
 20
271.9253354120006065
 30
0.0
 40
0.0399399510273885
 50
271.4492341698324935
 51
302.4866931547766171
  0
ARC
  5
21834
  8
0
 10
4446.3821331459666908
 20
271.924824004575612
 30
0.0
 40
0.0393756385358052
 50
302.5824740927308767
 51
356.9990415283498919
  0
ARC
  5
21835
  8
0
 10
4446.3387722838424452
 20
271.012530297195724
 30
0.0
 40
1.0752083045794829
 50
82.9056946157140118
 51
97.5744077027214161
  0
ARC
  5
21836
  8
0
 10
4446.4230230847160783
 20
272.2242702342928737
 30
0.0
 40
0.152684514703852
 50
270.4231454031963153
 51
288.5367965496166107
  0
ARC
  5
21837
  8
0
 10
4446.2463623116382223
 20
272.2547453281515004
 30
0.0
 40
0.1831531095173144
 50
254.3793299661406877
 51
269.7318899810571224
  0
ARC
  5
21838
  8
0
 10
4446.2416351349302204
 20
272.2520946865528231
 30
0.0
 40
0.2210524962793639
 50
258.3680888192304792
 51
270.9965115567136991
  0
ARC
  5
21839
  8
0
 10
4446.2474289890888031
 20
271.7650823760068874
 30
0.0
 40
0.2751480670416313
 50
90.0580376356326155
 51
100.5469076242499966
  0
ARC
  5
2183A
  8
0
 10
4446.4245553557539097
 20
272.2824161239212799
 30
0.0
 40
0.2514708007050728
 50
269.9133782524048115
 51
281.0251317233045825
  0
ARC
  5
2183B
  8
0
 10
4446.4163610457308096
 20
271.7010894492013904
 30
0.0
 40
0.3391996641189961
 50
80.448380712734064
 51
88.9620503832044278
  0
ARC
  5
2183C
  8
0
 10
4446.2456824216324094
 20
272.4294333121093814
 30
0.0
 40
0.4242160382677611
 50
263.4131119132856043
 51
269.9683668684929216
  0
ARC
  5
2183D
  8
0
 10
4446.2502788887586576
 20
271.5273705906515147
 30
0.0
 40
0.4835885588295814
 50
90.4435741819931138
 51
96.3228815158946503
  0
ARC
  5
2183E
  8
0
 10
4446.4236497148240232
 20
272.4365758709719216
 30
0.0
 40
0.4313606954604148
 50
270.0755977903154985
 51
276.5260576809051258
  0
ARC
  5
2183F
  8
0
 10
4446.419920415971319
 20
271.537058374513208
 30
0.0
 40
0.473897510736931
 50
83.6084213674061232
 51
89.6124103128477856
  0
ARC
  5
21840
  8
0
 10
4446.4230114864758434
 20
272.7522019424699238
 30
0.0
 40
0.7624352795691115
 50
270.113195428773281
 51
273.7342527091025772
  0
ARC
  5
21841
  8
0
 10
4446.4176757847753834
 20
271.0952308535842121
 30
0.0
 40
0.897840271305394
 50
86.4884652100786582
 51
89.623151441892432
  0
ARC
  5
21842
  8
0
 10
4446.2597883797543545
 20
273.1516863227261069
 30
0.0
 40
1.1619968713898201
 50
266.9039149300302824
 51
269.2784129089876046
  0
ARC
  5
21843
  8
0
 10
4446.2472750593260571
 20
271.238406014622683
 30
0.0
 40
0.7546541690045788
 50
90.0903149461522759
 51
93.817724285527234
  0
LINE
  5
21844
  8
0
 10
4445.4589094771299642
 20
271.9424759327882839
 30
0.0
 11
4445.4553973805095666
 21
272.0094991391904955
 31
0.0
  0
LINE
  5
21845
  8
0
 10
4445.4589214537299995
 20
271.950713323288312
 30
0.0
 11
4445.455669313618273
 21
272.0127685676284273
 31
0.0
  0
LINE
  5
21846
  8
0
 10
4445.4589186413313655
 20
271.9718173167883037
 30
0.0
 11
4445.4558351243858851
 21
272.0306438015628032
 31
0.0
  0
LINE
  5
21847
  8
0
 10
4445.4588438828295693
 20
271.9997138299881954
 30
0.0
 11
4445.4556865970125727
 21
272.0599315878033053
 31
0.0
  0
LINE
  5
21848
  8
0
 10
4445.4588822608302507
 20
272.0400080766883093
 30
0.0
 11
4445.4555604227898584
 21
272.1033425331480089
 31
0.0
  0
LINE
  5
21849
  8
0
 10
4445.6321896331301105
 20
271.999712329088311
 30
0.0
 11
4445.635346357364142
 21
272.059899443472375
 31
0.0
  0
LINE
  5
2184A
  8
0
 10
4445.6321204441301234
 20
271.9718158228882885
 30
0.0
 11
4445.63520514290758
 21
272.0306454412063886
 31
0.0
  0
LINE
  5
2184B
  8
0
 10
4445.632123347129891
 20
271.950711835188315
 30
0.0
 11
4445.6353759543690103
 21
272.0127555949471798
 31
0.0
  0
LINE
  5
2184C
  8
0
 10
4445.6321412434299418
 20
271.9424744502882731
 30
0.0
 11
4445.6356536191151463
 21
272.0094810362979842
 31
0.0
  0
LINE
  5
2184D
  8
0
 10
4445.6321458664288002
 20
272.0400065706883197
 30
0.0
 11
4445.6355034887110378
 21
272.1040020233202767
 31
0.0
  0
ARC
  5
2184E
  8
0
 10
4445.5377350536300582
 20
272.7943963781881962
 30
0.0
 40
0.8335790226999999
 50
268.631820790310428
 51
268.7684629062155182
  0
ARC
  5
2184F
  8
0
 10
4445.5447898218299088
 20
274.3025050178882793
 30
0.0
 40
2.389926653899999
 50
269.403049623389677
 51
270.017567058806776
  0
ARC
  5
21850
  8
0
 10
4445.5462955134289587
 20
274.3024861570883104
 30
0.0
 40
2.3899078057000001
 50
269.9814696649842176
 51
270.5959682250759215
  0
ARC
  5
21851
  8
0
 10
4445.5462684693302435
 20
273.543664075088202
 30
0.0
 40
1.6103929852000001
 50
269.9732905640851186
 51
270.8862250812779848
  0
ARC
  5
21852
  8
0
 10
4445.544797386330174
 20
273.5436289037882034
 30
0.0
 40
1.610357800099999
 50
269.1127772950216013
 51
270.0256304292789196
  0
ARC
  5
21853
  8
0
 10
4445.5448090603304081
 20
273.1833610033881996
 30
0.0
 40
1.2226065164999991
 50
268.8288015230921246
 51
270.0331651130841237
  0
ARC
  5
21854
  8
0
 10
4445.5462450301301942
 20
273.1833550623882729
 30
0.0
 40
1.2226005875999999
 50
269.9658701870939126
 51
271.1702088550163126
  0
ARC
  5
21855
  8
0
 10
4445.5449688312301078
 20
273.0180632429882053
 30
0.0
 40
1.0174232064999991
 50
268.9026417314757964
 51
270.0306970330778995
  0
ARC
  5
21856
  8
0
 10
4445.546076343130153
 20
273.0180594872883262
 30
0.0
 40
1.0174194601999991
 50
269.9683278267896753
 51
271.0963723096754165
  0
ARC
  5
21857
  8
0
 10
4445.5441823779301558
 20
276.3900973416883176
 30
0.0
 40
4.4853447849999988
 50
269.6859553298826881
 51
270.0171625768011836
  0
ARC
  5
21858
  8
0
 10
4445.5469449696302036
 20
276.3899214439883281
 30
0.0
 40
4.4851689104999997
 50
269.9818725285009009
 51
270.3130888393225177
  0
ARC
  5
21859
  8
0
 10
4445.4983302101336449
 20
272.0420857799318242
 30
0.0
 40
0.0395026271920346
 50
183.0149534575166115
 51
222.7413619365931936
  0
ARC
  5
2185A
  8
0
 10
4445.4988368324284238
 20
272.0426411358714063
 30
0.0
 40
0.0402516686519621
 50
222.8325014708453011
 51
256.913628591343695
  0
ARC
  5
2185B
  8
0
 10
4445.5110758266464472
 20
272.1084902794028721
 30
0.0
 40
0.1072035088259224
 50
258.5110061476324859
 51
269.5064345966201813
  0
ARC
  5
2185C
  8
0
 10
4445.5373136269590759
 20
272.6450733387574132
 30
0.0
 40
0.6443553048462883
 50
267.584115891174406
 51
268.9480389268119893
  0
ARC
  5
2185D
  8
0
 10
4445.5596107749834118
 20
272.4422089214514244
 30
0.0
 40
0.4414225045454728
 50
270.7701167484004259
 51
274.0411773055055846
  0
ARC
  5
2185E
  8
0
 10
4445.5886356028631781
 20
272.052986598963912
 30
0.0
 40
0.0511451196480823
 50
272.3349411348758053
 51
292.9741373886874953
  0
ARC
  5
2185F
  8
0
 10
4445.5925135749175752
 20
272.042240170264904
 30
0.0
 40
0.039742353578371
 50
293.8739602417130072
 51
325.4703249570794128
  0
ARC
  5
21860
  8
0
 10
4445.5927088547095991
 20
272.042081534400495
 30
0.0
 40
0.0394915607169635
 50
325.4993393394780128
 51
356.9881810155334279
  0
ARC
  5
21861
  8
0
 10
4445.5455133334216953
 20
271.7115445988823126
 30
0.0
 40
0.2932238854061614
 50
84.9932254035326764
 51
95.0066086314538865
  0
ARC
  5
21862
  8
0
 10
4445.5455141811225985
 20
272.2970021191941896
 30
0.0
 40
0.2944664801063326
 50
265.0144063685630726
 51
274.9854277555845101
  0
ARC
  5
21863
  8
0
 10
4445.5260456060150318
 20
272.3775384145815224
 30
0.0
 40
0.4165643988816584
 50
266.4948717874972886
 51
268.8701588630281094
  0
ARC
  5
21864
  8
0
 10
4445.501992315447751
 20
272.0134295899476911
 30
0.0
 40
0.0516956772728878
 50
249.8123885535457873
 51
268.4319939247230877
  0
ARC
  5
21865
  8
0
 10
4445.498429590552405
 20
272.0019747343371819
 30
0.0
 40
0.0397197121484542
 50
224.6750470244508904
 51
248.9336420885717018
  0
ARC
  5
21866
  8
0
 10
4445.4982490059646807
 20
272.0017895485362942
 30
0.0
 40
0.0394610963219407
 50
196.9826452179792113
 51
224.668193269406288
  0
ARC
  5
21867
  8
0
 10
4445.4982582989214279
 20
272.0017855885816971
 30
0.0
 40
0.0394688279468656
 50
183.0088960826120115
 51
196.9732070617623094
  0
ARC
  5
21868
  8
0
 10
4445.5729704227887851
 20
272.1560484143744816
 30
0.0
 40
0.1950468622493409
 50
269.483944545843201
 51
277.8324275134551158
  0
ARC
  5
21869
  8
0
 10
4445.5921747738711929
 20
272.002689634346325
 30
0.0
 40
0.0405450187324532
 50
280.4815571112758903
 51
309.5234339088192996
  0
ARC
  5
2186A
  8
0
 10
4445.5927693798294058
 20
272.001797572856276
 30
0.0
 40
0.0394786613635759
 50
309.6816916235887902
 51
337.7451022389258242
  0
ARC
  5
2186B
  8
0
 10
4445.5927947501668314
 20
272.0017817818398953
 30
0.0
 40
0.0394492007316897
 50
337.7523733058761763
 51
356.9929591318190774
  0
ARC
  5
2186C
  8
0
 10
4445.5455132710703765
 20
271.5969993997749725
 30
0.0
 40
0.3663256229270551
 50
85.9937673050676068
 51
94.0052406046701634
  0
ARC
  5
2186D
  8
0
 10
4445.5455196102238915
 20
272.3292045253144238
 30
0.0
 40
0.3676660543400168
 50
266.0083950702039033
 51
273.9906128395296037
  0
ARC
  5
2186E
  8
0
 10
4445.5455197422206766
 20
271.4471524216417038
 30
0.0
 40
0.4880411392695291
 50
86.9944053471209457
 51
93.0057149275161095
  0
ARC
  5
2186F
  8
0
 10
4445.5455187176266918
 20
272.4233340234840739
 30
0.0
 40
0.4894812179962867
 50
267.0032562215326948
 51
272.9968640531214987
  0
ARC
  5
21870
  8
0
 10
4445.5205379890167023
 20
272.2491150751919236
 30
0.0
 40
0.3156516301281508
 50
265.2825838689261104
 51
269.8773082346440901
  0
ARC
  5
21871
  8
0
 10
4445.4988835247331735
 20
271.9748612590539096
 30
0.0
 40
0.0405576675591651
 50
231.5416831121584096
 51
263.9065906724941897
  0
ARC
  5
21872
  8
0
 10
4445.4982869261211818
 20
271.973885208688273
 30
0.0
 40
0.0394225573031979
 50
183.0068033900583941
 51
231.3383892317667119
  0
ARC
  5
21873
  8
0
 10
4445.5221812182217036
 20
272.4556517465205729
 30
0.0
 40
0.5429485035227291
 50
267.3719303246904246
 51
269.758237431843213
  0
ARC
  5
21874
  8
0
 10
4445.4989134750321682
 20
271.9541218675165055
 30
0.0
 40
0.0408799847191421
 50
237.9285884671685949
 51
267.7180182495250733
  0
ARC
  5
21875
  8
0
 10
4445.4982653077731811
 20
271.9527787583481881
 30
0.0
 40
0.0393980313331209
 50
183.0050990401483091
 51
237.6902166712156941
  0
ARC
  5
21876
  8
0
 10
4445.5202019038833896
 20
272.7830815296422884
 30
0.0
 40
0.8782618051533004
 50
268.5474440516658774
 51
269.9605907723906739
  0
ARC
  5
21877
  8
0
 10
4445.4985465315457986
 20
271.9452192550522227
 30
0.0
 40
0.0401219128447779
 50
238.2405809382312896
 51
269.1319543419760976
  0
ARC
  5
21878
  8
0
 10
4445.498237385118955
 20
271.9445420665456936
 30
0.0
 40
0.0393835135000359
 50
207.8716944268917928
 51
238.1044331658480075
  0
ARC
  5
21879
  8
0
 10
4445.4982369899607875
 20
271.9445386574253121
 30
0.0
 40
0.0393815705434018
 50
183.0024074817663973
 51
207.8675786679596911
  0
ARC
  5
2187A
  8
0
 10
4445.569428546465133
 20
272.2857228663692126
 30
0.0
 40
0.3522634768579885
 50
270.2842743917304915
 51
274.2549199814401959
  0
ARC
  5
2187B
  8
0
 10
4445.5922479962473517
 20
271.9745108600184835
 30
0.0
 40
0.0402175416106154
 50
274.730111802543604
 51
317.2269890632782108
  0
ARC
  5
2187C
  8
0
 10
4445.5927617850211391
 20
271.9738809670316755
 30
0.0
 40
0.039412800803623
 50
317.3919317592041125
 51
356.9964516149659062
  0
ARC
  5
2187D
  8
0
 10
4445.5661474071366683
 20
272.6153363111166072
 30
0.0
 40
0.7026465114065119
 50
270.4082509876708968
 51
272.0391410366325999
  0
ARC
  5
2187E
  8
0
 10
4445.5918107359875648
 20
271.9544176897264265
 30
0.0
 40
0.0412882421687249
 50
269.0818410524232718
 51
307.3643220241951894
  0
ARC
  5
2187F
  8
0
 10
4445.5927833723490039
 20
271.9527763972051844
 30
0.0
 40
0.0393941116421156
 50
307.6886969683321809
 51
356.9958732033471733
  0
ARC
  5
21880
  8
0
 10
4445.5700615106170517
 20
272.8219226896828218
 30
0.0
 40
0.9171042495529311
 50
270.0869793538382737
 51
271.4696040266601926
  0
ARC
  5
21881
  8
0
 10
4445.5925720019868095
 20
271.9450472772006151
 30
0.0
 40
0.0399399510273885
 50
271.4492341698324935
 51
302.4866931547766171
  0
ARC
  5
21882
  8
0
 10
4445.5928196023178316
 20
271.9445358697756205
 30
0.0
 40
0.0393756385358052
 50
302.5824740927308767
 51
356.9990415283498919
  0
ARC
  5
21883
  8
0
 10
4445.5494587401926765
 20
271.0322421623956757
 30
0.0
 40
1.0752083045794829
 50
82.9056946157140118
 51
97.5744077027214161
  0
ARC
  5
21884
  8
0
 10
4445.6337095410663096
 20
272.2439820994928823
 30
0.0
 40
0.152684514703852
 50
270.4231454031963153
 51
288.5367965496166107
  0
ARC
  5
21885
  8
0
 10
4445.4570487679884536
 20
272.2744571933516227
 30
0.0
 40
0.1831531095173144
 50
254.3793299661406877
 51
269.7318899810571224
  0
ARC
  5
21886
  8
0
 10
4445.4523215912813612
 20
272.2718065517527748
 30
0.0
 40
0.2210524962793639
 50
258.3680888192304792
 51
270.9965115567136991
  0
ARC
  5
21887
  8
0
 10
4445.4581154454381249
 20
271.7847942412070097
 30
0.0
 40
0.2751480670416313
 50
90.0580376356326155
 51
100.5469076242499966
  0
ARC
  5
21888
  8
0
 10
4445.635241812104141
 20
272.3021279891212885
 30
0.0
 40
0.2514708007050728
 50
269.9133782524048115
 51
281.0251317233045825
  0
ARC
  5
21889
  8
0
 10
4445.6270475020810409
 20
271.7208013144013989
 30
0.0
 40
0.3391996641189961
 50
80.448380712734064
 51
88.9620503832044278
  0
ARC
  5
2188A
  8
0
 10
4445.4563688779826407
 20
272.44914517730939
 30
0.0
 40
0.4242160382677611
 50
263.4131119132856043
 51
269.9683668684929216
  0
ARC
  5
2188B
  8
0
 10
4445.4609653451079794
 20
271.5470824558515233
 30
0.0
 40
0.4835885588295814
 50
90.4435741819931138
 51
96.3228815158946503
  0
ARC
  5
2188C
  8
0
 10
4445.6343361711733451
 20
272.4562877361718733
 30
0.0
 40
0.4313606954604148
 50
270.0755977903154985
 51
276.5260576809051258
  0
ARC
  5
2188D
  8
0
 10
4445.6306068723206408
 20
271.5567702397132166
 30
0.0
 40
0.473897510736931
 50
83.6084213674061232
 51
89.6124103128477856
  0
ARC
  5
2188E
  8
0
 10
4445.6336979428269842
 20
272.7719138076698755
 30
0.0
 40
0.7624352795691115
 50
270.113195428773281
 51
273.7342527091025772
  0
ARC
  5
2188F
  8
0
 10
4445.6283622411256147
 20
271.1149427187842207
 30
0.0
 40
0.897840271305394
 50
86.4884652100786582
 51
89.623151441892432
  0
ARC
  5
21890
  8
0
 10
4445.4704748361036764
 20
273.1713981879261155
 30
0.0
 40
1.1619968713898201
 50
266.9039149300302824
 51
269.2784129089876046
  0
ARC
  5
21891
  8
0
 10
4445.4579615156771979
 20
271.2581178798226915
 30
0.0
 40
0.7546541690045788
 50
90.0903149461522759
 51
93.817724285527234
  0
LINE
  5
21892
  8
0
 10
4454.7795182646786998
 20
272.7368565447563924
 30
0.0
 11
4454.7795182672671217
 21
272.7281159114564275
 31
0.0
  0
LINE
  5
21893
  8
0
 10
4452.7226952386026824
 20
272.0663872048045278
 30
0.0
 11
4452.7232968664202417
 21
272.1331206710963215
 31
0.0
  0
LINE
  5
21894
  8
0
 10
4452.548986140101988
 20
272.0569809521060165
 30
0.0
 11
4452.5434660072751285
 21
272.1143044098377004
 31
0.0
  0
LINE
  5
21895
  8
0
 10
4452.5497212737118389
 20
272.0588334658405074
 30
0.0
 11
4452.5441164946805657
 21
272.1168551074990773
 31
0.0
  0
LINE
  5
21896
  8
0
 10
4451.9329552343360774
 20
272.004196819744493
 30
0.0
 11
4451.9347555750346146
 21
272.0740358604707012
 31
0.0
  0
LINE
  5
21897
  8
0
 10
4451.9306553078649813
 20
272.0370269553109779
 30
0.0
 11
4451.931808330142303
 21
272.0906145348242831
 31
0.0
  0
LINE
  5
21898
  8
0
 10
4454.4165246656230011
 20
272.4520058635923192
 30
0.0
 11
4454.4163961104395639
 21
272.4519504884511889
 31
0.0
  0
LINE
  5
21899
  8
0
 10
4451.134391171714924
 20
272.0039488428702725
 30
0.0
 11
4451.1370206709207196
 21
272.0541006255089087
 31
0.0
  0
LINE
  5
2189A
  8
0
 10
4451.134439129794373
 20
272.0334874451855853
 30
0.0
 11
4451.1374955402970954
 21
272.0917615919756827
 31
0.0
  0
LINE
  5
2189B
  8
0
 10
4451.1420736350646621
 20
271.972121859520314
 30
0.0
 11
4451.1436922568973387
 21
272.0339554283679036
 31
0.0
  0
LINE
  5
2189C
  8
0
 10
4451.7580200472648357
 20
272.0316957416549144
 30
0.0
 11
4451.7539454176940126
 21
272.0805233484554719
 31
0.0
  0
LINE
  5
2189D
  8
0
 10
4451.75900774017191
 20
271.9949870421700098
 30
0.0
 11
4451.7545880873740316
 21
272.0460928908603933
 31
0.0
  0
LINE
  5
2189E
  8
0
 10
4451.7591878025714323
 20
271.998127188827425
 30
0.0
 11
4451.7529287310280779
 21
272.0633966132730279
 31
0.0
  0
LINE
  5
2189F
  8
0
 10
4450.9611224386162576
 20
272.0039472873123145
 30
0.0
 11
4450.957369548301358
 21
272.0755006561906271
 31
0.0
  0
LINE
  5
218A0
  8
0
 10
4450.9610800331938663
 20
272.0334858830987059
 30
0.0
 11
4450.958337429265157
 21
272.085758918159911
 31
0.0
  0
LINE
  5
218A1
  8
0
 10
4450.968563120154613
 20
271.9680764257852275
 30
0.0
 11
4450.9672717162720801
 21
271.9847815521778216
 31
0.0
  0
LINE
  5
218A2
  8
0
 10
4453.9279497695897589
 20
272.2953291241782949
 30
0.0
 11
4453.9279460543893947
 21
272.295328253777086
 31
0.0
  0
LINE
  5
218A3
  8
0
 10
4449.8409584680157423
 20
274.6817745392751817
 30
0.0
 11
4449.8432254776525951
 21
274.6778479662982022
 31
0.0
  0
LINE
  5
218A4
  8
0
 10
4452.6122857456666679
 20
272.0238551722932243
 30
0.0
 11
4452.5899530600554499
 21
272.0232626883710054
 31
0.0
  0
LINE
  5
218A5
  8
0
 10
4451.8941255817953788
 20
271.9623051623610763
 30
0.0
 11
4451.7996082871477483
 21
271.959003708818102
 31
0.0
  0
LINE
  5
218A6
  8
0
 10
4451.8949725741613292
 20
271.9658652981311775
 30
0.0
 11
4451.7997524400198017
 21
271.9625392946641114
 31
0.0
  0
LINE
  5
218A7
  8
0
 10
4451.9561883119522463
 20
272.0913172535538251
 30
0.0
 11
4451.9268787396304106
 21
272.0904443890066204
 31
0.0
  0
LINE
  5
218A8
  8
0
 10
4452.6122857456666679
 20
272.0238551722932243
 30
0.0
 11
4452.66341811525308
 21
272.026088112800096
 31
0.0
  0
LINE
  5
218A9
  8
0
 10
4452.6845341870239281
 20
272.0255551418342748
 30
0.0
 11
4452.5898925799419885
 21
272.0214221615516976
 31
0.0
  0
LINE
  5
218AA
  8
0
 10
4452.66341811525308
 20
272.026088112800096
 30
0.0
 11
4452.6857174326205495
 21
272.0274446997116797
 31
0.0
  0
LINE
  5
218AB
  8
0
 10
4451.9268787396304106
 20
272.0904443890066204
 30
0.0
 11
4451.7862507335321425
 21
272.0829101769580802
 31
0.0
  0
LINE
  5
218AC
  8
0
 10
4452.7670109763266737
 20
272.1362323842374167
 30
0.0
 11
4452.7526397664150863
 21
272.1353313990542233
 31
0.0
  0
LINE
  5
218AD
  8
0
 10
4452.7526397664150863
 20
272.1353313990542233
 30
0.0
 11
4452.7443013405054444
 21
272.1347357672950125
 31
0.0
  0
LINE
  5
218AE
  8
0
 10
4451.7862507335321425
 20
272.0829101769580802
 30
0.0
 11
4451.7539454176940126
 21
272.0805233484554719
 31
0.0
  0
LINE
  5
218AF
  8
0
 10
4452.7443013405054444
 20
272.1347357672950125
 30
0.0
 11
4452.7258003106571778
 21
272.1333192343947189
 31
0.0
  0
LINE
  5
218B0
  8
0
 10
4452.7258003106571778
 20
272.1333192343947189
 30
0.0
 11
4452.6894965014016634
 21
272.1303578179168881
 31
0.0
  0
LINE
  5
218B1
  8
0
 10
4452.6894965014016634
 20
272.1303578179168881
 30
0.0
 11
4452.632066016069075
 21
272.1254405400014207
 31
0.0
  0
LINE
  5
218B2
  8
0
 10
4452.632066016069075
 20
272.1254405400014207
 30
0.0
 11
4452.5748242987992853
 21
272.120334075546225
 31
0.0
  0
LINE
  5
218B3
  8
0
 10
4452.5748242987992853
 20
272.120334075546225
 30
0.0
 11
4452.4993047341267811
 21
272.1117782650617869
 31
0.0
  0
LINE
  5
218B4
  8
0
 10
4447.9060019470180123
 20
272.7479039225780184
 30
0.0
 11
4454.7690618293781881
 21
272.7486749996734261
 31
0.0
  0
LINE
  5
218B5
  8
0
 10
4454.7644786948176261
 20
272.7684050538600786
 30
0.0
 11
4447.9060019437501978
 21
272.7684006980218214
 31
0.0
  0
LINE
  5
218B6
  8
0
 10
4450.5623650165653089
 20
275.7568289158426751
 30
0.0
 11
4450.1269074031206401
 21
275.2869324383686944
 31
0.0
  0
LINE
  5
218B7
  8
0
 10
4449.902281596568173
 20
274.6778479851320753
 30
0.0
 11
4447.906001639274109
 21
274.6778473484882852
 31
0.0
  0
LINE
  5
218B8
  8
0
 10
4449.9022113666160294
 20
274.6817745588097068
 30
0.0
 11
4447.9060016386483767
 21
274.6817739221881993
 31
0.0
  0
ARC
  5
218B9
  8
0
 10
4454.7018213231340269
 20
272.7683525028776899
 30
0.0
 40
0.0196850386999978
 50
179.8471957927272058
 51
270.0000182724965043
  0
ARC
  5
218BA
  8
0
 10
4454.7675109125739255
 20
272.7367679001309284
 30
0.0
 40
0.0120076793114484
 50
0.4229800711601042
 51
82.5789215742652516
  0
ARC
  5
218BB
  8
0
 10
4454.7674508030213474
 20
272.7281744648233257
 30
0.0
 40
0.0120633971581307
 50
330.9579107624078915
 51
340.5398615512812057
  0
ARC
  5
218BC
  8
0
 10
4452.5889089432039327
 20
272.0626189194380231
 30
0.0
 40
0.0393700787
 50
185.5175428859853071
 51
271.5196948116008002
  0
ARC
  5
218BD
  8
0
 10
4452.6833267596894075
 20
272.0667421268493058
 30
0.0
 40
0.0393700787
 50
273.4813185616023929
 51
359.4834704840903896
  0
ARC
  5
218BE
  8
0
 10
4452.5881749333975677
 20
272.0607547535038861
 30
0.0
 40
0.0393700787
 50
185.5005066852899915
 51
272.5005066866086736
  0
ARC
  5
218BF
  8
0
 10
4452.6828165404804167
 20
272.0648877337865201
 30
0.0
 40
0.0393700787
 50
272.5005066866086736
 51
346.0158919320729183
  0
ARC
  5
218C0
  8
0
 10
4451.893598230311909
 20
272.0052113814929271
 30
0.0
 40
0.0393700787
 50
272.0005066866124253
 51
358.5233318657906239
  0
ARC
  5
218C1
  8
0
 10
4451.7983780961740194
 20
272.0018853780258041
 30
0.0
 40
0.0393700787
 50
185.4776815074916954
 51
272.0005066866124253
  0
ARC
  5
218C2
  8
0
 10
4451.8927512378468236
 20
272.0016512457227122
 30
0.0
 40
0.0393700787
 50
272.0005066864039236
 51
349.281358467950497
  0
ARC
  5
218C3
  8
0
 10
4451.7982339433001471
 20
271.9983497921797948
 30
0.0
 40
0.0393700787
 50
184.8998233686901074
 51
272.0005066864039236
  0
ARC
  5
218C4
  8
0
 10
4451.0120603932064114
 20
273.6915954695730875
 30
0.0
 40
1.7604515038660229
 50
270.5832507177652815
 51
272.0375734909015932
  0
ARC
  5
218C5
  8
0
 10
4451.0470286406407467
 20
273.186624971609092
 30
0.0
 40
1.2216341696999991
 50
268.8297280220830885
 51
270.0341592122920815
  0
ARC
  5
218C6
  8
0
 10
4451.0484690236125971
 20
273.1857728214685039
 30
0.0
 40
1.2207820101999991
 50
269.9665805908824154
 51
271.1744639389655163
  0
ARC
  5
218C7
  8
0
 10
4451.0310906955955943
 20
273.1675116473912226
 30
0.0
 40
1.2360224862919451
 50
272.0197482710909753
 51
272.4717364689337842
  0
ARC
  5
218C8
  8
0
 10
4450.9303592722353642
 20
274.6853622222402009
 30
0.0
 40
1.008588859897483
 50
166.622591034201804
 51
179.1015955498444043
  0
ARC
  5
218C9
  8
0
 10
4451.0470508171820256
 20
272.9826829895162064
 30
0.0
 40
0.9885657988999996
 50
268.5509565022661036
 51
270.0410885256951019
  0
ARC
  5
218CA
  8
0
 10
4451.0484522801252751
 20
272.9825471611630974
 30
0.0
 40
0.9884299588999997
 50
269.9598563304746222
 51
271.4508076392843918
  0
ARC
  5
218CB
  8
0
 10
4451.0080587029269736
 20
271.9706725465809996
 30
0.0
 40
0.0393700787
 50
208.9010945700796071
 51
271.5005066867739743
  0
ARC
  5
218CC
  8
0
 10
4449.9022735877861123
 20
274.6581555591498045
 30
0.0
 40
0.0196924276107796
 50
0.8270280240230306
 51
89.9766981806592838
  0
ARC
  5
218CD
  8
0
 10
4449.9022046481868529
 20
274.7014664448423105
 30
0.0
 40
0.0196918871786816
 50
270.0195480276303783
 51
359.1559468828098147
  0
LINE
  5
218CE
  8
0
 10
4447.9060018303871402
 20
273.4793280577353016
 30
0.0
 11
4451.566258842892239
 21
273.4793340005995219
 31
0.0
  0
ARC
  5
218CF
  8
0
 10
4450.8994198026048252
 20
274.6947393294935864
 30
0.0
 40
0.9763213134465907
 50
154.8472951519910907
 51
166.7378720791847968
  0
ARC
  5
218D0
  8
0
 10
4450.5474881096261015
 20
275.7697189318906794
 30
0.0
 40
0.0196843814674095
 50
319.0928827193314987
 51
88.5755650624714264
  0
ARC
  5
218D1
  8
0
 10
4450.797513754465399
 20
274.7425183566344913
 30
0.0
 40
0.8637705545179237
 50
140.9294919506205019
 51
154.8429953015753995
  0
ARC
  5
218D2
  8
0
 10
4451.2581689554526747
 20
274.6609926418475993
 30
0.0
 40
1.336207430113791
 50
180.1094645385387878
 51
200.2206725548838051
  0
ARC
  5
218D3
  8
0
 10
4450.853828620418426
 20
274.5157772304265222
 30
0.0
 40
0.906602172788628
 50
200.4411940184832872
 51
235.2264643355185001
  0
ARC
  5
218D4
  8
0
 10
4451.087363903194273
 20
274.913918857523015
 30
0.0
 40
1.36728827227687
 50
236.7035560632600948
 51
255.9444841547685883
  0
ARC
  5
218D5
  8
0
 10
4451.4730445114073518
 20
276.2852806174636839
 30
0.0
 40
2.7915620944457782
 50
255.1012589305749998
 51
263.0141455712760035
  0
ARC
  5
218D6
  8
0
 10
4451.7810097218862211
 20
278.8107224732374902
 30
0.0
 40
5.3357118537459449
 50
263.0299966068267281
 51
267.6933455718448727
  0
ARC
  5
218D7
  8
0
 10
4450.4728636334311886
 20
247.760795840906809
 30
0.0
 40
25.74176991109276
 50
85.3038425159570437
 51
87.5655992579039975
  0
ARC
  5
218D8
  8
0
 10
4451.6422578313749909
 20
261.5082416721417076
 30
0.0
 40
11.9448024345583992
 50
80.5778001760596254
 51
85.4954334430437086
  0
ARC
  5
218D9
  8
0
 10
4452.9496356587451373
 20
269.2107089989286237
 30
0.0
 40
4.1323223542089602
 50
69.6776810901656631
 51
80.9768823155851862
  0
ARC
  5
218DA
  8
0
 10
4453.9763242262379208
 20
272.0225005014588078
 30
0.0
 40
1.139067558426766
 50
53.2678025270213027
 51
68.9856843947792839
  0
ARC
  5
218DB
  8
0
 10
4454.3479363957940222
 20
272.5288235058403075
 30
0.0
 40
0.5110524436678056
 50
36.0532060838039428
 51
52.7078210492536101
  0
ARC
  5
218DC
  8
0
 10
4454.4685946939025598
 20
272.6226087086154735
 30
0.0
 40
0.3583400323465611
 50
29.2257139312095688
 51
35.2839711710299326
  0
ARC
  5
218DD
  8
0
 10
4454.7640678808093071
 20
272.7880863288781939
 30
0.0
 40
0.0196855620821945
 50
271.1957808269594921
 51
28.7960143945420803
  0
LINE
  5
218DE
  8
0
 10
4447.9060019512089639
 20
272.7216214803885919
 30
0.0
 11
4454.7779973888145832
 21
272.7223182647713884
 31
0.0
  0
ARC
  5
218DF
  8
0
 10
4451.8483648216160873
 20
282.6761493828694256
 30
0.0
 40
10.5919799358756901
 50
274.7375923111874272
 51
279.2028805802169131
  0
ARC
  5
218E0
  8
0
 10
4452.8814015942380138
 20
276.6313087111917071
 30
0.0
 40
4.4600473960826239
 50
278.5222152466300827
 51
287.133908857357028
  0
ARC
  5
218E1
  8
0
 10
4453.7140633280241673
 20
274.0191138140284011
 30
0.0
 40
1.7186764679081541
 50
286.2624715204696031
 51
301.1238880346184033
  0
ARC
  5
218E2
  8
0
 10
4454.2769756639572734
 20
273.0643594859893142
 30
0.0
 40
0.6105041462028858
 50
302.2146027067191199
 51
317.5787709219234785
  0
ARC
  5
218E3
  8
0
 10
4454.4306859526386688
 20
272.9198033526952827
 30
0.0
 40
0.3995317179546168
 50
318.0122755074946781
 51
330.3769654065746977
  0
ARC
  5
218E4
  8
0
 10
4454.7673923558049864
 20
272.728197518533193
 30
0.0
 40
0.012126186065904
 50
340.529159577559426
 51
359.6144066773326244
  0
ARC
  5
218E5
  8
0
 10
4450.1076474555957248
 20
302.4366291514077716
 30
0.0
 40
30.4288430723354608
 50
273.4418587107625171
 51
274.5930210676557977
  0
ARC
  5
218E6
  8
0
 10
4449.9488589085231069
 20
308.4700622540638051
 30
0.0
 40
36.4620425530021421
 50
271.8776135044394096
 51
272.8376494248205972
  0
ARC
  5
218E7
  8
0
 10
4443.6572114195214454
 20
510.7523684304708809
 30
0.0
 40
238.8424125338860051
 50
271.6072550734148194
 51
271.7521819260228995
  0
ARC
  5
218E8
  8
0
 10
4447.9193273081064035
 20
352.0341491649093086
 30
0.0
 40
80.0671463477656573
 50
271.1791434542752199
 51
271.61573162423241
  0
ARC
  5
218E9
  8
0
 10
4618.0192501710926081
 20
-10551.6267596513607714
 30
0.0
 40
10824.9209323734703503
 50
90.8925956587879398
 51
90.8958169986284048
  0
ARC
  5
218EA
  8
0
 10
4445.7131988044211539
 20
714.0679897474426525
 30
0.0
 40
442.1064363259657739
 50
270.295815305816177
 51
270.3740583741068804
  0
ARC
  5
218EB
  8
0
 10
4451.0846001091931612
 20
270.993886694222283
 30
0.0
 40
1.0991484056981671
 50
84.2707550308944917
 51
98.6893433829141316
  0
ARC
  5
218EC
  8
0
 10
4450.9569603298350557
 20
272.2279712914992729
 30
0.0
 40
0.1524711844617243
 50
255.4066355786137024
 51
270.719533101926686
  0
ARC
  5
218ED
  8
0
 10
4451.1305606232735954
 20
272.3288845791402082
 30
0.0
 40
0.2496216274490155
 50
271.44372973760278
 51
284.8000201564055942
  0
ARC
  5
218EE
  8
0
 10
4451.1247277811025924
 20
272.5030125668773167
 30
0.0
 40
0.455879574668305
 50
271.5002802083016036
 51
278.8058304870427833
  0
ARC
  5
218EF
  8
0
 10
4451.1488072996226038
 20
271.4676545453233985
 30
0.0
 40
0.5866354913786005
 50
85.531099700177748
 51
91.2976352275765208
  0
ARC
  5
218F0
  8
0
 10
4451.1808958592273484
 20
270.6650618526039125
 30
0.0
 40
1.3719424376971401
 50
89.4296130002961149
 51
91.8717091603021743
  0
ARC
  5
218F1
  8
0
 10
4451.0724134082711316
 20
273.6855507548859805
 30
0.0
 40
1.65313272208786
 50
272.2025777432405107
 51
274.2371034901138955
  0
ARC
  5
218F2
  8
0
 10
4451.0950123942857317
 20
272.035558383330681
 30
0.0
 40
0.0394810873407805
 50
327.0395253833386846
 51
356.9932313721272976
  0
ARC
  5
218F3
  8
0
 10
4451.0946678520449495
 20
272.0358578803612772
 30
0.0
 40
0.0399331696485154
 50
286.9708585224396984
 51
326.9479281870601994
  0
ARC
  5
218F4
  8
0
 10
4451.088703748113403
 20
272.0597662056256922
 30
0.0
 40
0.064553775970845
 50
273.4785851496812938
 51
285.8399355010079717
  0
ARC
  5
218F5
  8
0
 10
4451.065505967540048
 20
272.3691416174913797
 30
0.0
 40
0.3747923498713469
 50
271.2188045824873939
 51
274.1487271316909187
  0
ARC
  5
218F6
  8
0
 10
4451.0987452284198298
 20
271.9747363403230906
 30
0.0
 40
0.0434072152095544
 50
336.378030988051421
 51
356.5469003907643923
  0
ARC
  5
218F7
  8
0
 10
4451.1025171511737426
 20
271.9734725128557216
 30
0.0
 40
0.0394465127220745
 50
305.0911012412738046
 51
335.8645961224654002
  0
ARC
  5
218F8
  8
0
 10
4451.1020374191075462
 20
271.9742993451454254
 30
0.0
 40
0.0403989314898441
 50
279.8745136444621266
 51
304.9736809234606199
  0
ARC
  5
218F9
  8
0
 10
4451.0792845113383009
 20
272.1633919137544808
 30
0.0
 40
0.2308093868765759
 50
271.2689953021467772
 51
277.3884160985084009
  0
ARC
  5
218FA
  8
0
 10
4451.0228310887659973
 20
272.7835396374135826
 30
0.0
 40
0.8523344472095823
 50
269.0762298037469122
 51
270.4806285578770826
  0
ARC
  5
218FB
  8
0
 10
4451.0078643826336702
 20
271.9711193555633031
 30
0.0
 40
0.0394188870605279
 50
184.4273360217916036
 51
209.6061757539168866
  0
ARC
  5
218FC
  8
0
 10
4451.069134886152824
 20
271.4311808410199092
 30
0.0
 40
0.5025407082001309
 50
88.5282819877365483
 51
94.3659347290577557
  0
ARC
  5
218FD
  8
0
 10
4451.0437626895700305
 20
272.4355359381079893
 30
0.0
 40
0.503437566187642
 50
268.5334862747188254
 51
274.3607304420564219
  0
ARC
  5
218FE
  8
0
 10
4451.0005059993081886
 20
272.0060140455145188
 30
0.0
 40
0.0394377527539354
 50
183.0039944768267901
 51
212.5734194968283077
  0
ARC
  5
218FF
  8
0
 10
4451.000639270562715
 20
272.0061138744976006
 30
0.0
 40
0.0396038085921365
 50
212.5913234933009903
 51
246.4795877776282111
  0
ARC
  5
21900
  8
0
 10
4451.0030505709273712
 20
272.0128583223475971
 30
0.0
 40
0.0467526755199447
 50
247.0685540496411079
 51
266.6312737265806163
  0
ARC
  5
21901
  8
0
 10
4451.0275145322757453
 20
272.3435254113866222
 30
0.0
 40
0.3783188535488512
 50
265.8753432183755763
 51
269.1766746488373769
  0
ARC
  5
21902
  8
0
 10
4451.072963270071341
 20
272.2010905331351864
 30
0.0
 40
0.2358438483411544
 50
270.1282506426189229
 51
276.8326123691833232
  0
ARC
  5
21903
  8
0
 10
4451.0947081350859662
 20
272.0061617254070825
 30
0.0
 40
0.039744688263206
 50
279.1399051774081954
 51
356.8082671145861013
  0
ARC
  5
21904
  8
0
 10
4451.04785334004373
 20
271.5992826285655042
 30
0.0
 40
0.3689850885498177
 50
86.0384758561001917
 51
93.9918098978885439
  0
ARC
  5
21905
  8
0
 10
4451.0476598329214539
 20
272.3314513695063965
 30
0.0
 40
0.3649702300109666
 50
265.994658944404307
 51
274.035626809640803
  0
ARC
  5
21906
  8
0
 10
4451.0257474161699065
 20
272.2662221133152798
 30
0.0
 40
0.2718139099526252
 50
264.1232943342245107
 51
269.2210343529466741
  0
ARC
  5
21907
  8
0
 10
4451.0016337333963747
 20
272.0368207114876213
 30
0.0
 40
0.0411521916680311
 50
219.1294762700973138
 51
264.8180304482579004
  0
ARC
  5
21908
  8
0
 10
4451.0005094537127661
 20
272.0355574933205958
 30
0.0
 40
0.0394838039114397
 50
183.0075381750446866
 51
218.7370883727342914
  0
ARC
  5
21909
  8
0
 10
4451.0477625496369001
 20
271.7041647562559774
 30
0.0
 40
0.2931728984973912
 50
84.9929739110338858
 51
95.0080587552926801
  0
ARC
  5
2190A
  8
0
 10
4451.0477572737036098
 20
272.2896175255456228
 30
0.0
 40
0.294512716014468
 50
265.0158123499845146
 51
274.9852203163458171
  0
ARC
  5
2190B
  8
0
 10
4451.7056115057248462
 20
272.8856653471802929
 30
0.0
 40
0.8262174229133528
 50
269.9585043256286099
 51
273.3002837220705032
  0
ARC
  5
2190C
  8
0
 10
4451.8283324014355458
 20
270.8556485233078774
 30
0.0
 40
1.2100996497500791
 50
93.457091198284175
 51
95.849073019980878
  0
ARC
  5
2190D
  8
0
 10
4451.731671352162266
 20
272.4876930055608
 30
0.0
 40
0.4136941366639063
 50
266.3068485641078951
 51
273.1546670726708044
  0
ARC
  5
2190E
  8
0
 10
4451.787867743226343
 20
271.5735443834101943
 30
0.0
 40
0.5081125811943226
 50
93.8279957318711411
 51
99.3835081035734902
  0
ARC
  5
2190F
  8
0
 10
4451.9661231306281479
 20
271.8933260330437065
 30
0.0
 40
0.1982403188587759
 50
84.5884592069986354
 51
92.8725827429208266
  0
ARC
  5
21910
  8
0
 10
4451.9051400060998276
 20
272.5535378255410137
 30
0.0
 40
0.4696631931104701
 50
273.2393616587739871
 51
279.7675415943114103
  0
ARC
  5
21911
  8
0
 10
4451.9896772832744318
 20
271.1363856441137727
 30
0.0
 40
0.939257324842425
 50
90.2990814721696751
 51
93.5543743425615588
  0
ARC
  5
21912
  8
0
 10
4451.8649606529452285
 20
273.1676768245557128
 30
0.0
 40
1.0985996676068539
 50
273.6388036832519219
 51
276.2611572727328735
  0
ARC
  5
21913
  8
0
 10
4451.8047974132750824
 20
272.0760257273329898
 30
0.0
 40
0.0811312481124046
 50
257.6297852432742843
 51
272.9945009392637871
  0
ARC
  5
21914
  8
0
 10
4451.7974904915781735
 20
272.0351672678842192
 30
0.0
 40
0.0396889252094452
 50
222.7361470315192093
 51
255.2966438160613905
  0
ARC
  5
21915
  8
0
 10
4451.7973076771277192
 20
272.0349751211375064
 30
0.0
 40
0.0394242589019894
 50
184.771477428361294
 51
222.7113432118881917
  0
ARC
  5
21916
  8
0
 10
4451.8048896965301537
 20
273.3213278072346952
 30
0.0
 40
1.3263290277297599
 50
270.1791033387203242
 51
273.2105652624896948
  0
ARC
  5
21917
  8
0
 10
4451.8788554724251298
 20
272.0868880671562238
 30
0.0
 40
0.0898081092488274
 50
270.2016641030447772
 51
287.48601622870342
  0
ARC
  5
21918
  8
0
 10
4451.8911291929516665
 20
272.0379452033964753
 30
0.0
 40
0.0395528523953477
 50
291.8351647807488121
 51
338.2555659656154035
  0
ARC
  5
21919
  8
0
 10
4451.8912340590450185
 20
272.0378776432887094
 30
0.0
 40
0.0394304264318993
 50
338.2902997673950836
 51
358.7637817512202218
  0
ARC
  5
2191A
  8
0
 10
4452.7043871473633772
 20
272.4254468158326858
 30
0.0
 40
0.2959167643057387
 50
273.6585945993621749
 51
282.2176863162387122
  0
ARC
  5
2191B
  8
0
 10
4452.9727742974737339
 20
264.2220012506817852
 30
0.0
 40
7.9039708225711589
 50
93.1071052475899705
 51
93.4342305321010969
  0
LINE
  5
2191C
  8
0
 10
4448.7758498897583195
 20
271.9113462169959234
 30
0.0
 11
4448.7793619650019536
 21
271.9783694245181778
 31
0.0
  0
LINE
  5
2191D
  8
0
 10
4448.7758379105298445
 20
271.9195836074920862
 30
0.0
 11
4448.7790900308518758
 21
271.9816388528694233
 31
0.0
  0
LINE
  5
2191E
  8
0
 10
4448.7758407162009462
 20
271.9406876009928737
 30
0.0
 11
4448.7789242143835509
 21
271.9995140867508781
 31
0.0
  0
LINE
  5
2191F
  8
0
 10
4448.7759154658042462
 20
271.9685841142168101
 30
0.0
 11
4448.7790727324163527
 21
272.0288018730386739
 31
0.0
  0
LINE
  5
21920
  8
0
 10
4448.7758770749533141
 20
272.0088783609044754
 30
0.0
 11
4448.7791988927938291
 21
272.0722128184236794
 31
0.0
  0
LINE
  5
21921
  8
0
 10
4448.6025697155046146
 20
271.9685825580341998
 30
0.0
 11
4448.5994129720747878
 21
272.0287696714116237
 31
0.0
  0
LINE
  5
21922
  8
0
 10
4448.6026389134012788
 20
271.9406860518562894
 30
0.0
 11
4448.599554195861856
 21
271.9995156691907141
 31
0.0
  0
LINE
  5
21923
  8
0
 10
4448.6026360171308625
 20
271.9195820641552928
 30
0.0
 11
4448.599383390105686
 21
271.9816258228771062
 31
0.0
  0
LINE
  5
21924
  8
0
 10
4448.6026181234583419
 20
271.9113446792496802
 30
0.0
 11
4448.5991057264036499
 21
271.9783512641391781
 31
0.0
  0
LINE
  5
21925
  8
0
 10
4448.6026134693529457
 20
272.008876799648192
 30
0.0
 11
4448.5992558266625565
 21
272.0728722512093896
 31
0.0
  0
ARC
  5
21926
  8
0
 10
4448.6970240415666922
 20
272.7632666372571748
 30
0.0
 40
0.8335790226999996
 50
271.2315553662809862
 51
271.3681974821844847
  0
ARC
  5
21927
  8
0
 10
4448.6899687924078535
 20
274.2713752747072249
 30
0.0
 40
2.389926653899999
 50
269.9824512136905241
 51
270.5969686491084758
  0
ARC
  5
21928
  8
0
 10
4448.68846310081517
 20
274.2713564134270996
 30
0.0
 40
2.3899078056999992
 50
269.4040500473668089
 51
270.0185486075133099
  0
ARC
  5
21929
  8
0
 10
4448.6884903869149639
 20
273.5125343314356883
 30
0.0
 40
1.610392985199999
 50
269.1137931911633814
 51
270.0267277084133752
  0
ARC
  5
2192A
  8
0
 10
4448.6899614699259473
 20
273.5124991606048184
 30
0.0
 40
1.610357800099999
 50
269.9743878431672783
 51
270.8872409774770063
  0
ARC
  5
2192B
  8
0
 10
4448.6899499108212694
 20
273.1522312602011198
 30
0.0
 40
1.2226065164999991
 50
269.9668531593633816
 51
271.1712167493657262
  0
ARC
  5
2192C
  8
0
 10
4448.6885139410233023
 20
273.1522253187432057
 30
0.0
 40
1.222600587599999
 50
268.829809417487013
 51
270.034148085405775
  0
ARC
  5
2192D
  8
0
 10
4448.6897901926367922
 20
272.9869334997501937
 30
0.0
 40
1.0174232064999991
 50
269.9693212393690942
 51
271.0973765409847829
  0
ARC
  5
2192E
  8
0
 10
4448.6886826807376565
 20
272.9869297436969759
 30
0.0
 40
1.0174194601999991
 50
268.9036459627791942
 51
270.031690445709728
  0
ARC
  5
2192F
  8
0
 10
4448.6905755705447518
 20
276.358967598700815
 30
0.0
 40
4.4853447849999979
 50
269.9828556956961734
 51
270.3140629425756174
  0
ARC
  5
21930
  8
0
 10
4448.6878129789001832
 20
276.3587917001198093
 30
0.0
 40
4.4851689104999988
 50
269.6869294331863216
 51
270.0181457439965129
  0
ARC
  5
21931
  8
0
 10
4448.7364291249868984
 20
272.0109560515675184
 30
0.0
 40
0.0395026271920346
 50
317.2586563359247975
 51
356.9850648149723042
  0
ARC
  5
21932
  8
0
 10
4448.7359225025156775
 20
272.0115114073454947
 30
0.0
 40
0.0402516686519621
 50
283.0863896811251266
 51
317.167516801625311
  0
ARC
  5
21933
  8
0
 10
4448.7236834872974214
 20
272.0773605469739209
 30
0.0
 40
0.1072035088259224
 50
270.4935836758247092
 51
281.4890121248129731
  0
ARC
  5
21934
  8
0
 10
4448.6974455158588171
 20
272.6139435979605992
 30
0.0
 40
0.6443553048462882
 50
271.0519793456898014
 51
272.4159023813047042
  0
ARC
  5
21935
  8
0
 10
4448.6751484325322963
 20
272.4110791735437829
 30
0.0
 40
0.4414225045454728
 50
265.9588409670341775
 51
269.2299015240790823
  0
ARC
  5
21936
  8
0
 10
4448.6461237287812764
 20
272.0218568417998881
 30
0.0
 40
0.0511451196480823
 50
247.0258808838183029
 51
267.6650771376272928
  0
ARC
  5
21937
  8
0
 10
4448.6422457601529459
 20
272.011110411864081
 30
0.0
 40
0.039742353578371
 50
214.529693315423998
 51
246.1260580307518921
  0
ARC
  5
21938
  8
0
 10
4448.6420504804127631
 20
272.0109517759373716
 30
0.0
 40
0.0394915607169635
 50
183.0118372569554879
 51
214.5006789330350898
  0
ARC
  5
21939
  8
0
 10
4448.6892461071129219
 20
271.6804148554705876
 30
0.0
 40
0.2932238854061613
 50
84.9934096410349014
 51
95.0067928689093435
  0
ARC
  5
2193A
  8
0
 10
4448.6892450727009418
 20
272.2658723757822941
 30
0.0
 40
0.2944664801063325
 50
265.0145905168892
 51
274.9856119039160944
  0
ARC
  5
2193B
  8
0
 10
4448.7087136221252877
 20
272.3464086773784061
 30
0.0
 40
0.4165643988816583
 50
271.1298594094774899
 51
273.5051464849968852
  0
ARC
  5
2193C
  8
0
 10
4448.732767028811395
 20
271.9822998604154805
 30
0.0
 40
0.0516956772728878
 50
271.5680243477892191
 51
290.1876297189169804
  0
ARC
  5
2193D
  8
0
 10
4448.7363297573620002
 20
271.9708450059413281
 30
0.0
 40
0.0397197121484542
 50
291.0663761839172139
 51
315.324971248062127
  0
ARC
  5
2193E
  8
0
 10
4448.7365103420070227
 20
271.9706598201980228
 30
0.0
 40
0.0394610963219407
 50
315.3318250030985155
 51
343.017373054512916
  0
ARC
  5
2193F
  8
0
 10
4448.7365010490520945
 20
271.9706558602402993
 30
0.0
 40
0.0394688279468656
 50
343.0268112107186766
 51
356.9911221898735789
  0
ARC
  5
21940
  8
0
 10
4448.6617888759883499
 20
272.1249186622064258
 30
0.0
 40
0.1950468622493409
 50
262.1675907590029055
 51
270.5160737266128876
  0
ARC
  5
21941
  8
0
 10
4448.6425845738131102
 20
271.9715598760536182
 30
0.0
 40
0.0405450187324532
 50
230.476584363686186
 51
259.5184611611751961
  0
ARC
  5
21942
  8
0
 10
4448.6419899681395691
 20
271.9706678143738827
 30
0.0
 40
0.0394786613635759
 50
202.2549160335775014
 51
230.3183266489330947
  0
ARC
  5
21943
  8
0
 10
4448.641964597806691
 20
271.9706520233493734
 30
0.0
 40
0.0394492007316897
 50
183.0070591406717142
 51
202.2476449666120004
  0
ARC
  5
21944
  8
0
 10
4448.6892462059959144
 20
271.5658696563633043
 30
0.0
 40
0.3663256229270551
 50
85.9947776677953613
 51
94.0062509674202005
  0
ARC
  5
21945
  8
0
 10
4448.6892396333296347
 20
272.2980747819007092
 30
0.0
 40
0.3676660543400167
 50
266.0094054329233018
 51
273.9916232022713984
  0
ARC
  5
21946
  8
0
 10
4448.6892397826322849
 20
271.4160226782281029
 30
0.0
 40
0.488041139269529
 50
86.9943033450004748
 51
93.0056129253417367
  0
ARC
  5
21947
  8
0
 10
4448.6892404959080523
 20
272.3922042800705867
 30
0.0
 40
0.4894812179962866
 50
267.0031542193514724
 51
272.9967620509905259
  0
ARC
  5
21948
  8
0
 10
4448.714221280079073
 20
272.2179853397452121
 30
0.0
 40
0.3156516301281507
 50
270.1227100378421824
 51
274.7174344035631748
  0
ARC
  5
21949
  8
0
 10
4448.7358758318250693
 20
271.9437315305131051
 30
0.0
 40
0.0405576675591651
 50
276.0934276000086811
 51
308.4583351603337746
  0
ARC
  5
2194A
  8
0
 10
4448.7364724307490178
 20
271.9427554803377802
 30
0.0
 40
0.0394225573031979
 50
308.6616290407060887
 51
356.9932148824302089
  0
ARC
  5
2194B
  8
0
 10
4448.712577985005737
 20
272.4245220105498788
 30
0.0
 40
0.5429485035227289
 50
270.2417808406597146
 51
272.6280879477960752
  0
ARC
  5
2194C
  8
0
 10
4448.7358458881408296
 20
271.9229921389663218
 30
0.0
 40
0.0408799847191421
 50
272.2820000229755237
 51
302.0714298053235893
  0
ARC
  5
2194D
  8
0
 10
4448.7364940558300077
 20
271.9216490300045734
 30
0.0
 40
0.0393980313331209
 50
302.3098016012835956
 51
356.9949192323389866
  0
ARC
  5
2194E
  8
0
 10
4448.7145571949240548
 20
272.7519517943027836
 30
0.0
 40
0.8782618051533003
 50
270.0394275000580251
 51
271.4525742208660972
  0
ARC
  5
2194F
  8
0
 10
4448.7362128344657322
 20
271.9140895266189091
 30
0.0
 40
0.0401219128447779
 50
270.868063930533026
 51
301.7594373342399763
  0
ARC
  5
21950
  8
0
 10
4448.736521981109945
 20
271.913412338211117
 30
0.0
 40
0.0393835135000359
 50
301.8955851066431251
 51
332.128323845602722
  0
ARC
  5
21951
  8
0
 10
4448.7365223762672031
 20
271.9134089290906786
 30
0.0
 40
0.0393815705434018
 50
332.1324396045159233
 51
356.9976107907199889
  0
ARC
  5
21952
  8
0
 10
4448.6653307109563684
 20
272.2545931153305787
 30
0.0
 40
0.3522634768579884
 50
265.7450982910800121
 51
269.715743880730372
  0
ARC
  5
21953
  8
0
 10
4448.642511360422759
 20
271.9433811017024141
 30
0.0
 40
0.0402175416106154
 50
222.7730292092271043
 51
265.2699064699658038
  0
ARC
  5
21954
  8
0
 10
4448.641997571851789
 20
271.9427512085517833
 30
0.0
 40
0.039412800803623
 50
183.0035666575201958
 51
222.608086513302311
  0
ARC
  5
21955
  8
0
 10
4448.6686117451654354
 20
272.5842065611244038
 30
0.0
 40
0.7026465114065119
 50
267.9608772358664055
 51
269.5917672848204916
  0
ARC
  5
21956
  8
0
 10
4448.6429486270908455
 20
271.9232879315497939
 30
0.0
 40
0.0412882421687249
 50
232.6356962483033897
 51
270.9181772200744263
  0
ARC
  5
21957
  8
0
 10
4448.6419759912541849
 20
271.9216466387184141
 30
0.0
 40
0.0393941116421156
 50
183.0041450691433056
 51
232.3113213041341965
  0
ARC
  5
21958
  8
0
 10
4448.6646975758021654
 20
272.79079293844228
 30
0.0
 40
0.9171042495529309
 50
268.5304142458538763
 51
269.9130389186270804
  0
ARC
  5
21959
  8
0
 10
4448.6421873640802005
 20
271.9139175187812043
 30
0.0
 40
0.0399399510273885
 50
237.5133251177263105
 51
268.5507841026204119
  0
ARC
  5
2195A
  8
0
 10
4448.6419397639137969
 20
271.9134061112771974
 30
0.0
 40
0.0393756385358052
 50
183.0009767441407007
 51
237.417544179781288
  0
ARC
  5
2195B
  8
0
 10
4448.6853009169826692
 20
271.0011124177257784
 30
0.0
 40
1.075208304579482
 50
82.4256105698054995
 51
97.0943236568090242
  0
ARC
  5
2195C
  8
0
 10
4448.6010497296665562
 20
272.2128523279541241
 30
0.0
 40
0.152684514703852
 50
251.463221722872504
 51
269.5768728692773948
  0
ARC
  5
2195D
  8
0
 10
4448.7777104930246423
 20
272.2433274781525938
 30
0.0
 40
0.1831531095173144
 50
270.2681282914310259
 51
285.6206883063625241
  0
ARC
  5
2195E
  8
0
 10
4448.7824376705793838
 20
272.2406768380612903
 30
0.0
 40
0.2210524962793639
 50
269.0035067157323851
 51
281.6319294532806907
  0
ARC
  5
2195F
  8
0
 10
4448.7766439717361209
 20
271.753664525667773
 30
0.0
 40
0.2751480670416312
 50
79.4531106482517231
 51
89.9419806368732537
  0
ARC
  5
21960
  8
0
 10
4448.5995174400850374
 20
272.2709982170937906
 30
0.0
 40
0.2514708007050728
 50
258.9748865491822016
 51
270.0866400201126112
  0
ARC
  5
21961
  8
0
 10
4448.6077119355031755
 20
271.6896715449872772
 30
0.0
 40
0.339199664118996
 50
91.0379678893200861
 51
99.5516375597754148
  0
ARC
  5
21962
  8
0
 10
4448.7783903273211763
 20
272.4180154623272188
 30
0.0
 40
0.424216038267761
 50
270.0316514039541858
 51
276.5869063591923123
  0
ARC
  5
21963
  8
0
 10
4448.7737941478771972
 20
271.5159527394034171
 30
0.0
 40
0.4835885588295813
 50
83.677136756601044
 51
89.5564440904777541
  0
ARC
  5
21964
  8
0
 10
4448.6004230318521877
 20
272.4251579644333106
 30
0.0
 40
0.4313606954604147
 50
263.4739605915974039
 51
269.9244204821447966
  0
ARC
  5
21965
  8
0
 10
4448.6041526175740728
 20
271.525640469163875
 30
0.0
 40
0.4738975107369309
 50
90.3876079595978581
 51
96.3915969051190586
  0
ARC
  5
21966
  8
0
 10
4448.6010611595420414
 20
272.7407840361348121
 30
0.0
 40
0.7624352795691113
 50
266.2657655634187108
 51
269.8868228437067955
  0
ARC
  5
21967
  8
0
 10
4448.6063973896752941
 20
271.0838129489507082
 30
0.0
 40
0.8978402713053938
 50
90.3768668306345546
 51
93.511553062436306
  0
ARC
  5
21968
  8
0
 10
4448.764284138860603
 20
273.1402684684452993
 30
0.0
 40
1.1619968713898201
 50
270.7216053634990089
 51
273.0961033424571838
  0
ARC
  5
21969
  8
0
 10
4448.7767980694634389
 20
271.2269881643326244
 30
0.0
 40
0.7546541690045787
 50
86.1822939869234688
 51
89.9097033263148262
  0
LINE
  5
2196A
  8
0
 10
4449.5637811364058507
 20
271.9227645962790234
 30
0.0
 11
4449.5672932116503944
 21
271.9897878038013914
 31
0.0
  0
LINE
  5
2196B
  8
0
 10
4449.5637691571791947
 20
271.9310019867751862
 30
0.0
 11
4449.567021277499407
 21
271.9930572321525233
 31
0.0
  0
LINE
  5
2196C
  8
0
 10
4449.5637719628475679
 20
271.9521059802762011
 30
0.0
 11
4449.5668554610310821
 21
272.010932466033978
 31
0.0
  0
LINE
  5
2196D
  8
0
 10
4449.5638467124517774
 20
271.9800024935000238
 30
0.0
 11
4449.5670039790638839
 21
272.0402202523218875
 31
0.0
  0
LINE
  5
2196E
  8
0
 10
4449.5638083216008454
 20
272.0202967401878027
 30
0.0
 11
4449.5671301394422699
 21
272.0836311977068931
 31
0.0
  0
LINE
  5
2196F
  8
0
 10
4449.3905009621512363
 20
271.9800009373174134
 30
0.0
 11
4449.3873442187232286
 21
272.0401880506947236
 31
0.0
  0
LINE
  5
21970
  8
0
 10
4449.3905701600488101
 20
271.9521044311393894
 30
0.0
 11
4449.3874854425093872
 21
272.0109340484739278
 31
0.0
  0
LINE
  5
21971
  8
0
 10
4449.3905672637793032
 20
271.9310004434385064
 30
0.0
 11
4449.3873146367532172
 21
271.9930442021602062
 31
0.0
  0
LINE
  5
21972
  8
0
 10
4449.3905493701058731
 20
271.9227630585327802
 30
0.0
 11
4449.3870369730511811
 21
271.9897696434223917
 31
0.0
  0
LINE
  5
21973
  8
0
 10
4449.3905447160022959
 20
272.0202951789314056
 30
0.0
 11
4449.3871870733119067
 21
272.0842906304924895
 31
0.0
  0
ARC
  5
21974
  8
0
 10
4449.4849552882151329
 20
272.7746850165402748
 30
0.0
 40
0.8335790226999996
 50
271.2315553662809862
 51
271.3681974821844847
  0
ARC
  5
21975
  8
0
 10
4449.4779000390572037
 20
274.2827936539903817
 30
0.0
 40
2.389926653899999
 50
269.9824512136905241
 51
270.5969686491084758
  0
ARC
  5
21976
  8
0
 10
4449.4763943474617918
 20
274.2827747927101996
 30
0.0
 40
2.3899078056999992
 50
269.4040500473668089
 51
270.0185486075133099
  0
ARC
  5
21977
  8
0
 10
4449.4764216335615856
 20
273.5239527107187882
 30
0.0
 40
1.610392985199999
 50
269.1137931911633814
 51
270.0267277084133752
  0
ARC
  5
21978
  8
0
 10
4449.477892716572569
 20
273.5239175398879752
 30
0.0
 40
1.610357800099999
 50
269.9743878431672783
 51
270.8872409774770063
  0
ARC
  5
21979
  8
0
 10
4449.4778811574688007
 20
273.1636496394842766
 30
0.0
 40
1.2226065164999991
 50
269.9668531593633816
 51
271.1712167493657262
  0
ARC
  5
2197A
  8
0
 10
4449.4764451876708335
 20
273.1636436980263056
 30
0.0
 40
1.222600587599999
 50
268.829809417487013
 51
270.034148085405775
  0
ARC
  5
2197B
  8
0
 10
4449.4777214392852329
 20
272.9983518790334074
 30
0.0
 40
1.0174232064999991
 50
269.9693212393690942
 51
271.0973765409847829
  0
ARC
  5
2197C
  8
0
 10
4449.4766139273860972
 20
272.9983481229801896
 30
0.0
 40
1.0174194601999991
 50
268.9036459627791942
 51
270.031690445709728
  0
ARC
  5
2197D
  8
0
 10
4449.4785068171922831
 20
276.3703859779839718
 30
0.0
 40
4.4853447849999979
 50
269.9828556956961734
 51
270.3140629425756174
  0
ARC
  5
2197E
  8
0
 10
4449.4757442255477144
 20
276.370210079403023
 30
0.0
 40
4.4851689104999988
 50
269.6869294331863216
 51
270.0181457439965129
  0
ARC
  5
2197F
  8
0
 10
4449.5243603716353391
 20
272.0223744308506753
 30
0.0
 40
0.0395026271920346
 50
317.2586563359247975
 51
356.9850648149723042
  0
ARC
  5
21980
  8
0
 10
4449.5238537491632087
 20
272.0229297866288221
 30
0.0
 40
0.0402516686519621
 50
283.0863896811251266
 51
317.167516801625311
  0
ARC
  5
21981
  8
0
 10
4449.5116147339449526
 20
272.0887789262570777
 30
0.0
 40
0.1072035088259224
 50
270.4935836758247092
 51
281.4890121248129731
  0
ARC
  5
21982
  8
0
 10
4449.4853767625072578
 20
272.6253619772439265
 30
0.0
 40
0.6443553048462882
 50
271.0519793456898014
 51
272.4159023813047042
  0
ARC
  5
21983
  8
0
 10
4449.463079679178918
 20
272.4224975528268828
 30
0.0
 40
0.4414225045454728
 50
265.9588409670341775
 51
269.2299015240790823
  0
ARC
  5
21984
  8
0
 10
4449.4340549754288077
 20
272.0332752210831018
 30
0.0
 40
0.0511451196480823
 50
247.0258808838183029
 51
267.6650771376272928
  0
ARC
  5
21985
  8
0
 10
4449.4301770068022961
 20
272.0225287911472947
 30
0.0
 40
0.039742353578371
 50
214.529693315423998
 51
246.1260580307518921
  0
ARC
  5
21986
  8
0
 10
4449.4299817270593849
 20
272.0223701552204716
 30
0.0
 40
0.0394915607169635
 50
183.0118372569554879
 51
214.5006789330350898
  0
ARC
  5
21987
  8
0
 10
4449.4771773537604531
 20
271.6918332347538012
 30
0.0
 40
0.2932238854061613
 50
84.9934096410349014
 51
95.0067928689093435
  0
ARC
  5
21988
  8
0
 10
4449.4771763193475635
 20
272.277290755065394
 30
0.0
 40
0.2944664801063325
 50
265.0145905168892
 51
274.9856119039160944
  0
ARC
  5
21989
  8
0
 10
4449.4966448687737284
 20
272.357827056661506
 30
0.0
 40
0.4165643988816583
 50
271.1298594094774899
 51
273.5051464849968852
  0
ARC
  5
2198A
  8
0
 10
4449.5206982754589262
 20
271.9937182396986941
 30
0.0
 40
0.0516956772728878
 50
271.5680243477892191
 51
290.1876297189169804
  0
ARC
  5
2198B
  8
0
 10
4449.524261004008622
 20
271.982263385224428
 30
0.0
 40
0.0397197121484542
 50
291.0663761839172139
 51
315.324971248062127
  0
ARC
  5
2198C
  8
0
 10
4449.5244415886536444
 20
271.9820781994811227
 30
0.0
 40
0.0394610963219407
 50
315.3318250030985155
 51
343.017373054512916
  0
ARC
  5
2198D
  8
0
 10
4449.5244322956987162
 20
271.9820742395235129
 30
0.0
 40
0.0394688279468656
 50
343.0268112107186766
 51
356.9911221898735789
  0
ARC
  5
2198E
  8
0
 10
4449.4497201226349716
 20
272.1363370414895257
 30
0.0
 40
0.1950468622493409
 50
262.1675907590029055
 51
270.5160737266128876
  0
ARC
  5
2198F
  8
0
 10
4449.4305158204615509
 20
271.982978255336775
 30
0.0
 40
0.0405450187324532
 50
230.476584363686186
 51
259.5184611611751961
  0
ARC
  5
21990
  8
0
 10
4449.4299212147880098
 20
271.9820861936570964
 30
0.0
 40
0.0394786613635759
 50
202.2549160335775014
 51
230.3183266489330947
  0
ARC
  5
21991
  8
0
 10
4449.4298958444551317
 20
271.982070402632587
 30
0.0
 40
0.0394492007316897
 50
183.0070591406717142
 51
202.2476449666120004
  0
ARC
  5
21992
  8
0
 10
4449.4771774526434456
 20
271.5772880356464043
 30
0.0
 40
0.3663256229270551
 50
85.9947776677953613
 51
94.0062509674202005
  0
ARC
  5
21993
  8
0
 10
4449.4771708799780754
 20
272.3094931611839229
 30
0.0
 40
0.3676660543400167
 50
266.0094054329233018
 51
273.9916232022713984
  0
ARC
  5
21994
  8
0
 10
4449.4771710292807256
 20
271.4274410575112029
 30
0.0
 40
0.488041139269529
 50
86.9943033450004748
 51
93.0056129253417367
  0
ARC
  5
21995
  8
0
 10
4449.4771717425555835
 20
272.4036226593538004
 30
0.0
 40
0.4894812179962866
 50
267.0031542193514724
 51
272.9967620509905259
  0
ARC
  5
21996
  8
0
 10
4449.5021525267266043
 20
272.2294037190284257
 30
0.0
 40
0.3156516301281507
 50
270.1227100378421824
 51
274.7174344035631748
  0
ARC
  5
21997
  8
0
 10
4449.5238070784726006
 20
271.9551499097963188
 30
0.0
 40
0.0405576675591651
 50
276.0934276000086811
 51
308.4583351603337746
  0
ARC
  5
21998
  8
0
 10
4449.524403677396549
 20
271.9541738596209939
 30
0.0
 40
0.0394225573031979
 50
308.6616290407060887
 51
356.9932148824302089
  0
ARC
  5
21999
  8
0
 10
4449.5005092316532682
 20
272.4359403898330925
 30
0.0
 40
0.5429485035227289
 50
270.2417808406597146
 51
272.6280879477960752
  0
ARC
  5
2199A
  8
0
 10
4449.5237771347892703
 20
271.9344105182494786
 30
0.0
 40
0.0408799847191421
 50
272.2820000229755237
 51
302.0714298053235893
  0
ARC
  5
2199B
  8
0
 10
4449.5244253024766294
 20
271.9330674092877871
 30
0.0
 40
0.0393980313331209
 50
302.3098016012835956
 51
356.9949192323389866
  0
ARC
  5
2199C
  8
0
 10
4449.502488441571586
 20
272.7633701735859972
 30
0.0
 40
0.8782618051533003
 50
270.0394275000580251
 51
271.4525742208660972
  0
ARC
  5
2199D
  8
0
 10
4449.5241440811141729
 20
271.9255079059021227
 30
0.0
 40
0.0401219128447779
 50
270.868063930533026
 51
301.7594373342399763
  0
ARC
  5
2199E
  8
0
 10
4449.5244532277565668
 20
271.924830717494217
 30
0.0
 40
0.0393835135000359
 50
301.8955851066431251
 51
332.128323845602722
  0
ARC
  5
2199F
  8
0
 10
4449.5244536229156438
 20
271.9248273083738923
 30
0.0
 40
0.0393815705434018
 50
332.1324396045159233
 51
356.9976107907199889
  0
ARC
  5
219A0
  8
0
 10
4449.4532619576038996
 20
272.2660114946136787
 30
0.0
 40
0.3522634768579884
 50
265.7450982910800121
 51
269.715743880730372
  0
ARC
  5
219A1
  8
0
 10
4449.4304426070711997
 20
271.9547994809856277
 30
0.0
 40
0.0402175416106154
 50
222.7730292092271043
 51
265.2699064699658038
  0
ARC
  5
219A2
  8
0
 10
4449.4299288184993202
 20
271.9541695878349969
 30
0.0
 40
0.039412800803623
 50
183.0035666575201958
 51
222.608086513302311
  0
ARC
  5
219A3
  8
0
 10
4449.4565429918129666
 20
272.5956249404076175
 30
0.0
 40
0.7026465114065119
 50
267.9608772358664055
 51
269.5917672848204916
  0
ARC
  5
219A4
  8
0
 10
4449.4308798737392863
 20
271.9347063108330076
 30
0.0
 40
0.0412882421687249
 50
232.6356962483033897
 51
270.9181772200744263
  0
ARC
  5
219A5
  8
0
 10
4449.4299072379008066
 20
271.9330650180016278
 30
0.0
 40
0.0393941116421156
 50
183.0041450691433056
 51
232.3113213041341965
  0
ARC
  5
219A6
  8
0
 10
4449.4526288224496966
 20
272.80221131772538
 30
0.0
 40
0.9171042495529309
 50
268.5304142458538763
 51
269.9130389186270804
  0
ARC
  5
219A7
  8
0
 10
4449.4301186107268222
 20
271.925335898064418
 30
0.0
 40
0.0399399510273885
 50
237.5133251177263105
 51
268.5507841026204119
  0
ARC
  5
219A8
  8
0
 10
4449.4298710105613281
 20
271.924824490560411
 30
0.0
 40
0.0393756385358052
 50
183.0009767441407007
 51
237.417544179781288
  0
ARC
  5
219A9
  8
0
 10
4449.4732321636311099
 20
271.0125307970089921
 30
0.0
 40
1.075208304579482
 50
82.4256105698054995
 51
97.0943236568090242
  0
ARC
  5
219AA
  8
0
 10
4449.388980976314997
 20
272.2242707072373946
 30
0.0
 40
0.152684514703852
 50
251.463221722872504
 51
269.5768728692773948
  0
ARC
  5
219AB
  8
0
 10
4449.5656417396730831
 20
272.2547458574358075
 30
0.0
 40
0.1831531095173144
 50
270.2681282914310259
 51
285.6206883063625241
  0
ARC
  5
219AC
  8
0
 10
4449.5703689172269151
 20
272.2520952173445039
 30
0.0
 40
0.2210524962793639
 50
269.0035067157323851
 51
281.6319294532806907
  0
ARC
  5
219AD
  8
0
 10
4449.5645752183836521
 20
271.7650829049509866
 30
0.0
 40
0.2751480670416312
 50
79.4531106482517231
 51
89.9419806368732537
  0
ARC
  5
219AE
  8
0
 10
4449.3874486867316591
 20
272.2824165963770042
 30
0.0
 40
0.2514708007050728
 50
258.9748865491822016
 51
270.0866400201126112
  0
ARC
  5
219AF
  8
0
 10
4449.3956431821507067
 20
271.7010899242703772
 30
0.0
 40
0.339199664118996
 50
91.0379678893200861
 51
99.5516375597754148
  0
ARC
  5
219B0
  8
0
 10
4449.5663215739687075
 20
272.4294338416103756
 30
0.0
 40
0.424216038267761
 50
270.0316514039541858
 51
276.5869063591923123
  0
ARC
  5
219B1
  8
0
 10
4449.561725394523819
 20
271.5273711186865739
 30
0.0
 40
0.4835885588295813
 50
83.677136756601044
 51
89.5564440904777541
  0
ARC
  5
219B2
  8
0
 10
4449.3883542784988094
 20
272.4365763437164105
 30
0.0
 40
0.4313606954604147
 50
263.4739605915974039
 51
269.9244204821447966
  0
ARC
  5
219B3
  8
0
 10
4449.392083864221604
 20
271.5370588484470886
 30
0.0
 40
0.4738975107369309
 50
90.3876079595978581
 51
96.3915969051190586
  0
ARC
  5
219B4
  8
0
 10
4449.3889924061895726
 20
272.7522024154179121
 30
0.0
 40
0.7624352795691113
 50
266.2657655634187108
 51
269.8868228437067955
  0
ARC
  5
219B5
  8
0
 10
4449.3943286363219158
 20
271.0952313282339219
 30
0.0
 40
0.8978402713053938
 50
90.3768668306345546
 51
93.511553062436306
  0
ARC
  5
219B6
  8
0
 10
4449.5522153855090437
 20
273.1516868477285129
 30
0.0
 40
1.1619968713898201
 50
270.7216053634990089
 51
273.0961033424571838
  0
ARC
  5
219B7
  8
0
 10
4449.5647293161109701
 20
271.2384065436157812
 30
0.0
 40
0.7546541690045787
 50
86.1822939869234688
 51
89.9097033263148262
  0
LINE
  5
219B8
  8
0
 10
4450.353094673769192
 20
271.9424767132031207
 30
0.0
 11
4450.3566067490137357
 21
272.009499920725375
 31
0.0
  0
LINE
  5
219B9
  8
0
 10
4450.3530826945434455
 20
271.9507141036992266
 30
0.0
 11
4450.3563348148636578
 21
272.0127693490766205
 31
0.0
  0
LINE
  5
219BA
  8
0
 10
4450.3530855002118187
 20
271.9718180972001278
 30
0.0
 11
4450.3561689983953329
 21
272.0306445829580753
 31
0.0
  0
LINE
  5
219BB
  8
0
 10
4450.3531602498142092
 20
271.9997146104240073
 30
0.0
 11
4450.3563175164281347
 21
272.0599323692459279
 31
0.0
  0
LINE
  5
219BC
  8
0
 10
4450.3531218589650962
 20
272.0400088571116726
 30
0.0
 11
4450.3564436768056112
 21
272.1033433146308766
 31
0.0
  0
LINE
  5
219BD
  8
0
 10
4450.1798144995163966
 20
271.999713054241397
 30
0.0
 11
4450.1766577560856604
 21
272.0599001676188209
 31
0.0
  0
LINE
  5
219BE
  8
0
 10
4450.1798836974121514
 20
271.9718165480634866
 30
0.0
 11
4450.1767989798727285
 21
272.0306461653979113
 31
0.0
  0
LINE
  5
219BF
  8
0
 10
4450.1798808011426445
 20
271.95071256036249
 30
0.0
 11
4450.1766281741165585
 21
272.0127563190841897
 31
0.0
  0
LINE
  5
219C0
  8
0
 10
4450.1798629074701239
 20
271.9424751754568206
 30
0.0
 11
4450.1763505104163414
 21
272.0094817603463753
 31
0.0
  0
LINE
  5
219C1
  8
0
 10
4450.1798582533656372
 20
272.0400072958553892
 30
0.0
 11
4450.176500610675248
 21
272.1040027474164731
 31
0.0
  0
ARC
  5
219C2
  8
0
 10
4450.2742688255793837
 20
272.794397133464372
 30
0.0
 40
0.8335790226999996
 50
271.2315553662809862
 51
271.3681974821844847
  0
ARC
  5
219C3
  8
0
 10
4450.2672135764196355
 20
274.3025057709144221
 30
0.0
 40
2.389926653899999
 50
269.9824512136905241
 51
270.5969686491084758
  0
ARC
  5
219C4
  8
0
 10
4450.2657078848260426
 20
274.3024869096341831
 30
0.0
 40
2.3899078056999992
 50
269.4040500473668089
 51
270.0185486075133099
  0
ARC
  5
219C5
  8
0
 10
4450.2657351709249269
 20
273.5436648276428855
 30
0.0
 40
1.610392985199999
 50
269.1137931911633814
 51
270.0267277084133752
  0
ARC
  5
219C6
  8
0
 10
4450.2672062539368198
 20
273.5436296568120156
 30
0.0
 40
1.610357800099999
 50
269.9743878431672783
 51
270.8872409774770063
  0
ARC
  5
219C7
  8
0
 10
4450.267194694832142
 20
273.183361756408317
 30
0.0
 40
1.2226065164999991
 50
269.9668531593633816
 51
271.1712167493657262
  0
ARC
  5
219C8
  8
0
 10
4450.2657587250332654
 20
273.1833558149502892
 30
0.0
 40
1.222600587599999
 50
268.829809417487013
 51
270.034148085405775
  0
ARC
  5
219C9
  8
0
 10
4450.2670349766485742
 20
273.0180639959573909
 30
0.0
 40
1.0174232064999991
 50
269.9693212393690942
 51
271.0973765409847829
  0
ARC
  5
219CA
  8
0
 10
4450.2659274647494385
 20
273.0180602399041732
 30
0.0
 40
1.0174194601999991
 50
268.9036459627791942
 51
270.031690445709728
  0
ARC
  5
219CB
  8
0
 10
4450.2678203545556244
 20
276.3900980949080122
 30
0.0
 40
4.4853447849999979
 50
269.9828556956961734
 51
270.3140629425756174
  0
ARC
  5
219CC
  8
0
 10
4450.2650577629110558
 20
276.3899221963270065
 30
0.0
 40
4.4851689104999988
 50
269.6869294331863216
 51
270.0181457439965129
  0
ARC
  5
219CD
  8
0
 10
4450.3136739089977709
 20
272.0420865477747157
 30
0.0
 40
0.0395026271920346
 50
317.2586563359247975
 51
356.9850648149723042
  0
ARC
  5
219CE
  8
0
 10
4450.3131672865256405
 20
272.0426419035526919
 30
0.0
 40
0.0402516686519621
 50
283.0863896811251266
 51
317.167516801625311
  0
ARC
  5
219CF
  8
0
 10
4450.3009282713092034
 20
272.1084910431811181
 30
0.0
 40
0.1072035088259224
 50
270.4935836758247092
 51
281.4890121248129731
  0
ARC
  5
219D0
  8
0
 10
4450.2746902998705991
 20
272.6450740941677964
 30
0.0
 40
0.6443553048462882
 50
271.0519793456898014
 51
272.4159023813047042
  0
ARC
  5
219D1
  8
0
 10
4450.2523932165431688
 20
272.4422096697509801
 30
0.0
 40
0.4414225045454728
 50
265.9588409670341775
 51
269.2299015240790823
  0
ARC
  5
219D2
  8
0
 10
4450.223368512792149
 20
272.0529873380070853
 30
0.0
 40
0.0511451196480823
 50
247.0258808838183029
 51
267.6650771376272928
  0
ARC
  5
219D3
  8
0
 10
4450.2194905441647279
 20
272.0422409080712782
 30
0.0
 40
0.039742353578371
 50
214.529693315423998
 51
246.1260580307518921
  0
ARC
  5
219D4
  8
0
 10
4450.2192952644236357
 20
272.042082272144512
 30
0.0
 40
0.0394915607169635
 50
183.0118372569554879
 51
214.5006789330350898
  0
ARC
  5
219D5
  8
0
 10
4450.2664908911247039
 20
271.7115453516777848
 30
0.0
 40
0.2932238854061613
 50
84.9934096410349014
 51
95.0067928689093435
  0
ARC
  5
219D6
  8
0
 10
4450.2664898567109049
 20
272.2970028719893776
 30
0.0
 40
0.2944664801063325
 50
265.0145905168892
 51
274.9856119039160944
  0
ARC
  5
219D7
  8
0
 10
4450.2859584061361602
 20
272.3775391735856033
 30
0.0
 40
0.4165643988816583
 50
271.1298594094774899
 51
273.5051464849968852
  0
ARC
  5
219D8
  8
0
 10
4450.3100118128222675
 20
272.0134303566226777
 30
0.0
 40
0.0516956772728878
 50
271.5680243477892191
 51
290.1876297189169804
  0
ARC
  5
219D9
  8
0
 10
4450.3135745413728728
 20
272.0019755021484116
 30
0.0
 40
0.0397197121484542
 50
291.0663761839172139
 51
315.324971248062127
  0
ARC
  5
219DA
  8
0
 10
4450.3137551260178952
 20
272.00179031640522
 30
0.0
 40
0.0394610963219407
 50
315.3318250030985155
 51
343.017373054512916
  0
ARC
  5
219DB
  8
0
 10
4450.313745833062967
 20
272.0017863564474965
 30
0.0
 40
0.0394688279468656
 50
343.0268112107186766
 51
356.9911221898735789
  0
ARC
  5
219DC
  8
0
 10
4450.2390336599992224
 20
272.156049158413623
 30
0.0
 40
0.1950468622493409
 50
262.1675907590029055
 51
270.5160737266128876
  0
ARC
  5
219DD
  8
0
 10
4450.2198293578258017
 20
272.0026903722608154
 30
0.0
 40
0.0405450187324532
 50
230.476584363686186
 51
259.5184611611751961
  0
ARC
  5
219DE
  8
0
 10
4450.2192347521513511
 20
272.0017983105810799
 30
0.0
 40
0.0394786613635759
 50
202.2549160335775014
 51
230.3183266489330947
  0
ARC
  5
219DF
  8
0
 10
4450.2192093818193825
 20
272.0017825195566274
 30
0.0
 40
0.0394492007316897
 50
183.0070591406717142
 51
202.2476449666120004
  0
ARC
  5
219E0
  8
0
 10
4450.2664909900067869
 20
271.5970001525705015
 30
0.0
 40
0.3663256229270551
 50
85.9947776677953613
 51
94.0062509674202005
  0
ARC
  5
219E1
  8
0
 10
4450.2664844173423262
 20
272.3292052781079065
 30
0.0
 40
0.3676660543400167
 50
266.0094054329233018
 51
273.9916232022713984
  0
ARC
  5
219E2
  8
0
 10
4450.2664845666440669
 20
271.4471531744353001
 30
0.0
 40
0.488041139269529
 50
86.9943033450004748
 51
93.0056129253417367
  0
ARC
  5
219E3
  8
0
 10
4450.2664852799189248
 20
272.4233347762777839
 30
0.0
 40
0.4894812179962866
 50
267.0031542193514724
 51
272.9967620509905259
  0
ARC
  5
219E4
  8
0
 10
4450.2914660640908551
 20
272.2491158359524093
 30
0.0
 40
0.3156516301281507
 50
270.1227100378421824
 51
274.7174344035631748
  0
ARC
  5
219E5
  8
0
 10
4450.3131206158368514
 20
271.9748620267203023
 30
0.0
 40
0.0405576675591651
 50
276.0934276000086811
 51
308.4583351603337746
  0
ARC
  5
219E6
  8
0
 10
4450.3137172147598903
 20
271.9738859765449774
 30
0.0
 40
0.0394225573031979
 50
308.6616290407060887
 51
356.9932148824302089
  0
ARC
  5
219E7
  8
0
 10
4450.2898227690166095
 20
272.455652506757076
 30
0.0
 40
0.5429485035227289
 50
270.2417808406597146
 51
272.6280879477960752
  0
ARC
  5
219E8
  8
0
 10
4450.3130906721517022
 20
271.954122635173519
 30
0.0
 40
0.0408799847191421
 50
272.2820000229755237
 51
302.0714298053235893
  0
ARC
  5
219E9
  8
0
 10
4450.3137388398408802
 20
271.9527795262118275
 30
0.0
 40
0.0393980313331209
 50
302.3098016012835956
 51
356.9949192323389866
  0
ARC
  5
219EA
  8
0
 10
4450.2918019789358368
 20
272.783082290509924
 30
0.0
 40
0.8782618051533003
 50
270.0394275000580251
 51
271.4525742208660972
  0
ARC
  5
219EB
  8
0
 10
4450.3134576184766047
 20
271.9452200228261063
 30
0.0
 40
0.0401219128447779
 50
270.868063930533026
 51
301.7594373342399763
  0
ARC
  5
219EC
  8
0
 10
4450.3137667651208176
 20
271.9445428344182005
 30
0.0
 40
0.0393835135000359
 50
301.8955851066431251
 51
332.128323845602722
  0
ARC
  5
219ED
  8
0
 10
4450.3137671602798946
 20
271.9445394252978758
 30
0.0
 40
0.0393815705434018
 50
332.1324396045159233
 51
356.9976107907199889
  0
ARC
  5
219EE
  8
0
 10
4450.242575494967241
 20
272.2857236115377759
 30
0.0
 40
0.3522634768579884
 50
265.7450982910800121
 51
269.715743880730372
  0
ARC
  5
219EF
  8
0
 10
4450.2197561444336316
 20
271.9745115979096113
 30
0.0
 40
0.0402175416106154
 50
222.7730292092271043
 51
265.2699064699658038
  0
ARC
  5
219F0
  8
0
 10
4450.2192423558626615
 20
271.9738817047589237
 30
0.0
 40
0.039412800803623
 50
183.0035666575201958
 51
222.608086513302311
  0
ARC
  5
219F1
  8
0
 10
4450.245856529176308
 20
272.615337057331601
 30
0.0
 40
0.7026465114065119
 50
267.9608772358664055
 51
269.5917672848204916
  0
ARC
  5
219F2
  8
0
 10
4450.2201934111017181
 20
271.9544184277569912
 30
0.0
 40
0.0412882421687249
 50
232.6356962483033897
 51
270.9181772200744263
  0
ARC
  5
219F3
  8
0
 10
4450.2192207752650575
 20
271.9527771349256113
 30
0.0
 40
0.0393941116421156
 50
183.0041450691433056
 51
232.3113213041341965
  0
ARC
  5
219F4
  8
0
 10
4450.2419423598139474
 20
272.8219234346494773
 30
0.0
 40
0.9171042495529309
 50
268.5304142458538763
 51
269.9130389186270804
  0
ARC
  5
219F5
  8
0
 10
4450.219432148091073
 20
271.9450480149884015
 30
0.0
 40
0.0399399510273885
 50
237.5133251177263105
 51
268.5507841026204119
  0
ARC
  5
219F6
  8
0
 10
4450.2191845479246695
 20
271.9445366074842809
 30
0.0
 40
0.0393756385358052
 50
183.0009767441407007
 51
237.417544179781288
  0
ARC
  5
219F7
  8
0
 10
4450.2625457009944512
 20
271.0322429139329756
 30
0.0
 40
1.075208304579482
 50
82.4256105698054995
 51
97.0943236568090242
  0
ARC
  5
219F8
  8
0
 10
4450.1782945136783383
 20
272.2439828241613213
 30
0.0
 40
0.152684514703852
 50
251.463221722872504
 51
269.5768728692773948
  0
ARC
  5
219F9
  8
0
 10
4450.3549552770373339
 20
272.2744579743596773
 30
0.0
 40
0.1831531095173144
 50
270.2681282914310259
 51
285.6206883063625241
  0
ARC
  5
219FA
  8
0
 10
4450.3596824545902564
 20
272.2718073342684875
 30
0.0
 40
0.2210524962793639
 50
269.0035067157323851
 51
281.6319294532806907
  0
ARC
  5
219FB
  8
0
 10
4450.3538887557479029
 20
271.784795021875027
 30
0.0
 40
0.2751480670416312
 50
79.4531106482517231
 51
89.9419806368732537
  0
ARC
  5
219FC
  8
0
 10
4450.1767622240968194
 20
272.3021287133009878
 30
0.0
 40
0.2514708007050728
 50
258.9748865491822016
 51
270.0866400201126112
  0
ARC
  5
219FD
  8
0
 10
4450.184956719514048
 20
271.7208020411944744
 30
0.0
 40
0.339199664118996
 50
91.0379678893200861
 51
99.5516375597754148
  0
ARC
  5
219FE
  8
0
 10
4450.3556351113320488
 20
272.449145958534416
 30
0.0
 40
0.424216038267761
 50
270.0316514039541858
 51
276.5869063591923123
  0
ARC
  5
219FF
  8
0
 10
4450.3510389318880698
 20
271.5470832356106143
 30
0.0
 40
0.4835885588295813
 50
83.677136756601044
 51
89.5564440904777541
  0
ARC
  5
21A00
  8
0
 10
4450.1776678158630602
 20
272.4562884606405078
 30
0.0
 40
0.4313606954604147
 50
263.4739605915974039
 51
269.9244204821447966
  0
ARC
  5
21A01
  8
0
 10
4450.1813974015858548
 20
271.5567709653710722
 30
0.0
 40
0.4738975107369309
 50
90.3876079595978581
 51
96.3915969051190586
  0
ARC
  5
21A02
  8
0
 10
4450.1783059435538235
 20
272.7719145323420094
 30
0.0
 40
0.7624352795691113
 50
266.2657655634187108
 51
269.8868228437067955
  0
ARC
  5
21A03
  8
0
 10
4450.1836421736861666
 20
271.1149434451579054
 30
0.0
 40
0.8978402713053938
 50
90.3768668306345546
 51
93.511553062436306
  0
ARC
  5
21A04
  8
0
 10
4450.3415289228732945
 20
273.1713989646523828
 30
0.0
 40
1.1619968713898201
 50
270.7216053634990089
 51
273.0961033424571838
  0
ARC
  5
21A05
  8
0
 10
4450.3540428534743114
 20
271.2581186605398216
 30
0.0
 40
0.7546541690045787
 50
86.1822939869234688
 51
89.9097033263148262
  0
ARC
  5
21A07
  8
0
 10
4445.5455197422206766
 20
271.4272696670633991
 30
0.0
 40
0.4880411392695291
 50
86.9944053471209457
 51
93.0057149275161095
  0
ARC
  5
21A08
  8
0
 10
4445.5455187176266918
 20
272.4034512689057124
 30
0.0
 40
0.4894812179962867
 50
267.0032562215326948
 51
272.9968640531214987
  0
ARC
  5
21A09
  8
0
 10
4445.5472769522748422
 20
271.4186945700918159
 30
0.0
 40
0.4880411392695291
 50
86.9944053471209457
 51
93.0057149275161095
  0
ARC
  5
21A0A
  8
0
 10
4445.5472759276808574
 20
272.3948761719340723
 30
0.0
 40
0.4894812179962867
 50
267.0032562215326948
 51
272.9968640531214987
  0
ARC
  5
21A0B
  8
0
 10
4443.9564156637807173
 20
271.4957103464640227
 30
0.0
 40
0.5025407082001311
 50
85.6340835434135244
 51
91.4717362847428888
  0
ARC
  5
21A0C
  8
0
 10
4443.9817875400613048
 20
272.5000654516437066
 30
0.0
 40
0.5034375661876421
 50
265.6392878304449141
 51
271.4665319977701188
  0
ARC
  5
21A0D
  8
0
 10
4443.9552057670271097
 20
271.4599486089319953
 30
0.0
 40
0.5025407082001311
 50
85.6340835434135244
 51
91.4717362847428888
  0
ARC
  5
21A0E
  8
0
 10
4443.9805776433067876
 20
272.4643037141116793
 30
0.0
 40
0.5034375661876421
 50
265.6392878304449141
 51
271.4665319977701188
  0
ARC
  5
21A0F
  8
0
 10
4443.9552057670271097
 20
271.4647842557973831
 30
0.0
 40
0.5025407082001311
 50
85.6340835434135244
 51
91.4717362847428888
  0
ARC
  5
21A10
  8
0
 10
4443.9805776433067876
 20
272.4691393609771239
 30
0.0
 40
0.5034375661876421
 50
265.6392878304449141
 51
271.4665319977701188
  0
ARC
  5
21A11
  8
0
 10
4443.1604986711772654
 20
271.673575056847028
 30
0.0
 40
0.3541151103184733
 50
82.9858403940175862
 51
91.2817061855907355
  0
ARC
  5
21A12
  8
0
 10
4444.1526808950056875
 20
291.4907182870952056
 30
0.0
 40
19.4887946946593509
 50
267.0584703555808233
 51
267.2090762240010235
  0
ARC
  5
21A13
  8
0
 10
4446.3326894409783563
 20
271.4072671456153785
 30
0.0
 40
0.4880411392695291
 50
86.9944053471209457
 51
93.0057149275161095
  0
ARC
  5
21A14
  8
0
 10
4446.3326884163825525
 20
272.3834487474576918
 30
0.0
 40
0.4894812179962867
 50
267.0032562215326948
 51
272.9968640531214987
  0
ARC
  5
21A15
  8
0
 10
4446.3319703874103652
 20
271.3992059290346788
 30
0.0
 40
0.4880411392695291
 50
86.9944053471209457
 51
93.0057149275161095
  0
ARC
  5
21A16
  8
0
 10
4446.3319693628145615
 20
272.3753875308771057
 30
0.0
 40
0.4894812179962867
 50
267.0032562215326948
 51
272.9968640531214987
  0
ARC
  5
21A17
  8
0
 10
4447.1227645361595933
 20
271.3961613600039868
 30
0.0
 40
0.4880411392695291
 50
86.9944053471209457
 51
93.0057149275161095
  0
ARC
  5
21A18
  8
0
 10
4447.1227635115674275
 20
272.3723429618463001
 30
0.0
 40
0.4894812179962867
 50
267.0032562215326948
 51
272.9968640531214987
  0
ARC
  5
21A19
  8
0
 10
4447.1227645361595933
 20
271.387877102662685
 30
0.0
 40
0.4880411392695291
 50
86.9944053471209457
 51
93.0057149275161095
  0
ARC
  5
21A1A
  8
0
 10
4447.1227635115674275
 20
272.3640587045049983
 30
0.0
 40
0.4894812179962867
 50
267.0032562215326948
 51
272.9968640531214987
  0
ARC
  5
21A1B
  8
0
 10
4447.9059822615718076
 20
271.4134316487342744
 30
0.0
 40
0.4880411392695291
 50
86.9944053471209457
 51
93.0057149275161095
  0
ARC
  5
21A1C
  8
0
 10
4447.9059812369769134
 20
272.3896132505765877
 30
0.0
 40
0.4894812179962867
 50
267.0032562215326948
 51
272.9968640531214987
  0
ARC
  5
21A1D
  8
0
 10
4447.9059822615718076
 20
271.3841022930834015
 30
0.0
 40
0.4880411392695291
 50
86.9944053471209457
 51
93.0057149275161095
  0
ARC
  5
21A1E
  8
0
 10
4447.9059812369769134
 20
272.3602838949257148
 30
0.0
 40
0.4894812179962867
 50
267.0032562215326948
 51
272.9968640531214987
  0
ARC
  5
21A1F
  8
0
 10
4448.6892397826322849
 20
271.3954578339103136
 30
0.0
 40
0.488041139269529
 50
86.9943033450004748
 51
93.0056129253417367
  0
ARC
  5
21A20
  8
0
 10
4448.6892404959080523
 20
272.3716394357527975
 30
0.0
 40
0.4894812179962866
 50
267.0031542193514724
 51
272.9967620509905259
  0
ARC
  5
21A21
  8
0
 10
4448.6892397826322849
 20
271.387835106651778
 30
0.0
 40
0.488041139269529
 50
86.9943033450004748
 51
93.0056129253417367
  0
ARC
  5
21A22
  8
0
 10
4448.6892404959080523
 20
272.3640167084943755
 30
0.0
 40
0.4894812179962866
 50
267.0031542193514724
 51
272.9967620509905259
  0
ARC
  5
21A23
  8
0
 10
4449.4771710292807256
 20
271.4072920549318724
 30
0.0
 40
0.488041139269529
 50
86.9943033450004748
 51
93.0056129253417367
  0
ARC
  5
21A24
  8
0
 10
4449.4771717425555835
 20
272.3834736567745267
 30
0.0
 40
0.4894812179962866
 50
267.0031542193514724
 51
272.9967620509905259
  0
ARC
  5
21A25
  8
0
 10
4449.4771710292807256
 20
271.3993274132486135
 30
0.0
 40
0.488041139269529
 50
86.9943033450004748
 51
93.0056129253417367
  0
ARC
  5
21A26
  8
0
 10
4449.4771717425555835
 20
272.375509015091211
 30
0.0
 40
0.4894812179962866
 50
267.0031542193514724
 51
272.9967620509905259
  0
ARC
  5
21A27
  8
0
 10
4450.2664845666440669
 20
271.4265430050804184
 30
0.0
 40
0.488041139269529
 50
86.9943033450004748
 51
93.0056129253417367
  0
ARC
  5
21A28
  8
0
 10
4450.2664852799189248
 20
272.4027246069230159
 30
0.0
 40
0.4894812179962866
 50
267.0031542193514724
 51
272.9967620509905259
  0
ARC
  5
21A29
  8
0
 10
4450.2664845666440669
 20
271.4186381984213767
 30
0.0
 40
0.488041139269529
 50
86.9943033450004748
 51
93.0056129253417367
  0
ARC
  5
21A2A
  8
0
 10
4450.2664852799189248
 20
272.3948198002639742
 30
0.0
 40
0.4894812179962866
 50
267.0031542193514724
 51
272.9967620509905259
  0
ARC
  5
21A2B
  8
0
 10
4451.8595141422129018
 20
271.4963007019943007
 30
0.0
 40
0.5025407082001309
 50
88.5282819877365483
 51
94.3659347290577557
  0
ARC
  5
21A2C
  8
0
 10
4451.8341419456282892
 20
272.5006557990824945
 30
0.0
 40
0.503437566187642
 50
268.5334862747188254
 51
274.3607304420564219
  0
ARC
  5
21A2D
  8
0
 10
4451.8595141422129018
 20
271.4646697950519751
 30
0.0
 40
0.5025407082001309
 50
88.5282819877365483
 51
94.3659347290577557
  0
ARC
  5
21A2E
  8
0
 10
4451.8341419456282892
 20
272.4690248921402258
 30
0.0
 40
0.503437566187642
 50
268.5334862747188254
 51
274.3607304420564219
  0
ARC
  5
21A2F
  8
0
 10
4451.8595141422129018
 20
271.4604027136485911
 30
0.0
 40
0.5025407082001309
 50
88.5282819877365483
 51
94.3659347290577557
  0
ARC
  5
21A30
  8
0
 10
4451.8341419456282892
 20
272.4647578107368986
 30
0.0
 40
0.503437566187642
 50
268.5334862747188254
 51
274.3607304420564219
  0
ARC
  5
21A31
  8
0
 10
4452.6648646948942769
 20
271.6282908660202224
 30
0.0
 40
0.3996274520211546
 50
89.0159969891009553
 51
96.3645939867211609
  0
ARC
  5
21A32
  8
0
 10
4452.6028607497873963
 20
272.9478311132407953
 30
0.0
 40
0.9225457301155032
 50
271.0995528213147168
 51
274.2810381544813936
  0
LINE
  5
21A33
  8
0
 10
4450.5479774341920347
 20
275.7893972304763111
 30
0.0
 11
4445.2640606363502229
 21
275.7893972304763111
 31
0.0
  0
ENDSEC
  0
EOF
