  0
SECTION
  2
HEADER
  9
$ACADVER
  1
AC1009
  9
$INSBASE
 10
4483.4276624484573404
 20
275.4417371551523956
 30
0.0
  9
$EXTMIN
 10
4463.1870011394312314
 20
273.6381044593251204
 30
-0.0000000349181948
  9
$EXTMAX
 10
4483.7111704379376533
 20
278.2232926001331066
 30
0.0000000814935746
  9
$LIMMIN
 10
0.0
 20
0.0
  9
$LIMMAX
 10
11.6929133858000007
 20
8.2677165353999982
  9
$ORTHOMODE
 70
     0
  9
$REGENMODE
 70
     1
  9
$FILLMODE
 70
     1
  9
$QTEXTMODE
 70
     0
  9
$MIRRTEXT
 70
     0
  9
$DRAGMODE
 70
     2
  9
$LTSCALE
 40
0.6431102362
  9
$OSMODE
 70
   311
  9
$ATTMODE
 70
     1
  9
$TEXTSIZE
 40
0.2
  9
$TRACEWID
 40
0.05
  9
$TEXTSTYLE
  7
STANDARD
  9
$CLAYER
  8
0
  9
$CELTYPE
  6
BYLAYER
  9
$CECOLOR
 62
   256
  9
$DIMSCALE
 40
1.0
  9
$DIMASZ
 40
0.1875
  9
$DIMEXO
 40
0.0625
  9
$DIMDLI
 40
0.4443307087
  9
$DIMRND
 40
0.0
  9
$DIMDLE
 40
0.0
  9
$DIMEXE
 40
0.125
  9
$DIMTP
 40
0.01
  9
$DIMTM
 40
0.01
  9
$DIMTXT
 40
2.0
  9
$DIMCEN
 40
0.1052362205
  9
$DIMTSZ
 40
0.0
  9
$DIMTOL
 70
     1
  9
$DIMLIM
 70
     0
  9
$DIMTIH
 70
     1
  9
$DIMTOH
 70
     1
  9
$DIMSE1
 70
     0
  9
$DIMSE2
 70
     0
  9
$DIMTAD
 70
     0
  9
$DIMZIN
 70
     0
  9
$DIMBLK
  1

  9
$DIMASO
 70
     1
  9
$DIMSHO
 70
     1
  9
$DIMPOST
  1
\X
  9
$DIMAPOST
  1

  9
$DIMALT
 70
     1
  9
$DIMALTD
 70
     2
  9
$DIMALTF
 40
25.3999999999999986
  9
$DIMLFAC
 40
1.0
  9
$DIMTOFL
 70
     0
  9
$DIMTVP
 40
0.0
  9
$DIMTIX
 70
     0
  9
$DIMSOXD
 70
     0
  9
$DIMSAH
 70
     0
  9
$DIMBLK1
  1

  9
$DIMBLK2
  1

  9
$DIMSTYLE
  2
STANDARD
  9
$DIMCLRD
 70
     0
  9
$DIMCLRE
 70
     0
  9
$DIMCLRT
 70
     0
  9
$DIMTFAC
 40
1.0
  9
$DIMGAP
 40
0.09
  9
$LUNITS
 70
     2
  9
$LUPREC
 70
     4
  9
$SKETCHINC
 40
0.1
  9
$FILLETRAD
 40
0.0
  9
$AUNITS
 70
     0
  9
$AUPREC
 70
     0
  9
$MENU
  1
.
  9
$ELEVATION
 40
0.0
  9
$PELEVATION
 40
0.0
  9
$THICKNESS
 40
0.0
  9
$LIMCHECK
 70
     0
  9
$BLIPMODE
 70
     0
  9
$CHAMFERA
 40
0.0
  9
$CHAMFERB
 40
0.0
  9
$SKPOLY
 70
     0
  9
$TDCREATE
 40
2458060.468368056230247
  9
$TDUPDATE
 40
2459366.0379861108958721
  9
$TDINDWG
 40
0.5248565972
  9
$TDUSRTIMER
 40
0.5248565972
  9
$USRTIMER
 70
     1
  9
$ANGBASE
 50
0.0
  9
$ANGDIR
 70
     0
  9
$PDMODE
 70
     0
  9
$PDSIZE
 40
0.3125
  9
$PLINEWID
 40
0.0
  9
$COORDS
 70
     2
  9
$SPLFRAME
 70
     0
  9
$SPLINETYPE
 70
     6
  9
$SPLINESEGS
 70
     8
  9
$ATTDIA
 70
     1
  9
$ATTREQ
 70
     1
  9
$HANDLING
 70
     1
  9
$HANDSEED
  5
246CE
  9
$SURFTAB1
 70
     6
  9
$SURFTAB2
 70
     6
  9
$SURFTYPE
 70
     6
  9
$SURFU
 70
     6
  9
$SURFV
 70
     6
  9
$UCSNAME
  2

  9
$UCSORG
 10
0.0
 20
0.0
 30
0.0
  9
$UCSXDIR
 10
1.0
 20
0.0
 30
0.0
  9
$UCSYDIR
 10
0.0
 20
1.0
 30
0.0
  9
$PUCSNAME
  2

  9
$PUCSORG
 10
0.0
 20
0.0
 30
0.0
  9
$PUCSXDIR
 10
1.0
 20
0.0
 30
0.0
  9
$PUCSYDIR
 10
0.0
 20
1.0
 30
0.0
  9
$USERI1
 70
     0
  9
$USERI2
 70
     0
  9
$USERI3
 70
     0
  9
$USERI4
 70
     0
  9
$USERI5
 70
     0
  9
$USERR1
 40
0.0
  9
$USERR2
 40
0.0
  9
$USERR3
 40
0.0
  9
$USERR4
 40
0.0
  9
$USERR5
 40
0.0
  9
$WORLDVIEW
 70
     1
  9
$SHADEDGE
 70
     3
  9
$SHADEDIF
 70
    70
  9
$TILEMODE
 70
     1
  9
$MAXACTVP
 70
    64
  9
$PLIMCHECK
 70
     0
  9
$PEXTMIN
 10
1.0000000000000000E+20
 20
1.0000000000000000E+20
 30
1.0000000000000000E+20
  9
$PEXTMAX
 10
-1.0000000000000000E+20
 20
-1.0000000000000000E+20
 30
-1.0000000000000000E+20
  9
$PLIMMIN
 10
0.0
 20
0.0
  9
$PLIMMAX
 10
12.0
 20
9.0
  9
$UNITMODE
 70
     0
  9
$VISRETAIN
 70
     1
  9
$PLINEGEN
 70
     0
  9
$PSLTSCALE
 70
     1
  0
ENDSEC
  0
SECTION
  2
TABLES
  0
TABLE
  2
VPORT
 70
     1
  0
VPORT
  2
*ACTIVE
 70
     0
 10
0.0
 20
0.0
 11
1.0
 21
1.0
 12
562.0837291786019705
 22
143.3510933636543996
 13
0.0
 23
0.0
 14
1.0
 24
1.0
 15
0.0
 25
0.0
 16
0.0
 26
0.0
 36
60.4960186965801583
 17
3911.3653564453120453
 27
132.5796051025390057
 37
0.0
 40
11.7973999614352802
 41
2.5325542570951578
 42
50.0
 43
0.0
 44
0.0
 50
0.0
 51
0.0
 71
     0
 72
   100
 73
     1
 74
     1
 75
     0
 76
     0
 77
     0
 78
     0
  0
ENDTAB
  0
TABLE
  2
LTYPE
 70
     2
  0
LTYPE
  2
CONTINUOUS
 70
     0
  3
Solid line
 72
    65
 73
     0
 40
0.0
  0
LTYPE
  2
PHANTOM2
 70
     0
  3
___ _ _ ___ _ _ ___ _ _ ___ _ _
 72
    65
 73
     6
 40
1.25
 49
0.625
 49
-0.125
 49
0.125
 49
-0.125
 49
0.125
 49
-0.125
  0
ENDTAB
  0
TABLE
  2
LAYER
 70
     2
  0
LAYER
  2
0
 70
     0
 62
   255
  6
CONTINUOUS
  0
LAYER
  2
DEFPOINTS
 70
     0
 62
     7
  6
CONTINUOUS
  0
ENDTAB
  0
TABLE
  2
STYLE
 70
     1
  0
STYLE
  2
STANDARD
 70
     0
 40
0.0
 41
0.8
 50
0.0
 71
     0
 42
0.2
  3
txt
  4

  0
ENDTAB
  0
TABLE
  2
VIEW
 70
     1
  0
ENDTAB
  0
TABLE
  2
UCS
 70
     0
  0
ENDTAB
  0
TABLE
  2
APPID
 70
    11
  0
APPID
  2
ACAD
 70
     0
  0
APPID
  2
ACAD_MLEADERVER
 70
     0
  0
APPID
  2
ACAD_EXEMPT_FROM_CAD_STANDARDS
 70
     0
  0
APPID
  2
ACAD_NAV_VCDISPLAY
 70
     0
  0
APPID
  2
ACAECLAYERSTANDARD
 70
     0
  0
APPID
  2
ACCMTRANSPARENCY
 70
     0
  0
APPID
  2
ACAD_DSTYLE_DIMJAG
 70
     0
  0
APPID
  2
ACAD_DSTYLE_DIMTALN
 70
     0
  0
APPID
  2
ACDBATTR
 70
     0
  0
APPID
  2
ACADANNOTATIVE
 70
     0
  0
APPID
  2
DCO15
 70
     0
  0
ENDTAB
  0
TABLE
  2
DIMSTYLE
 70
     1
  0
DIMSTYLE
  2
STANDARD
 70
     0
  3

  4

  5

  6

  7

 40
1.0
 41
0.1875
 42
0.0625
 43
0.38
 44
0.125
 45
0.0
 46
0.0
 47
0.01
 48
0.01
140
0.15625
141
0.09
142
0.0
143
25.3999999999999986
144
1.0
145
0.0
146
1.0
147
0.09
 71
     1
 72
     0
 73
     1
 74
     1
 75
     0
 76
     0
 77
     0
 78
     4
170
     0
171
     2
172
     0
173
     0
174
     0
175
     0
176
     0
177
     0
178
     0
  0
ENDTAB
  0
ENDSEC
  0
SECTION
  2
BLOCKS
  0
BLOCK
  8
0
  2
$MODEL_SPACE
 70
     0
 10
0.0
 20
0.0
 30
0.0
  3
$MODEL_SPACE
  1

  0
ENDBLK
  5
21
  8
0
  0
BLOCK
 67
     1
  8
0
  2
$PAPER_SPACE
 70
     0
 10
0.0
 20
0.0
 30
0.0
  3
$PAPER_SPACE
  1

  0
ENDBLK
  5
1D
 67
     1
  8
0
  0
ENDSEC
  0
SECTION
  2
ENTITIES
  0
ATTDEF
  5
20106
  8
DEFPOINTS
 10
4483.4277961103698544
 20
275.445138701233077
 30
0.0
 40
0.001
  1
K-37269X
  3

  2
MODELNUMBER
 70
     0
1001
ACDBATTR
1070
     0
1070
     1
  0
ATTDEF
  5
20107
  8
DEFPOINTS
 10
4483.4277928689016335
 20
275.4434718608540038
 30
0.0
 40
0.001
  1
AIRFOIL 
  3

  2
TRADENAME
 70
     0
1001
ACDBATTR
1070
     0
1070
     1
  0
ATTDEF
  5
20108
  8
DEFPOINTS
 10
4483.4277961103698544
 20
275.4418053678998035
 30
0.0
 40
0.001
  1
SHOWERHEAD 
  3

  2
PRODUCT
 70
     0
1001
ACDBATTR
1070
     0
1070
     1
  0
LINE
  5
241B4
  8
0
 10
4463.4923555659561316
 20
277.5871505008163922
 30
0.0
 11
4463.4922599621677364
 21
277.5860063153164106
 31
0.0
  0
LINE
  5
241B5
  8
0
 10
4463.4928563896555715
 20
277.5895986087164147
 30
0.0
 11
4463.4923555659561316
 21
277.5871505008163922
 31
0.0
  0
LINE
  5
241B6
  8
0
 10
4472.5076387114568206
 20
275.1649638026163984
 30
0.0
 11
4472.4925824991569243
 21
275.0676773690163941
 31
0.0
  0
LINE
  5
241B7
  8
0
 10
4472.6804378434180762
 20
275.2411553682160275
 30
0.0
 11
4472.6716767027573951
 21
275.1849126355164117
 31
0.0
  0
LINE
  5
241B8
  8
0
 10
4472.4666216245559553
 20
275.2758032056163984
 30
0.0
 11
4472.4578931314581496
 21
275.2200473807163803
 31
0.0
  0
LINE
  5
241B9
  8
0
 10
4472.406977888756046
 20
275.1372766669164207
 30
0.0
 11
4472.4219712266567512
 21
275.2255499243163968
 31
0.0
  0
LINE
  5
241BA
  8
0
 10
4472.4254132461555855
 20
275.230753687516426
 30
0.0
 11
4472.4336243739571728
 21
275.279094250916387
 31
0.0
  0
LINE
  5
241BB
  8
0
 10
4472.3434004908558563
 20
275.1387803597164066
 30
0.0
 11
4472.3199682429558379
 21
275.0029026534164132
 31
0.0
  0
LINE
  5
241BC
  8
0
 10
4472.4325475750110854
 20
275.2812535545295987
 30
0.0
 11
4472.4301858911558156
 21
275.2738958386163972
 31
0.0
  0
LINE
  5
241BD
  8
0
 10
4472.4336243739571728
 20
275.279094250916387
 30
0.0
 11
4472.4342341372575902
 21
275.2809921766003072
 31
0.0
  0
LINE
  5
241BE
  8
0
 10
4472.4740837180588642
 20
275.217529258123875
 30
0.0
 11
4472.4492647763572677
 21
275.140242238316489
 31
0.0
  0
LINE
  5
241BF
  8
0
 10
4472.3592918736567299
 20
275.1881205668163943
 30
0.0
 11
4472.3434004908558563
 21
275.1387803597164066
 31
0.0
  0
LINE
  5
241C0
  8
0
 10
4472.3488948257572702
 20
275.2492759128164153
 30
0.0
 11
4472.3695084303390104
 21
275.287665609180408
 31
0.0
  0
LINE
  5
241C1
  8
0
 10
4472.3199682429558379
 20
275.0029026534164132
 30
0.0
 11
4472.3521609708559481
 21
274.9993148131164276
 31
0.0
  0
LINE
  5
241C2
  8
0
 10
4472.4388049692561253
 20
275.1335381254164076
 30
0.0
 11
4472.406977888756046
 21
275.1372766669164207
 31
0.0
  0
LINE
  5
241C3
  8
0
 10
4472.4595866649233358
 20
275.1723849467217065
 30
0.0
 11
4472.5076387116569094
 21
275.164963804216427
 31
0.0
  0
LINE
  5
241C4
  8
0
 10
4472.4925824991569243
 20
275.0676773690163941
 30
0.0
 11
4472.5509037534557137
 21
275.0586056652164189
 31
0.0
  0
LINE
  5
241C5
  8
0
 10
4472.5941584388556294
 20
275.1988540319164258
 30
0.0
 11
4472.4578931314581496
 21
275.2200473807163803
 31
0.0
  0
LINE
  5
241C6
  8
0
 10
4472.4254132461555855
 20
275.230753687516426
 30
0.0
 11
4472.4587573257431359
 21
275.2255676766872057
 31
0.0
  0
LINE
  5
241C7
  8
0
 10
4472.5950164210571529
 20
275.2043656494163884
 30
0.0
 11
4472.4587573257431359
 21
275.2255676766872057
 31
0.0
  0
LINE
  5
241C8
  8
0
 10
4472.4219712266567512
 20
275.2255499243163968
 30
0.0
 11
4472.4552273312556281
 21
275.2202389265164015
 31
0.0
  0
LINE
  5
241C9
  8
0
 10
4472.6714519549568649
 20
275.1844751648163765
 30
0.0
 11
4472.6132611268558321
 21
275.1938773547163919
 31
0.0
  0
LINE
  5
241CA
  8
0
 10
4472.5896976397216349
 20
275.0982550399874071
 30
0.0
 11
4472.5931300661568457
 21
275.0973817280163871
 31
0.0
  0
LINE
  5
241CB
  8
0
 10
4472.4492647763572677
 20
275.140242238316489
 30
0.0
 11
4472.4481172728574165
 21
275.1378503803164222
 31
0.0
  0
LINE
  5
241CC
  8
0
 10
4472.6714519549568649
 20
275.1844751648163765
 30
0.0
 11
4472.6716767027573951
 21
275.1849126355164117
 31
0.0
  0
LINE
  5
241CD
  8
0
 10
4472.4301858911549061
 20
275.2738958386144077
 30
0.0
 11
4472.4336243739571728
 21
275.279094250916387
 31
0.0
  0
LINE
  5
241CE
  8
0
 10
4472.4219712266567512
 20
275.2255499243163968
 30
0.0
 11
4472.4254132461555855
 21
275.230753687516426
 31
0.0
  0
LINE
  5
241CF
  8
0
 10
4472.4552273312556281
 20
275.2202389265164015
 30
0.0
 11
4472.4587573257431359
 21
275.2255676766872057
 31
0.0
  0
LINE
  5
241D0
  8
0
 10
4472.6511788404568506
 20
275.1627509244164003
 30
0.0
 11
4472.6513198757556893
 21
275.1629011020164057
 31
0.0
  0
LINE
  5
241D1
  8
0
 10
4463.9861967752558485
 20
277.4720372776163799
 30
0.0
 11
4463.9889834325558695
 21
277.4717746907164155
 31
0.0
  0
LINE
  5
241D2
  8
0
 10
4483.4207751020558135
 20
275.4468833099164158
 30
0.0
 11
4463.4988297640556993
 21
277.5407655080164204
 31
0.0
  0
LINE
  5
241D3
  8
0
 10
4476.854422306944798
 20
277.7769138427552775
 30
0.0
 11
4476.0001987981559068
 21
277.839891760716398
 31
0.0
  0
LINE
  5
241D4
  8
0
 10
4483.4169067173570511
 20
277.2334804265163939
 30
0.0
 11
4479.0606653211561934
 21
277.6062523802164037
 31
0.0
  0
LINE
  5
241D5
  8
0
 10
4476.8881983751562075
 20
277.7377367083163904
 30
0.0
 11
4476.8881983751562075
 21
277.6697365890062201
 31
0.0
  0
LINE
  5
241D6
  8
0
 10
4476.8989942051557591
 20
277.7116831877164032
 30
0.0
 11
4476.8983965423558402
 21
277.6774431075164102
 31
0.0
  0
LINE
  5
241D7
  8
0
 10
4479.0112740334343471
 20
277.5567858548263871
 30
0.0
 11
4479.0125267639559752
 21
277.4860992965163859
 31
0.0
  0
LINE
  5
241D8
  8
0
 10
4479.0609753921007723
 20
277.5007512804363046
 30
0.0
 11
4479.0606653211561934
 21
277.6062523802164037
 31
0.0
  0
LINE
  5
241D9
  8
0
 10
4483.4147787735555539
 20
275.4514343771164135
 30
0.0
 11
4483.415027318455941
 21
275.447487426710893
 31
0.0
  0
ARC
  5
241DA
  8
0
 10
4468.246837415956179
 20
279.3230228919164233
 30
0.0
 40
5.9055118110000002
 50
315.5886388342955229
 51
315.9246931757617176
  0
ARC
  5
241DB
  8
0
 10
4468.4727350432440289
 20
279.0324524484643121
 30
0.0
 40
5.646115035971313
 50
315.3951801965869208
 51
317.167194714332993
  0
ARC
  5
241DC
  8
0
 10
4468.5964257320329125
 20
278.9665636282206265
 30
0.0
 40
5.5596791150689491
 50
315.3390007769564818
 51
317.1351765405015044
  0
ARC
  5
241DD
  8
0
 10
4472.2708588873711051
 20
275.1703267783443039
 30
0.0
 40
0.0227153679899554
 50
262.8714646067821832
 51
323.0484184312423963
  0
ARC
  5
241DE
  8
0
 10
4480.8068907467613826
 20
339.1376276654971775
 30
0.0
 40
64.5251194483266772
 50
258.6804427955303254
 51
259.267909096992696
  0
ARC
  5
241DF
  8
0
 10
4477.9815455442521852
 20
325.1725554425260043
 30
0.0
 40
50.2770769906361465
 50
257.8001202596813073
 51
258.5540998599403792
  0
ARC
  5
241E0
  8
0
 10
4475.0306987819558344
 20
311.6811970214835128
 30
0.0
 40
36.4666896291538123
 50
256.5733455693895735
 51
257.6254210028482134
  0
ARC
  5
241E1
  8
0
 10
4479.0574855459572063
 20
277.4614845476164078
 30
0.0
 40
0.0394215085
 50
84.9211595780750628
 51
134.8877827627148918
  0
ARC
  5
241E2
  8
0
 10
4476.8600491445886291
 20
277.677916638172178
 30
0.0
 40
0.0383503213401226
 50
344.1821128430960925
 51
359.2925222904704015
  0
ARC
  5
241E3
  8
0
 10
4483.4160149354129317
 20
275.4631805334307728
 30
0.0
 40
0.0118110238462749
 50
263.9923238851421274
 51
350.4551438558057725
  0
ARC
  5
241E4
  8
0
 10
4483.4199467505150096
 20
275.4390420426349806
 30
0.0
 40
0.0078848994194525
 50
11.8910806723722207
 51
83.9696395629163277
  0
LINE
  5
241E5
  8
0
 10
4472.4301858911558156
 20
275.2738958386157719
 30
0.0
 11
4472.4219712266567512
 21
275.2255499243163968
 31
0.0
  0
LINE
  5
241E6
  8
0
 10
4472.5478695596839316
 20
275.2060533431761087
 30
0.0
 11
4472.5076387114568206
 21
275.1649638026163984
 31
0.0
  0
LINE
  5
241E7
  8
0
 10
4472.7040657427569386
 20
275.2350912364163946
 30
0.0
 11
4472.7104761619557394
 21
275.2329475179163865
 31
0.0
  0
LINE
  5
241E8
  8
0
 10
4463.9889834325558695
 20
277.4717746907164155
 30
0.0
 11
4464.1363705924568421
 21
277.4577199190164265
 31
0.0
  0
LINE
  5
241E9
  8
0
 10
4464.1363705924568421
 20
277.4577199190164265
 30
0.0
 11
4464.1948125723556586
 21
277.4522008894164173
 31
0.0
  0
LINE
  5
241EA
  8
0
 10
4472.59308789237366
 20
275.0973924582884251
 30
0.0
 11
4472.5942037382556009
 21
275.0975053847163849
 31
0.0
  0
LINE
  5
241EB
  8
0
 10
4463.4922993767559092
 20
277.556046095916372
 30
0.0
 11
4463.4922599621677364
 21
277.5860063153164106
 31
0.0
  0
LINE
  5
241EC
  8
0
 10
4463.4901919648573312
 20
277.4826043259163839
 30
0.0
 11
4463.4901882395570283
 21
277.5329307427164167
 31
0.0
  0
ARC
  5
241ED
  8
0
 10
4463.4980627908753377
 20
277.5329283965514264
 30
0.0
 40
0.0078745516682176
 50
84.410589135286088
 51
179.9829291419075901
  0
ARC
  5
241EE
  8
0
 10
4479.8998008764101542
 20
322.3895010909864141
 30
0.0
 40
47.6963957686900599
 50
260.9975500548645186
 51
261.2391318788439207
  0
ARC
  5
241EF
  8
0
 10
4472.3510473999585884
 20
275.0126145174990029
 30
0.0
 40
0.0133462420481802
 50
274.7861544247713823
 51
332.2711000895346842
  0
ARC
  5
241F0
  8
0
 10
4483.4158289190936557
 20
277.2216960643564221
 30
0.0
 40
0.0118335472540914
 50
0.099630735522713
 51
84.7742641998929685
  0
ARC
  5
241F1
  8
0
 10
4483.4162467261639904
 20
275.4754578563171208
 30
0.0
 40
0.0178877553026192
 50
68.6726426353746717
 51
88.209101126375316
  0
ARC
  5
241F2
  8
0
 10
4483.4199827747033851
 20
275.4839425794087902
 30
0.0
 40
0.0086343091380634
 50
33.3883461105309465
 51
71.2902918415043132
  0
ARC
  5
241F3
  8
0
 10
4483.4233751457995822
 20
275.4863982932582758
 30
0.0
 40
0.0044541935099764
 50
15.7338422405708993
 51
31.0264382910992111
  0
ARC
  5
241F4
  8
0
 10
4394.8632513722186559
 20
-484.0954893087002233
 30
0.0
 40
764.7332324774856716
 50
83.3504226805661119
 51
84.8087159140202118
  0
ARC
  5
241F5
  8
0
 10
4465.4658789556287957
 20
290.9196275647045127
 30
0.0
 40
13.4924309845254697
 50
262.3290171612082986
 51
264.0068625630382826
  0
ARC
  5
241F6
  8
0
 10
4463.92329795797923
 20
279.4684366380284928
 30
0.0
 40
1.9378072593844231
 50
258.6377921009363945
 51
262.33558830237439
  0
ARC
  5
241F7
  8
0
 10
4463.6023475399852032
 20
277.8716513569950735
 30
0.0
 40
0.3090861758556334
 50
252.2783368273751137
 51
258.6519563881184922
  0
ARC
  5
241F8
  8
0
 10
4463.5263287877642142
 20
277.6362666977274785
 30
0.0
 40
0.0617364595119025
 50
240.7492800624283973
 51
252.9854474741320871
  0
ARC
  5
241F9
  8
0
 10
4463.5030326337982842
 20
277.5947283696613113
 30
0.0
 40
0.0141114672681993
 50
225.2387815178502137
 51
240.8657821609286884
  0
ARC
  5
241FA
  8
0
 10
4463.495106799822679
 20
277.5869221089146208
 30
0.0
 40
0.0029905120877777
 50
197.8323617357754927
 51
227.7477278134379048
  0
ARC
  5
241FB
  8
0
 10
4463.5046263064623417
 20
277.5563794506421118
 30
0.0
 40
0.012331436305046
 50
181.549060907906096
 51
261.8405278882524954
  0
ARC
  5
241FC
  8
0
 10
4483.4199465853580477
 20
275.4159973263589904
 30
0.0
 40
0.0131459527054067
 50
268.0051514544414886
 51
284.7050977454150029
  0
ARC
  5
241FD
  8
0
 10
4483.4213392959773046
 20
275.4112010763649891
 30
0.0
 40
0.0081543016699273
 50
283.7944793138976252
 51
307.6551712970572794
  0
ARC
  5
241FE
  8
0
 10
4483.4242816943424259
 20
275.4076511670961054
 30
0.0
 40
0.0035499434636005
 50
305.058424119607082
 51
342.2395667087483844
  0
ARC
  5
241FF
  8
0
 10
6197.3634725146912388
 20
18041.7644844525384542
 30
0.0
 40
17848.8433623287201044
 50
264.477750548941799
 51
264.4896539075538158
  0
ARC
  5
24200
  8
0
 10
4526.9260936296232103
 20
766.078511128776654
 30
0.0
 40
492.5855471219206265
 50
263.9659943938536912
 51
264.5017123168681223
  0
ARC
  5
24201
  8
0
 10
4543.4168278251199808
 20
912.3310565219203454
 30
0.0
 40
639.7621133292053628
 50
263.165719348358607
 51
263.8741533681309193
  0
ARC
  5
24202
  8
0
 10
4443.8203417152899419
 20
76.4418580213996961
 30
0.0
 40
202.0402855933022011
 50
83.3303075381263767
 51
84.2122489088168038
  0
ARC
  5
24203
  8
0
 10
4462.8970650591545564
 20
266.218569167083615
 30
0.0
 40
11.3060567967480896
 50
84.4578394834893231
 51
85.7438822873949249
  0
ARC
  5
24204
  8
0
 10
4463.5562024571718212
 20
275.1423644437646772
 30
0.0
 40
2.3579583221643672
 50
85.6233711172489507
 51
89.3461147510211049
  0
ARC
  5
24205
  8
0
 10
4463.5759096540768951
 20
277.063530962448624
 30
0.0
 40
0.4366976467145886
 50
89.0549978910032252
 51
97.4438192324310961
  0
ARC
  5
24206
  8
0
 10
4463.528440618139939
 20
277.4224725895722941
 30
0.0
 40
0.0746333953466446
 50
97.0087857455848024
 51
114.5851270492423026
  0
ARC
  5
24207
  8
0
 10
4463.5070223628090389
 20
277.4721379823045027
 30
0.0
 40
0.0205937148816237
 50
117.8879254960678935
 51
136.7183595488247931
  0
ARC
  5
24208
  8
0
 10
4463.4984774435233703
 20
277.4805383696452168
 30
0.0
 40
0.0086177348487445
 50
138.4282937915419893
 51
159.8219609355460875
  0
ARC
  5
24209
  8
0
 10
4463.4935705985426466
 20
277.4823461209048787
 30
0.0
 40
0.0033884857117452
 50
159.8936825898140057
 51
175.6297847261884044
  0
ARC
  5
2420A
  8
0
 10
4478.965023897246283
 20
277.7776424598330891
 30
0.0
 40
0.2953877763591736
 50
275.1634136420348113
 51
282.6405957664820789
  0
ARC
  5
2420B
  8
0
 10
4478.8177056688218727
 20
279.5053718104296081
 30
0.0
 40
2.02938321340616
 50
269.3796826699215217
 51
274.9158252235043278
  0
ARC
  5
2420C
  8
0
 10
4478.8401249158141582
 20
284.1211086290788899
 30
0.0
 40
6.6451493625587714
 50
264.768539227636893
 51
269.6172570406379805
  0
ARC
  5
2420D
  8
0
 10
4478.3214302925644006
 20
285.0612559093161735
 30
0.0
 40
7.5359536428818341
 50
261.0584668321470758
 51
265.109542660444788
  0
ARC
  5
2420E
  8
0
 10
4477.4817306990444195
 20
279.9357902219791185
 30
0.0
 40
2.3424943301980532
 50
255.3226110390561985
 51
261.8622717361607215
  0
ARC
  5
2420F
  8
0
 10
4478.9514036885029782
 20
277.5549776088822114
 30
0.0
 40
0.0598976456588001
 50
1.7299612251474661
 51
84.6712494598845069
  0
ARC
  5
24210
  8
0
 10
4447.5625601509873377
 20
-113.4564756243412944
 30
0.0
 40
392.3292083862039021
 50
85.4102519927950539
 51
85.7023965455346968
  0
ARC
  5
24211
  8
0
 10
4476.9580678392276241
 20
277.710696172314897
 30
0.0
 40
0.0590818791313176
 50
85.6582366450306694
 51
179.0427784549559078
  0
ARC
  5
24212
  8
0
 10
4476.8482984517149816
 20
277.7374858678036844
 30
0.0
 40
0.0399007119193284
 50
0.3601990212372039
 51
81.1715022158536215
  0
ARC
  5
24213
  8
0
 10
4463.4553650646876122
 20
107.2355624943727008
 30
0.0
 40
171.0649292456504043
 50
85.7945101335615163
 51
87.7299486429594282
  0
ARC
  5
24214
  8
0
 10
4467.5549782007437898
 20
207.2081977300692017
 30
0.0
 40
71.0084965786797824
 50
87.8401122744333094
 51
89.575136507418577
  0
ARC
  5
24215
  8
0
 10
4467.7601561120209226
 20
235.3820211755825937
 30
0.0
 40
42.8339264435666891
 50
89.5701307984915047
 51
90.8080447493586718
  0
ARC
  5
24216
  8
0
 10
4467.4760532566697293
 20
251.0567072181123933
 30
0.0
 40
27.1568657328116316
 50
90.6750820147677388
 51
93.7021794649158721
  0
ARC
  5
24217
  8
0
 10
4466.6118317748896516
 20
264.7921145728760735
 30
0.0
 40
13.3943412963872497
 50
93.806899450611823
 51
97.3352308280235974
  0
ARC
  5
24218
  8
0
 10
4465.5711226027169687
 20
272.5642186809901091
 30
0.0
 40
5.5531144016406744
 50
96.9236236870149241
 51
105.5688741320117998
  0
ARC
  5
24219
  8
0
 10
4464.536848725382697
 20
276.2441462289614265
 30
0.0
 40
1.7306349178877329
 50
105.2826647784601022
 51
120.0160736637986929
  0
ARC
  5
2421A
  8
0
 10
4464.012596423258401
 20
277.1538398791565214
 30
0.0
 40
0.6806921611340107
 50
120.1108155184383008
 51
134.8936320152481017
  0
ARC
  5
2421B
  8
0
 10
4463.8629145774575591
 20
277.3093468443822189
 30
0.0
 40
0.4648986786744319
 50
135.3518992003604069
 51
142.3662002386697907
  0
ARC
  5
2421C
  8
0
 10
4525.125153083386067
 20
628.0920625497774381
 30
0.0
 40
356.8821347878591723
 50
261.5354695839458827
 51
263.2889103690304751
  0
ARC
  5
2421D
  8
0
 10
4483.4197161442189099
 20
273.6633180936744907
 30
0.0
 40
0.0080980662421391
 50
263.853913752062283
 51
348.8901273840129988
  0
ARC
  5
2421E
  8
0
 10
4472.592262758893412
 20
275.1038309923022211
 30
0.0
 40
0.0066166994962094
 50
287.0583559000476725
 51
303.5867450597727952
  0
ARC
  5
2421F
  8
0
 10
4472.5824859176145765
 20
275.1185407984979179
 30
0.0
 40
0.0242792307370871
 50
303.6036003566227919
 51
313.9662711427916975
  0
ARC
  5
24220
  8
0
 10
4472.3522865785980684
 20
275.3436504855775979
 30
0.0
 40
0.3462418076829428
 50
315.5230711097319727
 51
319.5541045700152836
  0
ARC
  5
24221
  8
0
 10
4472.9852917812568194
 20
274.7946715202950827
 30
0.0
 40
0.4916778385090759
 50
133.4253660752439998
 51
138.7227316479985859
  0
ARC
  5
24222
  8
0
 10
4473.2944633825045457
 20
274.4562605335086118
 30
0.0
 40
0.9500175019600809
 50
131.7291364595382959
 51
132.9377754257481001
  0
ARC
  5
24223
  8
0
 10
4472.351867060287077
 20
275.5125758309015964
 30
0.0
 40
0.4657120296354859
 50
311.7740993849491247
 51
314.2976195903206076
  0
ARC
  5
24224
  8
0
 10
4472.4474622543757505
 20
275.4135991170771263
 30
0.0
 40
0.3281106966019549
 50
314.4206151422940252
 51
319.0483304591277829
  0
ARC
  5
24225
  8
0
 10
4472.4213016441017317
 20
275.4357106981871084
 30
0.0
 40
0.3623615254995563
 50
319.118881248294997
 51
324.9779316883058868
  0
ARC
  5
24226
  8
0
 10
4472.7173720067348768
 20
275.2282574998317273
 30
0.0
 40
0.0008448983883149
 50
323.4508864545634879
 51
355.5718487560723133
  0
ARC
  5
24227
  8
0
 10
4472.7172088501383769
 20
275.2282300955690744
 30
0.0
 40
0.0010062442571727
 50
357.8454812131727749
 51
30.6396692822848102
  0
ARC
  5
24228
  8
0
 10
4472.7158008660480846
 20
275.2274002804505244
 30
0.0
 40
0.0026405659509139
 50
30.5616203882639113
 51
49.0788538658757929
  0
ARC
  5
24229
  8
0
 10
4472.7120135755203592
 20
275.2230896667899742
 30
0.0
 40
0.0083785534159543
 50
48.8177338299864303
 51
59.4289434549778122
  0
ARC
  5
2422A
  8
0
 10
4472.7008423089955613
 20
275.2041369350832838
 30
0.0
 40
0.0303786241631995
 50
59.4686133803923767
 51
71.5107909426692601
  0
ARC
  5
2422B
  8
0
 10
4472.6093701701120153
 20
274.9151885922231031
 30
0.0
 40
0.3336239698229071
 50
73.510523376932241
 51
77.7007680986042146
  0
ARC
  5
2422C
  8
0
 10
4472.5225357679992158
 20
274.5193188007297067
 30
0.0
 40
0.7389053360087022
 50
77.6608880057833488
 51
81.2357795730633256
  0
ARC
  5
2422D
  8
0
 10
4472.3252546797302784
 20
274.5833654336386758
 30
0.0
 40
0.7060875262023933
 50
80.9412322473338151
 51
84.4406850817309333
  0
ARC
  5
2422E
  8
0
 10
4472.361893840875382
 20
274.9768909592364139
 30
0.0
 40
0.310867922147926
 50
84.1353901777641937
 51
88.5964216727978169
  0
ARC
  5
2422F
  8
0
 10
4472.5837109894464447
 20
275.119601479855703
 30
0.0
 40
0.079938202427466
 50
68.3052098556512846
 51
82.4902979242950778
  0
ARC
  5
24230
  8
0
 10
4472.4901283501258149
 20
274.5166433825103809
 30
0.0
 40
0.6956747974605469
 50
77.682705758611803
 51
81.3283497380147509
  0
ARC
  5
24231
  8
0
 10
4472.5949770574434297
 20
274.9842940830562839
 30
0.0
 40
0.2164384731463311
 50
70.9833789780155797
 51
78.3904544141941528
  0
ARC
  5
24232
  8
0
 10
4472.6568589630587667
 20
275.1643001947805942
 30
0.0
 40
0.0260930335261615
 50
59.7597805853645312
 51
70.6562340118278627
  0
ARC
  5
24233
  8
0
 10
4472.6665631581690832
 20
275.1810032557106069
 30
0.0
 40
0.006775670042359
 50
48.0153570876302069
 51
59.5192747183203181
  0
ARC
  5
24234
  8
0
 10
4472.6696749598741008
 20
275.1844139139849972
 30
0.0
 40
0.0021590945098158
 50
28.1942864295388205
 51
48.8534488434810683
  0
ARC
  5
24235
  8
0
 10
4472.6707614342030865
 20
275.1850092010525941
 30
0.0
 40
0.0009203485365461
 50
353.9772818178631724
 51
27.4884397268777185
  0
ARC
  5
24236
  8
0
 10
4472.4399403305587839
 20
275.1432973910821147
 30
0.0
 40
0.0098250858326623
 50
263.3642243566512207
 51
326.3307196461003059
  0
ARC
  5
24237
  8
0
 10
4470.2155382827168069
 20
276.6392455367803791
 30
0.0
 40
2.5887145723544589
 50
325.9055958542707003
 51
328.4051644362277216
  0
ARC
  5
24238
  8
0
 10
4377.2582796051747209
 20
336.453411869667093
 30
0.0
 40
113.1398467733683049
 50
327.1848122946911985
 51
327.2658062001879102
  0
ARC
  5
24239
  8
0
 10
4467.0974834970520533
 20
278.4799147835954045
 30
0.0
 40
6.2740704709645563
 50
326.3452222892993859
 51
327.807178495184985
  0
ARC
  5
2423A
  8
0
 10
4462.3452456511749915
 20
281.5972499590179723
 30
0.0
 40
11.9913242772223008
 50
326.6580595477963129
 51
327.4066674416844762
  0
ARC
  5
2423B
  8
0
 10
4474.3731304948350953
 20
273.8471010988831154
 30
0.0
 40
2.4624427410192671
 50
145.2899075469721026
 51
146.5300805965545976
  0
ARC
  5
2423C
  8
0
 10
4471.018784040636092
 20
275.9767261699240066
 30
0.0
 40
1.511941725890694
 50
327.1538561305957273
 51
329.3141487947585233
  0
ARC
  5
2423D
  8
0
 10
4472.3021773260206828
 20
300.4350689459524801
 30
0.0
 40
24.8942056467665616
 50
254.804564368977509
 51
256.3508348646207082
  0
ARC
  5
2423E
  8
0
 10
4469.6343175833408168
 20
290.8160967502885796
 30
0.0
 40
14.9118628522529502
 50
251.8511488330537986
 51
254.4718178504454045
  0
ARC
  5
2423F
  8
0
 10
4466.5637059255041095
 20
281.950864617305001
 30
0.0
 40
5.5300700872788147
 50
241.8516615819368099
 51
251.9773039422499892
  0
ARC
  5
24240
  8
0
 10
4464.618629290390345
 20
278.3547733039504237
 30
0.0
 40
1.4418093931304139
 50
222.4816806165356979
 51
242.5889721353453865
  0
ARC
  5
24241
  8
0
 10
4463.968117269620052
 20
277.7294428654108174
 30
0.0
 40
0.540183564652239
 50
208.3002171820672004
 51
220.1633907031485933
  0
ARC
  5
24242
  8
0
 10
4463.5101543449882229
 20
277.4826621584145983
 30
0.0
 40
0.0199624639038523
 50
180.16598966527269
 51
207.8179383786184928
  0
ARC
  5
24243
  8
0
 10
4486.2235046074265483
 20
368.059323034192289
 30
0.0
 40
93.9497188066911946
 50
259.3912950639335122
 51
259.795193849998725
  0
ARC
  5
24244
  8
0
 10
4488.7306396752446744
 20
382.7120629253382162
 30
0.0
 40
108.8150123781952061
 50
259.9357640503455968
 51
260.2840733665047992
  0
ARC
  5
24245
  8
0
 10
4493.1497470887989039
 20
409.1982039770431925
 30
0.0
 40
135.6671277707552861
 50
260.3910478774733974
 51
260.6694489500525833
  0
ARC
  5
24246
  8
0
 10
4494.3297047661153556
 20
416.5626794367743742
 30
0.0
 40
143.125430502044793
 50
260.7368044017100033
 51
261.1329515454136754
  0
ARC
  5
24247
  8
0
 10
4463.550727262516375
 20
114.6114483954665957
 30
0.0
 40
163.5526553939577923
 50
84.849140840196327
 51
85.0444120774401284
  0
ARC
  5
24248
  8
0
 10
4463.5053981123410267
 20
277.5853530100864077
 30
0.0
 40
0.0132408427087938
 50
143.5495230767857038
 51
161.2981157621815953
  0
LINE
  5
24249
  8
0
 10
4471.1705390198330861
 20
275.3033780117091851
 30
0.0
 11
4471.2689786197897774
 21
275.2872758989859108
 31
0.0
  0
ARC
  5
2424A
  8
0
 10
4471.5081999696267303
 20
277.0331449334208855
 30
0.0
 40
1.7589833137177351
 50
258.8123017622598923
 51
262.2444966849445223
  0
ARC
  5
2424B
  8
0
 10
4471.415832097927705
 20
276.5131855829903884
 30
0.0
 40
1.2141281273020761
 50
258.6326059374922011
 51
262.8873012827381785
  0
ARC
  5
2424C
  8
0
 10
4471.3554827068774102
 20
276.1768710839012897
 30
0.0
 40
0.8430037504784808
 50
257.6781273185576993
 51
264.0532289155128183
  0
ARC
  5
2424D
  8
0
 10
4471.33107004345311
 20
276.0440970068182764
 30
0.0
 40
0.671004540407271
 50
256.1486504950494236
 51
264.3174151263298768
  0
ARC
  5
2424E
  8
0
 10
4471.1504289918002542
 20
274.9024092553548826
 30
0.0
 40
0.4207444219588615
 50
77.0643083732798999
 51
84.2550999681048154
  0
ARC
  5
2424F
  8
0
 10
4471.2877292567463883
 20
275.7371703334525819
 30
0.0
 40
0.42687709918932
 50
257.1160276297565019
 51
264.2033807116628168
  0
ARC
  5
24250
  8
0
 10
4471.1684176940379984
 20
275.0436457537950901
 30
0.0
 40
0.3087930401490313
 50
75.7185143649318633
 51
85.5123030286713686
  0
ARC
  5
24251
  8
0
 10
4471.2691716939280013
 20
275.6532687508710069
 30
0.0
 40
0.3113447688152369
 50
255.7587452179116099
 51
265.4720720569068817
  0
ARC
  5
24252
  8
0
 10
4471.1776572180142466
 20
275.1407378327446054
 30
0.0
 40
0.2493148968569057
 50
74.4217458770062024
 51
86.5777079248045283
  0
ARC
  5
24253
  8
0
 10
4471.2592578900876106
 20
275.6283499432682902
 30
0.0
 40
0.2478889536617205
 50
254.3866503369449106
 51
266.6128034648334051
  0
ARC
  5
24254
  8
0
 10
4471.0487113935196248
 20
274.2745847477845018
 30
0.0
 40
1.062568915338973
 50
75.3023753812937855
 51
77.2912207677316445
  0
ARC
  5
24255
  8
0
 10
4471.0487113935187153
 20
274.2745847477830239
 30
0.0
 40
1.062568915340383
 50
84.0609638962748988
 51
86.076107771136364
  0
ARC
  5
24256
  8
0
 10
4471.128982505158092
 20
274.4146299392564856
 30
0.0
 40
0.9077174395227959
 50
77.9615036684215568
 51
80.4360027091837821
  0
ARC
  5
24257
  8
0
 10
4471.3993883045186521
 20
276.008640529495608
 30
0.0
 40
0.7108952997865265
 50
261.2632295183373117
 51
263.450630318603487
  0
ARC
  5
24258
  8
0
 10
4471.0065019184203265
 20
274.3512848141714926
 30
0.0
 40
0.990070440415878
 50
81.0320300324466132
 51
83.3343644414819806
  0
ARC
  5
24259
  8
0
 10
4471.3569828749286899
 20
276.4819770727564219
 30
0.0
 40
1.1712462573835181
 50
258.3976664386767084
 51
260.0218089933334227
  0
ARC
  5
2425A
  8
0
 10
4470.9650043289066161
 20
273.7874027543251145
 30
0.0
 40
1.5731050582594199
 50
77.0217094497933203
 51
84.2936816214004949
  0
ARC
  5
2425B
  8
0
 10
4471.323097918433632
 20
275.5378785956514776
 30
0.0
 40
0.2176083976052439
 50
261.5494978613130002
 51
268.7353449588380272
  0
ARC
  5
2425C
  8
0
 10
4471.1967394050552684
 20
275.5993511197669932
 30
0.0
 40
0.257883768646599
 50
253.0176234791927072
 51
260.4690444866536723
  0
ARC
  5
2425D
  8
0
 10
4471.0316752260987414
 20
274.228673530282606
 30
0.0
 40
1.1580696586092369
 50
75.6711854671378887
 51
85.5561293825942926
  0
ARC
  5
2425E
  8
0
 10
4471.3129590121579895
 20
275.4976973469359223
 30
0.0
 40
0.1470764364564896
 50
261.3682479615254124
 51
272.0739487767833111
  0
ARC
  5
2425F
  8
0
 10
4471.1942067928021061
 20
275.5911112380198915
 30
0.0
 40
0.2202305348724054
 50
250.6966514681080014
 51
259.491391727705718
  0
ARC
  5
24260
  8
0
 10
4471.0645738863513543
 20
274.4835327626533967
 30
0.0
 40
0.9399928460984854
 50
74.3430483071603163
 51
86.5225119770064737
  0
ARC
  5
24261
  8
0
 10
4471.3086348738879678
 20
275.519666780694422
 30
0.0
 40
0.1313726138557923
 50
262.0995284632122093
 51
274.2000132923682258
  0
ARC
  5
24262
  8
0
 10
4471.1767275425572734
 20
275.5461020073744862
 30
0.0
 40
0.1359866946675295
 50
246.0800681464675961
 51
260.4097412770763071
  0
ARC
  5
24263
  8
0
 10
4471.1737438215859584
 20
275.3260761832661956
 30
0.0
 40
0.0197089885649002
 50
180.1259710892948078
 51
249.729121529440107
  0
ARC
  5
24264
  8
0
 10
4471.174864585845171
 20
275.3238682881556088
 30
0.0
 40
0.0209418707418468
 50
174.0672823818098038
 51
258.0796871379259869
  0
ARC
  5
24265
  8
0
 10
4471.2720888024714441
 20
275.3099634540976126
 30
0.0
 40
0.0197523317923104
 50
266.3519912681286996
 51
346.4239571202762136
  0
ARC
  5
24266
  8
0
 10
4471.2721363361570184
 20
275.3067208802164032
 30
0.0
 40
0.0196997072999968
 50
260.7761225831015963
 51
350.8188562493288032
  0
LINE
  5
24267
  8
0
 10
4471.1540348806556722
 20
275.3260328509164196
 30
0.0
 11
4471.1540389099336608
 21
275.330300806441528
 31
0.0
  0
ARC
  5
24268
  8
0
 10
4471.179066840073574
 20
275.3516136448728275
 30
0.0
 40
0.0288511574265596
 50
230.8217586121043041
 51
264.9517756495105232
  0
ARC
  5
24269
  8
0
 10
4471.1736146965831722
 20
275.3441104895586022
 30
0.0
 40
0.0195972494244707
 50
177.3191465958009019
 51
229.3200257198951988
  0
LINE
  5
2426A
  8
0
 10
4471.1540388951561908
 20
275.3491086988244092
 30
0.0
 11
4471.1540388951607383
 21
275.3450271048935747
 31
0.0
  0
LINE
  5
2426B
  8
0
 10
4471.2912892390168054
 20
275.3053268769464808
 30
0.0
 11
4471.2916974142281106
 21
275.3076443895204193
 31
0.0
  0
LINE
  5
2426C
  8
0
 10
4471.2916734307973456
 20
275.3262162005206051
 30
0.0
 11
4471.2911192884112097
 21
275.3226327317416917
 31
0.0
  0
ARC
  5
2426D
  8
0
 10
4471.270256254009837
 20
275.3380817971931265
 30
0.0
 40
0.0300601784891204
 50
260.8904421794532027
 51
283.7597366159374133
  0
ARC
  5
2426E
  8
0
 10
4471.2719914194585726
 20
275.3279983295602733
 30
0.0
 40
0.0198661775554591
 50
285.8165129057986746
 51
344.3305515213546073
  0
ARC
  5
2426F
  8
0
 10
4471.1747088773590804
 20
275.3749117354172995
 30
0.0
 40
0.0206711961187813
 50
180.9347355799743013
 51
256.8148187481764921
  0
ARC
  5
24270
  8
0
 10
4471.1963702266111795
 20
275.4419703670777722
 30
0.0
 40
0.0910874386506791
 50
253.167627943385213
 51
256.8081049462659848
  0
ARC
  5
24271
  8
0
 10
4471.2708383138406134
 20
275.3602290673226207
 30
0.0
 40
0.0219908825100668
 50
262.9617672218614075
 51
304.9038793540887013
  0
ARC
  5
24272
  8
0
 10
4471.272186874099134
 20
275.3583084673878716
 30
0.0
 40
0.0196441264523661
 50
304.883456691343099
 51
356.6229213871375805
  0
ARC
  5
24273
  8
0
 10
4471.1763883270714359
 20
275.41504095567592
 30
0.0
 40
0.0232136976992393
 50
216.134236456030294
 51
255.1248832498123136
  0
ARC
  5
24274
  8
0
 10
4471.1778395030805768
 20
275.4140398562767018
 30
0.0
 40
0.0238535228490553
 50
184.8675760368641932
 51
212.1334754554943061
  0
ARC
  5
24275
  8
0
 10
4471.5820434869929159
 20
275.4175766520177149
 30
0.0
 40
0.4280076042422286
 50
179.7748670708529914
 51
180.7444298879119913
  0
ARC
  5
24276
  8
0
 10
4471.2690819548170111
 20
275.4033754958808231
 30
0.0
 40
0.0273504517957577
 50
260.6298786114577979
 51
299.1615703650974183
  0
ARC
  5
24277
  8
0
 10
4471.2712225389650484
 20
275.3969286042104727
 30
0.0
 40
0.0207167539316041
 50
302.6821089725565912
 51
339.1087662713845816
  0
ARC
  5
24278
  8
0
 10
4471.2741387815704002
 20
275.3960390010579999
 30
0.0
 40
0.0176762330514009
 50
338.4319525068228813
 51
358.7250455826091979
  0
LINE
  5
24279
  8
0
 10
4471.1540404320357993
 20
275.3745745160695151
 30
0.0
 11
4471.1540404320357993
 21
275.3802603010328767
 31
0.0
  0
ARC
  5
2427A
  8
0
 10
4470.5433050159963386
 20
276.2361654736375272
 30
0.0
 40
0.671004540407271
 50
256.1486504950494236
 51
264.3174151263298768
  0
ARC
  5
2427B
  8
0
 10
4470.3898921905565658
 20
275.3328062995637993
 30
0.0
 40
0.2493148968569057
 50
74.4217458770062024
 51
86.5777079248045283
  0
ARC
  5
2427C
  8
0
 10
4470.4714928626326582
 20
275.8204184100874272
 30
0.0
 40
0.2478889536617205
 50
254.3866503369449106
 51
266.6128034648334051
  0
ARC
  5
2427D
  8
0
 10
4470.2768088588936735
 20
274.6756012294725906
 30
0.0
 40
0.9399928460984854
 50
74.3430483071603163
 51
86.5225119770064737
  0
ARC
  5
2427E
  8
0
 10
4470.520869846430287
 20
275.7117352475136727
 30
0.0
 40
0.1313726138557923
 50
262.0995284632122093
 51
274.2000132923682258
  0
ARC
  5
2427F
  8
0
 10
4470.3889625151014116
 20
275.7381704741936801
 30
0.0
 40
0.1359866946675295
 50
246.0800681464675961
 51
260.4097412770763071
  0
ARC
  5
24280
  8
0
 10
4470.3886232996146646
 20
275.6071094224950002
 30
0.0
 40
0.0232136976992393
 50
216.134236456030294
 51
255.1248832498123136
  0
ARC
  5
24281
  8
0
 10
4470.390074475624715
 20
275.6061083230958957
 30
0.0
 40
0.0238535228490553
 50
184.8675760368641932
 51
212.1334754554943061
  0
ARC
  5
24282
  8
0
 10
4470.7942784595361445
 20
275.6096451188369088
 30
0.0
 40
0.4280076042422286
 50
179.7748670708529914
 51
180.7444298879119913
  0
ARC
  5
24283
  8
0
 10
4470.4813169273611493
 20
275.595443962700017
 30
0.0
 40
0.0273504517957577
 50
260.6298786114577979
 51
299.1615703650974183
  0
ARC
  5
24284
  8
0
 10
4470.4834575115091866
 20
275.5889970710297803
 30
0.0
 40
0.0207167539316041
 50
302.6821089725565912
 51
339.1087662713845816
  0
ARC
  5
24285
  8
0
 10
4470.4863737541136288
 20
275.5881074678771938
 30
0.0
 40
0.0176762330514009
 50
338.4319525068228813
 51
358.7250455826091979
  0
ARC
  5
24286
  8
0
 10
4470.5433230293965607
 20
276.1782858259375075
 30
0.0
 40
0.671004540407271
 50
256.1486504950494236
 51
264.3174151263298768
  0
ARC
  5
24287
  8
0
 10
4470.3899102039576974
 20
275.2749266518637796
 30
0.0
 40
0.2493148968569057
 50
74.4217458770062024
 51
86.5777079248045283
  0
ARC
  5
24288
  8
0
 10
4470.4715108760328803
 20
275.7625387623875213
 30
0.0
 40
0.2478889536617205
 50
254.3866503369449106
 51
266.6128034648334051
  0
ARC
  5
24289
  8
0
 10
4470.2768268722948051
 20
274.6177215817726278
 30
0.0
 40
0.9399928460984854
 50
74.3430483071603163
 51
86.5225119770064737
  0
ARC
  5
2428A
  8
0
 10
4470.5208878598314186
 20
275.6538555998137099
 30
0.0
 40
0.1313726138557923
 50
262.0995284632122093
 51
274.2000132923682258
  0
ARC
  5
2428B
  8
0
 10
4470.3889805284998147
 20
275.6802908264937173
 30
0.0
 40
0.1359866946675295
 50
246.0800681464675961
 51
260.4097412770763071
  0
ARC
  5
2428C
  8
0
 10
4470.3886413130139772
 20
275.5492297747950943
 30
0.0
 40
0.0232136976992393
 50
216.134236456030294
 51
255.1248832498123136
  0
ARC
  5
2428D
  8
0
 10
4470.3900924890249371
 20
275.5482286753958761
 30
0.0
 40
0.0238535228490553
 50
184.8675760368641932
 51
212.1334754554943061
  0
ARC
  5
2428E
  8
0
 10
4470.7942964729363666
 20
275.5517654711368891
 30
0.0
 40
0.4280076042422286
 50
179.7748670708529914
 51
180.7444298879119913
  0
ARC
  5
2428F
  8
0
 10
4470.4813349407595524
 20
275.537564315000111
 30
0.0
 40
0.0273504517957577
 50
260.6298786114577979
 51
299.1615703650974183
  0
ARC
  5
24290
  8
0
 10
4470.4834755249094087
 20
275.5311174233298175
 30
0.0
 40
0.0207167539316041
 50
302.6821089725565912
 51
339.1087662713845816
  0
ARC
  5
24291
  8
0
 10
4470.4863917675138509
 20
275.5302278201772879
 30
0.0
 40
0.0176762330514009
 50
338.4319525068228813
 51
358.7250455826091979
  0
ARC
  5
24292
  8
0
 10
4470.5433499835962721
 20
276.1389374235375271
 30
0.0
 40
0.671004540407271
 50
256.1486504950494236
 51
264.3174151263298768
  0
ARC
  5
24293
  8
0
 10
4470.3899371581583182
 20
275.2355782494637992
 30
0.0
 40
0.2493148968569057
 50
74.4217458770062024
 51
86.5777079248045283
  0
ARC
  5
24294
  8
0
 10
4470.4715378302316822
 20
275.7231903599874272
 30
0.0
 40
0.2478889536617205
 50
254.3866503369449106
 51
266.6128034648334051
  0
ARC
  5
24295
  8
0
 10
4470.2768538264936069
 20
274.5783731793725906
 30
0.0
 40
0.9399928460984854
 50
74.3430483071603163
 51
86.5225119770064737
  0
ARC
  5
24296
  8
0
 10
4470.5209148140311299
 20
275.6145071974136727
 30
0.0
 40
0.1313726138557923
 50
262.0995284632122093
 51
274.2000132923682258
  0
ARC
  5
24297
  8
0
 10
4470.389007482701345
 20
275.6409424240937938
 30
0.0
 40
0.1359866946675295
 50
246.0800681464675961
 51
260.4097412770763071
  0
ARC
  5
24298
  8
0
 10
4470.3886682672136885
 20
275.5098813723951139
 30
0.0
 40
0.0232136976992393
 50
216.134236456030294
 51
255.1248832498123136
  0
ARC
  5
24299
  8
0
 10
4470.3901194432255579
 20
275.5088802729960094
 30
0.0
 40
0.0238535228490553
 50
184.8675760368641932
 51
212.1334754554943061
  0
ARC
  5
2429A
  8
0
 10
4470.794323427136078
 20
275.5124170687369087
 30
0.0
 40
0.4280076042422286
 50
179.7748670708529914
 51
180.7444298879119913
  0
ARC
  5
2429B
  8
0
 10
4470.4813618949601732
 20
275.498215912600017
 30
0.0
 40
0.0273504517957577
 50
260.6298786114577979
 51
299.1615703650974183
  0
ARC
  5
2429C
  8
0
 10
4470.48350247910912
 20
275.4917690209297803
 30
0.0
 40
0.0207167539316041
 50
302.6821089725565912
 51
339.1087662713845816
  0
ARC
  5
2429D
  8
0
 10
4470.4864187217153813
 20
275.4908794177771938
 30
0.0
 40
0.0176762330514009
 50
338.4319525068228813
 51
358.7250455826091979
  0
ARC
  5
2429E
  8
0
 10
4470.5433642946782129
 20
276.1077821789031077
 30
0.0
 40
0.671004540407271
 50
256.1486504950494236
 51
264.3174151263298768
  0
ARC
  5
2429F
  8
0
 10
4470.389951469240259
 20
275.2044230048293798
 30
0.0
 40
0.2493148968569057
 50
74.4217458770062024
 51
86.5777079248045283
  0
ARC
  5
242A0
  8
0
 10
4470.471552141313623
 20
275.6920351153531215
 30
0.0
 40
0.2478889536617205
 50
254.3866503369449106
 51
266.6128034648334051
  0
ARC
  5
242A1
  8
0
 10
4470.2768681375773667
 20
274.547217934738228
 30
0.0
 40
0.9399928460984854
 50
74.3430483071603163
 51
86.5225119770064737
  0
ARC
  5
242A2
  8
0
 10
4470.5209291251139803
 20
275.5833519527793101
 30
0.0
 40
0.1313726138557923
 50
262.0995284632122093
 51
274.2000132923682258
  0
ARC
  5
242A3
  8
0
 10
4470.3890217937832858
 20
275.6097871794593743
 30
0.0
 40
0.1359866946675295
 50
246.0800681464675961
 51
260.4097412770763071
  0
ARC
  5
242A4
  8
0
 10
4470.3886825782974483
 20
275.4787261277606945
 30
0.0
 40
0.0232136976992393
 50
216.134236456030294
 51
255.1248832498123136
  0
ARC
  5
242A5
  8
0
 10
4470.3901337543065893
 20
275.4777250283615899
 30
0.0
 40
0.0238535228490553
 50
184.8675760368641932
 51
212.1334754554943061
  0
ARC
  5
242A6
  8
0
 10
4470.7943377382189283
 20
275.4812618241024893
 30
0.0
 40
0.4280076042422286
 50
179.7748670708529914
 51
180.7444298879119913
  0
ARC
  5
242A7
  8
0
 10
4470.4813762060430236
 20
275.4670606679657112
 30
0.0
 40
0.0273504517957577
 50
260.6298786114577979
 51
299.1615703650974183
  0
ARC
  5
242A8
  8
0
 10
4470.4835167901910609
 20
275.4606137762954177
 30
0.0
 40
0.0207167539316041
 50
302.6821089725565912
 51
339.1087662713845816
  0
ARC
  5
242A9
  8
0
 10
4470.4864330327964126
 20
275.459724173142888
 30
0.0
 40
0.0176762330514009
 50
338.4319525068228813
 51
358.7250455826091979
  0
ARC
  5
242AA
  8
0
 10
4470.5441559130867972
 20
276.0886613982801805
 30
0.0
 40
0.671004540407271
 50
256.1486504950494236
 51
264.3174151263298768
  0
ARC
  5
242AB
  8
0
 10
4470.3907430876470244
 20
275.1853022242065094
 30
0.0
 40
0.2493148968569057
 50
74.4217458770062024
 51
86.5777079248045283
  0
ARC
  5
242AC
  8
0
 10
4470.4723437597222073
 20
275.6729143347301942
 30
0.0
 40
0.2478889536617205
 50
254.3866503369449106
 51
266.6128034648334051
  0
ARC
  5
242AD
  8
0
 10
4470.2776597559850416
 20
274.5280971541153008
 30
0.0
 40
0.9399928460984854
 50
74.3430483071603163
 51
76.6892502281428534
  0
ARC
  5
242AE
  8
0
 10
4470.2776597559850416
 20
274.5280971541153008
 30
0.0
 40
0.9399928460984854
 50
84.2871966428349566
 51
86.5225119770064737
  0
ARC
  5
242AF
  8
0
 10
4470.5217207435216551
 20
275.564231172156326
 30
0.0
 40
0.1313726138557923
 50
265.2002076562733919
 51
274.2000132923682258
  0
ARC
  5
242B0
  8
0
 10
4470.3898134121918702
 20
275.5906663988363903
 30
0.0
 40
0.1359866946675295
 50
246.0800681464675961
 51
252.8392015137123963
  0
ARC
  5
242B1
  8
0
 10
4470.3894741967051232
 20
275.4596053471378241
 30
0.0
 40
0.0232136976992393
 50
216.134236456030294
 51
255.1248832498123136
  0
ARC
  5
242B2
  8
0
 10
4470.3909253727160831
 20
275.4586042477386059
 30
0.0
 40
0.0238535228490553
 50
184.8675760368641932
 51
212.1334754554943061
  0
ARC
  5
242B3
  8
0
 10
4470.7951293566266031
 20
275.4621410434796189
 30
0.0
 40
0.4280076042422286
 50
179.7748670708529914
 51
180.7444298879119913
  0
ARC
  5
242B4
  8
0
 10
4470.4821678244497889
 20
275.4479398873427272
 30
0.0
 40
0.0273504517957577
 50
260.6298786114577979
 51
299.1615703650974183
  0
ARC
  5
242B5
  8
0
 10
4470.4843084085987357
 20
275.4414929956723768
 30
0.0
 40
0.0207167539316041
 50
302.6821089725565912
 51
339.1087662713845816
  0
ARC
  5
242B6
  8
0
 10
4470.4872246512049969
 20
275.440603392519904
 30
0.0
 40
0.0176762330514009
 50
338.4319525068228813
 51
358.7250455826091979
  0
ARC
  5
242B7
  8
0
 10
4469.763265604330627
 20
276.2441980526834868
 30
0.0
 40
0.671004540407271
 50
255.4594739703069877
 51
263.6282386015490147
  0
ARC
  5
242B8
  8
0
 10
4469.5989981738193819
 20
275.3427494941594205
 30
0.0
 40
0.2493148968569057
 50
73.7325693522266334
 51
85.8885313999928144
  0
ARC
  5
242B9
  8
0
 10
4469.6864579947032325
 20
275.8293448288507079
 30
0.0
 40
0.2478889536617205
 50
253.6974738121485018
 51
265.9236269400399237
  0
ARC
  5
242BA
  8
0
 10
4469.4780180881352862
 20
274.6869521451852734
 30
0.0
 40
0.9399928460984854
 50
73.6538717823562479
 51
85.8333354522170708
  0
ARC
  5
242BB
  8
0
 10
4469.7345241535822424
 20
275.7200756166873816
 30
0.0
 40
0.1313726138557923
 50
261.4103519384598258
 51
273.5108367676156718
  0
ARC
  5
242BC
  8
0
 10
4469.6029443302695654
 20
275.7480955268515004
 30
0.0
 40
0.1359866946675295
 50
245.3908916217089029
 51
259.7205647522819731
  0
ARC
  5
242BD
  8
0
 10
4469.6010287226499713
 20
275.6170480362728199
 30
0.0
 40
0.0232136976992393
 50
215.4450599312548036
 51
254.4357067250278988
  0
ARC
  5
242BE
  8
0
 10
4469.6024677523482751
 20
275.6160295543896268
 30
0.0
 40
0.0238535228490553
 50
184.1783995120844111
 51
211.4442989307160872
  0
ARC
  5
242BF
  8
0
 10
4470.0066850369794338
 20
275.6147042845241799
 30
0.0
 40
0.4280076042422286
 50
179.0856905460744883
 51
180.0552533631336019
  0
ARC
  5
242C0
  8
0
 10
4469.6935753314819522
 20
275.6042684912621894
 30
0.0
 40
0.0273504517957577
 50
259.9407020867104734
 51
298.4723938403142256
  0
ARC
  5
242C1
  8
0
 10
4469.6956382168618802
 20
275.597796318781775
 30
0.0
 40
0.0207167539316041
 50
301.9929324477698742
 51
338.4195897466062206
  0
ARC
  5
242C2
  8
0
 10
4469.6985435482602043
 20
275.5968717030983157
 30
0.0
 40
0.0176762330514009
 50
337.7427759820484994
 51
358.0358690578291885
  0
ARC
  5
242C3
  8
0
 10
4469.763265604330627
 20
276.2761208238233053
 30
0.0
 40
0.671004540407271
 50
255.4594739703069877
 51
263.6282386015490147
  0
ARC
  5
242C4
  8
0
 10
4469.5989981738193819
 20
275.3746722652991821
 30
0.0
 40
0.2493148968569057
 50
73.7325693522266334
 51
85.8885313999928144
  0
ARC
  5
242C5
  8
0
 10
4469.6864579947032325
 20
275.8612675999905264
 30
0.0
 40
0.2478889536617205
 50
253.6974738121485018
 51
265.9236269400399237
  0
ARC
  5
242C6
  8
0
 10
4469.4780180881352862
 20
274.7188749163249781
 30
0.0
 40
0.9399928460984854
 50
73.6538717823562479
 51
85.8333354522170708
  0
ARC
  5
242C7
  8
0
 10
4469.7345241535822424
 20
275.7519983878272001
 30
0.0
 40
0.1313726138557923
 50
261.4103519384598258
 51
273.5108367676156718
  0
ARC
  5
242C8
  8
0
 10
4469.6029443302695654
 20
275.7800182979912051
 30
0.0
 40
0.1359866946675295
 50
245.3908916217089029
 51
259.7205647522819731
  0
ARC
  5
242C9
  8
0
 10
4469.6010287226499713
 20
275.6489708074125247
 30
0.0
 40
0.0232136976992393
 50
215.4450599312548036
 51
254.4357067250278988
  0
ARC
  5
242CA
  8
0
 10
4469.6024677523482751
 20
275.6479523255293884
 30
0.0
 40
0.0238535228490553
 50
184.1783995120844111
 51
211.4442989307160872
  0
ARC
  5
242CB
  8
0
 10
4470.0066850369794338
 20
275.6466270556638847
 30
0.0
 40
0.4280076042422286
 50
179.0856905460744883
 51
180.0552533631336019
  0
ARC
  5
242CC
  8
0
 10
4469.6935753314819522
 20
275.6361912624018942
 30
0.0
 40
0.0273504517957577
 50
259.9407020867104734
 51
298.4723938403142256
  0
ARC
  5
242CD
  8
0
 10
4469.6956382168618802
 20
275.6297190899214797
 30
0.0
 40
0.0207167539316041
 50
301.9929324477698742
 51
338.4195897466062206
  0
ARC
  5
242CE
  8
0
 10
4469.6985435482602043
 20
275.6287944742380205
 30
0.0
 40
0.0176762330514009
 50
337.7427759820484994
 51
358.0358690578291885
  0
ARC
  5
242CF
  8
0
 10
4469.7632204640958662
 20
276.3166724943590111
 30
0.0
 40
0.671004540407271
 50
255.4594739703069877
 51
263.6282386015490147
  0
ARC
  5
242D0
  8
0
 10
4469.5989530335837117
 20
275.4152239358348879
 30
0.0
 40
0.2493148968569057
 50
73.7325693522266334
 51
85.8885313999928144
  0
ARC
  5
242D1
  8
0
 10
4469.6864128544666528
 20
275.9018192705261754
 30
0.0
 40
0.2478889536617205
 50
253.6974738121485018
 51
265.9236269400399237
  0
ARC
  5
242D2
  8
0
 10
4469.4779729478987065
 20
274.759426586860684
 30
0.0
 40
0.9399928460984854
 50
73.6538717823562479
 51
85.8333354522170708
  0
ARC
  5
242D3
  8
0
 10
4469.7344790133456627
 20
275.7925500583627922
 30
0.0
 40
0.1313726138557923
 50
261.4103519384598258
 51
273.5108367676156718
  0
ARC
  5
242D4
  8
0
 10
4469.6028991900348046
 20
275.820569968526911
 30
0.0
 40
0.1359866946675295
 50
245.3908916217089029
 51
259.7205647522819731
  0
ARC
  5
242D5
  8
0
 10
4469.6009835824143011
 20
275.6895224779482874
 30
0.0
 40
0.0232136976992393
 50
215.4450599312548036
 51
254.4357067250278988
  0
ARC
  5
242D6
  8
0
 10
4469.6024226121144238
 20
275.6885039960650943
 30
0.0
 40
0.0238535228490553
 50
184.1783995120844111
 51
211.4442989307160872
  0
ARC
  5
242D7
  8
0
 10
4470.006639896742854
 20
275.6871787261995905
 30
0.0
 40
0.4280076042422286
 50
179.0856905460744883
 51
180.0552533631336019
  0
ARC
  5
242D8
  8
0
 10
4469.6935301912453724
 20
275.6767429329377137
 30
0.0
 40
0.0273504517957577
 50
259.9407020867104734
 51
298.4723938403142256
  0
ARC
  5
242D9
  8
0
 10
4469.695593076624391
 20
275.6702707604572993
 30
0.0
 40
0.0207167539316041
 50
301.9929324477698742
 51
338.4195897466062206
  0
ARC
  5
242DA
  8
0
 10
4469.6984984080236245
 20
275.6693461447737832
 30
0.0
 40
0.0176762330514009
 50
337.7427759820484994
 51
358.0358690578291885
  0
ARC
  5
242DB
  8
0
 10
4469.7631986813958065
 20
276.3757739412590126
 30
0.0
 40
0.671004540407271
 50
255.4594739703069877
 51
263.6282386015490147
  0
ARC
  5
242DC
  8
0
 10
4469.5989312508827425
 20
275.4743253827348894
 30
0.0
 40
0.2493148968569057
 50
73.7325693522266334
 51
85.8885313999928144
  0
ARC
  5
242DD
  8
0
 10
4469.6863910717665931
 20
275.9609207174261769
 30
0.0
 40
0.2478889536617205
 50
253.6974738121485018
 51
265.9236269400399237
  0
ARC
  5
242DE
  8
0
 10
4469.4779511651986468
 20
274.8185280337607992
 30
0.0
 40
0.9399928460984854
 50
73.6538717823562479
 51
85.8333354522170708
  0
ARC
  5
242DF
  8
0
 10
4469.734457230645603
 20
275.8516515052629074
 30
0.0
 40
0.1313726138557923
 50
261.4103519384598258
 51
273.5108367676156718
  0
ARC
  5
242E0
  8
0
 10
4469.6028774073347449
 20
275.8796714154269125
 30
0.0
 40
0.1359866946675295
 50
245.3908916217089029
 51
259.7205647522819731
  0
ARC
  5
242E1
  8
0
 10
4469.6009617997142414
 20
275.7486239248482889
 30
0.0
 40
0.0232136976992393
 50
215.4450599312548036
 51
254.4357067250278988
  0
ARC
  5
242E2
  8
0
 10
4469.6024008294143641
 20
275.7476054429650958
 30
0.0
 40
0.0238535228490553
 50
184.1783995120844111
 51
211.4442989307160872
  0
ARC
  5
242E3
  8
0
 10
4470.0066181140437038
 20
275.7462801730997057
 30
0.0
 40
0.4280076042422286
 50
179.0856905460744883
 51
180.0552533631336019
  0
ARC
  5
242E4
  8
0
 10
4469.6935084085453127
 20
275.7358443798377152
 30
0.0
 40
0.0273504517957577
 50
259.9407020867104734
 51
298.4723938403142256
  0
ARC
  5
242E5
  8
0
 10
4469.6955712939243313
 20
275.7293722073573008
 30
0.0
 40
0.0207167539316041
 50
301.9929324477698742
 51
338.4195897466062206
  0
ARC
  5
242E6
  8
0
 10
4469.6984766253235648
 20
275.7284475916737847
 30
0.0
 40
0.0176762330514009
 50
337.7427759820484994
 51
358.0358690578291885
  0
ARC
  5
242E7
  8
0
 10
4469.6960761181544513
 20
276.0849744383933739
 30
0.0
 40
0.2818311904351534
 50
249.1295874693082055
 51
268.5202277171292735
  0
ARC
  5
242E8
  8
0
 10
4469.6332526053647598
 20
275.7334293407977839
 30
0.0
 40
0.0858247519798996
 50
62.0720675958049597
 51
97.2545857687785258
  0
ARC
  5
242E9
  8
0
 10
4469.66308814358581
 20
275.8970084677175123
 30
0.0
 40
0.0883593619367943
 50
242.5924123710705942
 51
276.7342409935354226
  0
ARC
  5
242EA
  8
0
 10
4469.583837596441299
 20
275.5193144877229088
 30
0.0
 40
0.3380143492479673
 50
61.8797980404955013
 51
96.3150186726263513
  0
ARC
  5
242EB
  8
0
 10
4469.7185948238757192
 20
275.8669844887585896
 30
0.0
 40
0.0553054251085193
 50
263.0008511194020002
 51
296.3606034726258258
  0
ARC
  5
242EC
  8
0
 10
4469.5904867121389543
 20
275.8928581706800855
 30
0.0
 40
0.0577343915714608
 50
220.6108469749356118
 51
260.4750193477229914
  0
ARC
  5
242ED
  8
0
 10
4469.611322440209733
 20
275.8553062029598095
 30
0.0
 40
0.0371309468263713
 50
226.0466337690290004
 51
245.0714440688437037
  0
ARC
  5
242EE
  8
0
 10
4469.603638764747302
 20
275.8450726249037075
 30
0.0
 40
0.0244811943671733
 50
185.2560975737553122
 51
222.3665620650695871
  0
ARC
  5
242EF
  8
0
 10
4472.3534038047782815
 20
275.8552628199598189
 30
0.0
 40
2.7741711554692161
 50
179.9579776030045082
 51
180.2567803705036056
  0
ARC
  5
242F0
  8
0
 10
4469.6894457153293843
 20
275.8390106944343074
 30
0.0
 40
0.0357793184105535
 50
268.9628771132743736
 51
296.3125825163701847
  0
ARC
  5
242F1
  8
0
 10
4469.6950761986026919
 20
275.8266946846068208
 30
0.0
 40
0.0222473867517083
 50
297.3741943612453724
 51
328.2598914048501797
  0
ARC
  5
242F2
  8
0
 10
4469.6909884666720245
 20
275.8275470999265053
 30
0.0
 40
0.0262109891782145
 50
331.3774736165556192
 51
344.2019596110088742
  0
ARC
  5
242F3
  8
0
 10
4469.7632750329948976
 20
276.2252983363590033
 30
0.0
 40
0.671004540407271
 50
255.4594739703069877
 51
263.6282386015490147
  0
ARC
  5
242F4
  8
0
 10
4469.5990076024827431
 20
275.3238497778348801
 30
0.0
 40
0.2493148968569057
 50
73.7325693522266334
 51
85.8885313999928144
  0
ARC
  5
242F5
  8
0
 10
4469.6864674233665937
 20
275.8104451125262244
 30
0.0
 40
0.2478889536617205
 50
253.6974738121485018
 51
265.9236269400399237
  0
ARC
  5
242F6
  8
0
 10
4469.4780275167986474
 20
274.6680524288606762
 30
0.0
 40
0.9399928460984854
 50
73.6538717823562479
 51
75.9578546742547474
  0
ARC
  5
242F7
  8
0
 10
4469.4780275167986474
 20
274.6680524288606762
 30
0.0
 40
0.9399928460984854
 50
83.5737473977696794
 51
85.8333354522170708
  0
ARC
  5
242F8
  8
0
 10
4469.7345335822456036
 20
275.7011759003627844
 30
0.0
 40
0.1313726138557923
 50
263.273575815301399
 51
273.5108367676156718
  0
ARC
  5
242F9
  8
0
 10
4469.6029537589347456
 20
275.7291958105269032
 30
0.0
 40
0.1359866946675295
 50
245.3908916217089029
 51
255.2887429517288922
  0
ARC
  5
242FA
  8
0
 10
4469.601038151314242
 20
275.5981483199482795
 30
0.0
 40
0.0232136976992393
 50
215.4450599312548036
 51
254.4357067250278988
  0
ARC
  5
242FB
  8
0
 10
4469.6024771810125458
 20
275.5971298380650865
 30
0.0
 40
0.0238535228490553
 50
184.1783995120844111
 51
211.4442989307160872
  0
ARC
  5
242FC
  8
0
 10
4470.006694465642795
 20
275.5958045681996964
 30
0.0
 40
0.4280076042422286
 50
179.0856905460744883
 51
180.0552533631336019
  0
ARC
  5
242FD
  8
0
 10
4469.6935847601462228
 20
275.5853687749377059
 30
0.0
 40
0.0273504517957577
 50
259.9407020867104734
 51
298.4723938403142256
  0
ARC
  5
242FE
  8
0
 10
4469.6956476455252414
 20
275.5788966024572915
 30
0.0
 40
0.0207167539316041
 50
301.9929324477698742
 51
338.4195897466062206
  0
ARC
  5
242FF
  8
0
 10
4469.6985529769235654
 20
275.5779719867737754
 30
0.0
 40
0.0176762330514009
 50
337.7427759820484994
 51
358.0358690578291885
  0
ARC
  5
24300
  8
0
 10
4469.7008175017954272
 20
275.8254819670170264
 30
0.0
 40
0.0162056412172999
 50
341.7659372881212221
 51
1.328802997247359
  0
LINE
  5
24301
  8
0
 10
4469.7170310211567994
 20
275.8299802436570758
 30
0.0
 11
4469.7170187849569629
 21
275.8258577743528122
 31
0.0
  0
ARC
  5
24302
  8
0
 10
4468.9080816213327125
 20
276.2338469454659844
 30
0.0
 40
0.2818311904351534
 50
249.1295874693082055
 51
268.5202277171292735
  0
ARC
  5
24303
  8
0
 10
4468.8452581085439306
 20
275.8823018478702807
 30
0.0
 40
0.0858247519798996
 50
62.0720675958049597
 51
97.2545857687785258
  0
ARC
  5
24304
  8
0
 10
4468.8750936467658903
 20
276.0458809747900091
 30
0.0
 40
0.0883593619367943
 50
242.5924123710705942
 51
276.7342409935354226
  0
ARC
  5
24305
  8
0
 10
4468.7958430996195602
 20
275.6681869947954056
 30
0.0
 40
0.3380143492479673
 50
61.8797980404955013
 51
96.3150186726263513
  0
ARC
  5
24306
  8
0
 10
4468.9306003270539804
 20
276.0158569958310864
 30
0.0
 40
0.0553054251085193
 50
263.0008511194020002
 51
296.3606034726258258
  0
ARC
  5
24307
  8
0
 10
4468.8024922153181251
 20
276.0417306777525823
 30
0.0
 40
0.0577343915714608
 50
220.6108469749356118
 51
260.4750193477229914
  0
ARC
  5
24308
  8
0
 10
4468.8233279433889038
 20
276.00417871003242
 30
0.0
 40
0.0371309468263713
 50
226.0466337690290004
 51
245.0714440688437037
  0
ARC
  5
24309
  8
0
 10
4468.8156442679255633
 20
275.9939451319762043
 30
0.0
 40
0.0244811943671733
 50
185.2560975737553122
 51
222.3665620650695871
  0
ARC
  5
2430A
  8
0
 10
4471.5654093079583618
 20
276.0041353270323725
 30
0.0
 40
2.7741711554692161
 50
179.9579776030045082
 51
180.2567803705036056
  0
ARC
  5
2430B
  8
0
 10
4468.901451218506736
 20
275.9878832015069179
 30
0.0
 40
0.0357793184105535
 50
268.9628771132743736
 51
296.3125825163701847
  0
ARC
  5
2430C
  8
0
 10
4468.9070817017809532
 20
275.9755671916793176
 30
0.0
 40
0.0222473867517083
 50
297.3741943612453724
 51
328.2598914048501797
  0
ARC
  5
2430D
  8
0
 10
4468.9029939698521048
 20
275.9764196069991158
 30
0.0
 40
0.0262109891782145
 50
331.3774736165556192
 51
344.2019596110088742
  0
ARC
  5
2430E
  8
0
 10
4468.9128230049736885
 20
275.9743544740895231
 30
0.0
 40
0.0162056412172999
 50
341.7659372881212221
 51
1.328802997247359
  0
LINE
  5
2430F
  8
0
 10
4468.9290365243350607
 20
275.9788527507296862
 30
0.0
 11
4468.9290242881361337
 21
275.9747302814254226
 31
0.0
  0
ARC
  5
24310
  8
0
 10
4468.1247226476925789
 20
276.3917666178929267
 30
0.0
 40
0.2818311904351534
 50
248.0607638509630135
 51
267.4514040987770045
  0
ARC
  5
24311
  8
0
 10
4468.0553525509540123
 20
276.0414545583215045
 30
0.0
 40
0.0858247519798996
 50
61.0032439774796416
 51
96.1857621504756963
  0
ARC
  5
24312
  8
0
 10
4468.0882342065069679
 20
276.2044486896049875
 30
0.0
 40
0.0883593619367943
 50
241.5235887527450984
 51
275.6654173752058909
  0
ARC
  5
24313
  8
0
 10
4468.0019521677440935
 20
275.8282987174744108
 30
0.0
 40
0.3380143492479673
 50
60.8109744221883375
 51
95.2461950542686537
  0
ARC
  5
24314
  8
0
 10
4468.1431711796185482
 20
276.1733945456883248
 30
0.0
 40
0.0553054251085193
 50
261.9320275010838941
 51
295.2917798543015806
  0
ARC
  5
24315
  8
0
 10
4468.0155679897907248
 20
276.2016533788980723
 30
0.0
 40
0.0577343915714608
 50
219.5420233566244121
 51
259.4061957293789078
  0
ARC
  5
24316
  8
0
 10
4468.0356996204282041
 20
276.1637192874790117
 30
0.0
 40
0.0371309468263713
 50
224.9778101507245083
 51
244.0026204505317082
  0
ARC
  5
24317
  8
0
 10
4468.0278263907266592
 20
276.1536308167064817
 30
0.0
 40
0.0244811943671733
 50
184.1872739554252973
 51
221.2977384467415902
  0
ARC
  5
24318
  8
0
 10
4470.7773030810831187
 20
276.1125267458568828
 30
0.0
 40
2.7741711554692161
 50
178.8891539846781029
 51
179.1879567521760066
  0
ARC
  5
24319
  8
0
 10
4468.1135053360903839
 20
276.1459693487778964
 30
0.0
 40
0.0357793184105535
 50
267.8940534949442167
 51
295.2437588980768055
  0
ARC
  5
2431A
  8
0
 10
4468.1189051041428684
 20
276.1335504541031014
 30
0.0
 40
0.0222473867517083
 50
296.3053707429210135
 51
327.1910677865146795
  0
ARC
  5
2431B
  8
0
 10
4468.1148339838882748
 20
276.1344789712483134
 30
0.0
 40
0.0262109891782145
 50
330.3086499982302939
 51
343.1331359926796836
  0
ARC
  5
2431C
  8
0
 10
4468.1246227870879011
 20
276.1322308526354163
 30
0.0
 40
0.0162056412172999
 50
340.697113669793282
 51
0.2599793789162132
  0
LINE
  5
2431D
  8
0
 10
4468.1409173936563093
 20
276.1364259092068778
 30
0.0
 11
4468.1408282614784184
 21
276.1323043854177968
 31
0.0
  0
ARC
  5
2431E
  8
0
 10
4467.3395164272469628
 20
276.5622507636035721
 30
0.0
 40
0.2818311904351534
 50
247.4126093694511042
 51
266.8032496172619972
  0
ARC
  5
2431F
  8
0
 10
4467.2661879730967485
 20
276.2127458463069729
 30
0.0
 40
0.0858247519798996
 50
60.355089495958218
 51
95.5376076689812237
  0
ARC
  5
24320
  8
0
 10
4467.3009113450580116
 20
276.3753575849498247
 30
0.0
 40
0.0883593619367943
 50
240.8754342711995093
 51
275.0172628937305035
  0
ARC
  5
24321
  8
0
 10
4467.2103797476538602
 20
276.0002077194048979
 30
0.0
 40
0.3380143492479673
 50
60.1628199406599506
 51
94.5980405727817839
  0
ARC
  5
24322
  8
0
 10
4467.3554935127058343
 20
276.3436839706330943
 30
0.0
 40
0.0553054251085193
 50
261.283873019564794
 51
294.64362537280482
  0
ARC
  5
24323
  8
0
 10
4467.2282181567970838
 20
276.3733844670406938
 30
0.0
 40
0.0577343915714608
 50
218.8938688751123038
 51
258.7580412478851031
  0
ARC
  5
24324
  8
0
 10
4467.2479193817216583
 20
276.3352250700282866
 30
0.0
 40
0.0371309468263713
 50
224.3296556691954891
 51
243.3544659690278991
  0
ARC
  5
24325
  8
0
 10
4467.2399325331061846
 20
276.3252263082235913
 30
0.0
 40
0.0244811943671733
 50
183.5391194739127059
 51
220.6495839652187954
  0
ARC
  5
24326
  8
0
 10
4469.9887683216084042
 20
276.253022268846621
 30
0.0
 40
2.7741711554692161
 50
178.240999503167302
 51
178.5398022706631025
  0
ARC
  5
24327
  8
0
 10
4467.3255193283430344
 20
276.3165961141335174
 30
0.0
 40
0.0357793184105535
 50
267.2458990133958991
 51
294.5956044165387766
  0
ARC
  5
24328
  8
0
 10
4467.3307782660158409
 20
276.3041169308859253
 30
0.0
 40
0.0222473867517083
 50
295.6572162613963997
 51
326.5429133050081987
  0
ARC
  5
24329
  8
0
 10
4467.3267179098138513
 20
276.3050914418994921
 30
0.0
 40
0.0262109891782145
 50
329.660495516717674
 51
342.4849815111658131
  0
ARC
  5
2432A
  8
0
 10
4467.3364806555364339
 20
276.3027327343453976
 30
0.0
 40
0.0162056412172999
 50
340.0489591882771947
 51
359.6118248974058247
  0
LINE
  5
2432B
  8
0
 10
4467.3528216747681654
 20
276.306743194835974
 30
0.0
 11
4467.3526859248386245
 21
276.3026229430419107
 31
0.0
  0
ARC
  5
2432C
  8
0
 10
4468.9846283998786021
 20
276.5228032390897965
 30
0.0
 40
0.6710045404072709
 50
254.6215707876642114
 51
262.7903354189218135
  0
ARC
  5
2432D
  8
0
 10
4468.8071960682027566
 20
275.6238532626904885
 30
0.0
 40
0.2493148968569057
 50
72.894666169599148
 51
85.0506282173900843
  0
ARC
  5
2432E
  8
0
 10
4468.9017623358331548
 20
276.1091175834878868
 30
0.0
 40
0.2478889536617205
 50
252.8595706295729997
 51
265.085723757449216
  0
ARC
  5
2432F
  8
0
 10
4468.6766387694260629
 20
274.9698952091508772
 30
0.0
 40
0.9399928460984854
 50
72.8159685997567294
 51
84.9954322695862459
  0
ARC
  5
24330
  8
0
 10
4468.9482254404301784
 20
275.999157153026772
 30
0.0
 40
0.1313726138557923
 50
260.5724487558417763
 51
272.6729335849844915
  0
ARC
  5
24331
  8
0
 10
4468.8170694404207097
 20
276.0290982440178027
 30
0.0
 40
0.1359866946675294
 50
244.5529884391125961
 51
258.8826615696852969
  0
ARC
  5
24332
  8
0
 10
4468.8132376452549579
 20
275.8980927796840206
 30
0.0
 40
0.0232136976992393
 50
214.6071567486561946
 51
253.5978035424516861
  0
ARC
  5
24333
  8
0
 10
4468.8146616271551466
 20
275.8970533628445878
 30
0.0
 40
0.0238535228490553
 50
183.3404963294690901
 51
210.6063957480959914
  0
ARC
  5
24334
  8
0
 10
4469.218816308042733
 20
275.8898171033712856
 30
0.0
 40
0.4280076042422285
 50
178.2477873634576042
 51
179.2173501805177125
  0
ARC
  5
24335
  8
0
 10
4468.9055874743917229
 20
275.8839612321672234
 30
0.0
 40
0.0273504517957577
 50
259.1027989040798047
 51
297.6344906577297138
  0
ARC
  5
24336
  8
0
 10
4468.9075554924120297
 20
275.8774595848544777
 30
0.0
 40
0.0207167539316041
 50
301.1550292651504037
 51
337.5816865639911271
  0
ARC
  5
24337
  8
0
 10
4468.9104469918866016
 20
275.8764925814974163
 30
0.0
 40
0.0176762330514009
 50
336.9048727994320984
 51
357.1979658752152886
  0
ARC
  5
24338
  8
0
 10
4468.9846578697779478
 20
276.4622105358898239
 30
0.0
 40
0.6710045404072709
 50
254.6215707876642114
 51
262.7903354189218135
  0
ARC
  5
24339
  8
0
 10
4468.8072255381021023
 20
275.5632605594905726
 30
0.0
 40
0.2493148968569057
 50
72.894666169599148
 51
85.0506282173900843
  0
ARC
  5
2433A
  8
0
 10
4468.90179180573341
 20
276.0485248802879141
 30
0.0
 40
0.2478889536617205
 50
252.8595706295729997
 51
265.085723757449216
  0
ARC
  5
2433B
  8
0
 10
4468.6766682393254086
 20
274.9093025059509046
 30
0.0
 40
0.9399928460984854
 50
72.8159685997567294
 51
84.9954322695862459
  0
ARC
  5
2433C
  8
0
 10
4468.9482549103322526
 20
275.9385644498267993
 30
0.0
 40
0.1313726138557923
 50
260.5724487558417763
 51
272.6729335849844915
  0
ARC
  5
2433D
  8
0
 10
4468.8170989103209649
 20
275.9685055408177732
 30
0.0
 40
0.1359866946675294
 50
244.5529884391125961
 51
258.8826615696852969
  0
ARC
  5
2433E
  8
0
 10
4468.8132671151543036
 20
275.8375000764841047
 30
0.0
 40
0.0232136976992393
 50
214.6071567486561946
 51
253.5978035424516861
  0
ARC
  5
2433F
  8
0
 10
4468.8146910970563113
 20
275.8364606596445014
 30
0.0
 40
0.0238535228490553
 50
183.3404963294690901
 51
210.6063957480959914
  0
ARC
  5
24340
  8
0
 10
4469.2188457779420787
 20
275.8292244001713129
 30
0.0
 40
0.4280076042422285
 50
178.2477873634576042
 51
179.2173501805177125
  0
ARC
  5
24341
  8
0
 10
4468.9056169442919781
 20
275.8233685289671939
 30
0.0
 40
0.0273504517957577
 50
259.1027989040798047
 51
297.6344906577297138
  0
ARC
  5
24342
  8
0
 10
4468.9075849623122849
 20
275.8168668816545051
 30
0.0
 40
0.0207167539316041
 50
301.1550292651504037
 51
337.5816865639911271
  0
ARC
  5
24343
  8
0
 10
4468.9104764617850378
 20
275.8158998782973867
 30
0.0
 40
0.0176762330514009
 50
336.9048727994320984
 51
357.1979658752152886
  0
ARC
  5
24344
  8
0
 10
4468.9846924444791512
 20
276.4201138675898051
 30
0.0
 40
0.6710045404072709
 50
254.6215707876642114
 51
262.7903354189218135
  0
ARC
  5
24345
  8
0
 10
4468.8072601128033057
 20
275.5211638911906107
 30
0.0
 40
0.2493148968569057
 50
72.894666169599148
 51
85.0506282173900843
  0
ARC
  5
24346
  8
0
 10
4468.9018263804327944
 20
276.006428211988009
 30
0.0
 40
0.2478889536617205
 50
252.8595706295729997
 51
265.085723757449216
  0
ARC
  5
24347
  8
0
 10
4468.676702814024793
 20
274.8672058376508858
 30
0.0
 40
0.9399928460984854
 50
72.8159685997567294
 51
84.9954322695862459
  0
ARC
  5
24348
  8
0
 10
4468.9482894850307275
 20
275.8964677815267805
 30
0.0
 40
0.1313726138557923
 50
260.5724487558417763
 51
272.6729335849844915
  0
ARC
  5
24349
  8
0
 10
4468.8171334850203493
 20
275.9264088725178112
 30
0.0
 40
0.1359866946675294
 50
244.5529884391125961
 51
258.8826615696852969
  0
ARC
  5
2434A
  8
0
 10
4468.8133016898545975
 20
275.7954034081839723
 30
0.0
 40
0.0232136976992393
 50
214.6071567486561946
 51
253.5978035424516861
  0
ARC
  5
2434B
  8
0
 10
4468.8147256717547862
 20
275.7943639913444827
 30
0.0
 40
0.0238535228490553
 50
183.3404963294690901
 51
210.6063957480959914
  0
ARC
  5
2434C
  8
0
 10
4469.2188803526423726
 20
275.7871277318712941
 30
0.0
 40
0.4280076042422285
 50
178.2477873634576042
 51
179.2173501805177125
  0
ARC
  5
2434D
  8
0
 10
4468.905651518992272
 20
275.7812718606671751
 30
0.0
 40
0.0273504517957577
 50
259.1027989040798047
 51
297.6344906577297138
  0
ARC
  5
2434E
  8
0
 10
4468.9076195370116693
 20
275.7747702133545999
 30
0.0
 40
0.0207167539316041
 50
301.1550292651504037
 51
337.5816865639911271
  0
ARC
  5
2434F
  8
0
 10
4468.9105110364862412
 20
275.7738032099974248
 30
0.0
 40
0.0176762330514009
 50
336.9048727994320984
 51
357.1979658752152886
  0
ARC
  5
24350
  8
0
 10
4468.9847100335791765
 20
276.3874927014898049
 30
0.0
 40
0.6710045404072709
 50
254.6215707876642114
 51
262.7903354189218135
  0
ARC
  5
24351
  8
0
 10
4468.8072777019042405
 20
275.4885427250906105
 30
0.0
 40
0.2493148968569057
 50
72.894666169599148
 51
85.0506282173900843
  0
ARC
  5
24352
  8
0
 10
4468.9018439695328198
 20
275.9738070458880088
 30
0.0
 40
0.2478889536617205
 50
252.8595706295729997
 51
265.085723757449216
  0
ARC
  5
24353
  8
0
 10
4468.6767204031248184
 20
274.8345846715508856
 30
0.0
 40
0.9399928460984854
 50
72.8159685997567294
 51
84.9954322695862459
  0
ARC
  5
24354
  8
0
 10
4468.9483070741307529
 20
275.8638466154267803
 30
0.0
 40
0.1313726138557923
 50
260.5724487558417763
 51
272.6729335849844915
  0
ARC
  5
24355
  8
0
 10
4468.8171510741212842
 20
275.893787706417811
 30
0.0
 40
0.1359866946675294
 50
244.5529884391125961
 51
258.8826615696852969
  0
ARC
  5
24356
  8
0
 10
4468.8133192789546229
 20
275.7627822420839721
 30
0.0
 40
0.0232136976992393
 50
214.6071567486561946
 51
253.5978035424516861
  0
ARC
  5
24357
  8
0
 10
4468.814743260855721
 20
275.7617428252444824
 30
0.0
 40
0.0238535228490553
 50
183.3404963294690901
 51
210.6063957480959914
  0
ARC
  5
24358
  8
0
 10
4469.218897941742398
 20
275.7545065657712939
 30
0.0
 40
0.4280076042422285
 50
178.2477873634576042
 51
179.2173501805177125
  0
ARC
  5
24359
  8
0
 10
4468.9056691080913879
 20
275.7486506945671749
 30
0.0
 40
0.0273504517957577
 50
259.1027989040798047
 51
297.6344906577297138
  0
ARC
  5
2435A
  8
0
 10
4468.9076371261107852
 20
275.7421490472545997
 30
0.0
 40
0.0207167539316041
 50
301.1550292651504037
 51
337.5816865639911271
  0
ARC
  5
2435B
  8
0
 10
4468.9105286255871761
 20
275.7411820438974246
 30
0.0
 40
0.0176762330514009
 50
336.9048727994320984
 51
357.1979658752152886
  0
ARC
  5
2435C
  8
0
 10
4468.9849984916745598
 20
276.3681531917376901
 30
0.0
 40
0.6710045404072709
 50
254.6215707876642114
 51
262.7903354189218135
  0
ARC
  5
2435D
  8
0
 10
4468.8075661599987143
 20
275.4692032153383821
 30
0.0
 40
0.2493148968569057
 50
72.894666169599148
 51
85.0506282173900843
  0
ARC
  5
2435E
  8
0
 10
4468.902132427630022
 20
275.9544675361357804
 30
0.0
 40
0.2478889536617205
 50
252.8595706295729997
 51
265.085723757449216
  0
ARC
  5
2435F
  8
0
 10
4468.6770088612220206
 20
274.8152451617988277
 30
0.0
 40
0.9399928460984854
 50
82.7487373882286761
 51
84.9954322695862459
  0
ARC
  5
24360
  8
0
 10
4468.9485955322279551
 20
275.8445071056747224
 30
0.0
 40
0.1313726138557923
 50
264.873779116074104
 51
272.6729335849844915
  0
ARC
  5
24361
  8
0
 10
4468.810638542497145
 20
275.857499947128872
 30
0.0
 40
0.1177660177214446
 50
243.997818665632991
 51
260.5107765768814261
  0
ARC
  5
24362
  8
0
 10
4468.8136077370518251
 20
275.7434427323319142
 30
0.0
 40
0.0232136976992393
 50
214.6071567486561946
 51
253.5978035424516861
  0
ARC
  5
24363
  8
0
 10
4468.8150317189529233
 20
275.7424033154924246
 30
0.0
 40
0.0238535228490553
 50
183.3404963294690901
 51
210.6063957480959914
  0
ARC
  5
24364
  8
0
 10
4469.2191863998386907
 20
275.7351670560191792
 30
0.0
 40
0.4280076042422285
 50
178.2477873634576042
 51
179.2173501805177125
  0
ARC
  5
24365
  8
0
 10
4468.9059575661876806
 20
275.729311184815117
 30
0.0
 40
0.0273504517957577
 50
259.1027989040798047
 51
297.6344906577297138
  0
ARC
  5
24366
  8
0
 10
4468.9079255842088969
 20
275.7228095375024282
 30
0.0
 40
0.0207167539316041
 50
301.1550292651504037
 51
337.5816865639911271
  0
ARC
  5
24367
  8
0
 10
4468.9108170836843783
 20
275.7218425341453099
 30
0.0
 40
0.0176762330514009
 50
336.9048727994320984
 51
355.8266799057217895
  0
ARC
  5
24368
  8
0
 10
4468.871258332819707
 20
275.4630468123568789
 30
0.0
 40
0.2637831468905576
 50
71.5540265905995625
 51
80.3585527707678864
  0
ARC
  5
24369
  8
0
 10
4468.2083270421599082
 20
276.6855151342676891
 30
0.0
 40
0.6777145858113436
 50
253.7828305054538873
 51
261.951595136703304
  0
ARC
  5
2436A
  8
0
 10
4468.0158489371769974
 20
275.7802962123089969
 30
0.0
 40
0.2518080458254748
 50
72.0559258873887529
 51
84.2118879351715464
  0
ARC
  5
2436B
  8
0
 10
4468.1185250917733356
 20
276.2689625345723812
 30
0.0
 40
0.2503678431983377
 50
252.0208303473303033
 51
264.2469834752221232
  0
ARC
  5
2436C
  8
0
 10
4467.8743316599684476
 20
275.1217995898272761
 30
0.0
 40
0.9493927745594701
 50
71.9772283175145731
 51
84.1566919873700385
  0
ARC
  5
2436D
  8
0
 10
4468.1638220740487668
 20
276.1572274590969869
 30
0.0
 40
0.1326863399943502
 50
259.7337084735946746
 51
271.8341933027509185
  0
ARC
  5
2436E
  8
0
 10
4468.0318113755065497
 20
276.1894038150222173
 30
0.0
 40
0.1373465616142047
 50
243.714248156861288
 51
258.0439212874704253
  0
ARC
  5
2436F
  8
0
 10
4468.0260048085237941
 20
276.0571591247029914
 30
0.0
 40
0.0234458346762317
 50
213.768416466413413
 51
252.7590632601771006
  0
ARC
  5
24370
  8
0
 10
4468.0274275087431306
 20
276.0560883731184845
 30
0.0
 40
0.0240920580775459
 50
182.5017560472377909
 51
209.767655465853295
  0
ARC
  5
24371
  8
0
 10
4468.435473014760646
 20
276.0428052529817933
 30
0.0
 40
0.4322876802846508
 50
177.4090470812265892
 51
178.3786098982868964
  0
ARC
  5
24372
  8
0
 10
4468.1190592123475653
 20
276.0415224320702805
 30
0.0
 40
0.0276239563137153
 50
258.2640586218394105
 51
296.7957503754734034
  0
ARC
  5
24373
  8
0
 10
4468.1209505730666933
 20
276.0349273754333126
 30
0.0
 40
0.0209239214709201
 50
300.3162889829113738
 51
336.7429462817776198
  0
ARC
  5
24374
  8
0
 10
4468.1238563778324533
 20
276.0339080569116845
 30
0.0
 40
0.0178529953819149
 50
336.0661325172004013
 51
356.3592255929830799
  0
ARC
  5
24375
  8
0
 10
4468.208361077848167
 20
276.6231423088789825
 30
0.0
 40
0.6777145858113436
 50
253.7828305054538873
 51
261.951595136703304
  0
ARC
  5
24376
  8
0
 10
4468.0158829728661658
 20
275.7179233869205177
 30
0.0
 40
0.2518080458254748
 50
72.0559258873887529
 51
84.2118879351715464
  0
ARC
  5
24377
  8
0
 10
4468.1185591274597755
 20
276.2065897091837883
 30
0.0
 40
0.2503678431983377
 50
252.0208303473303033
 51
264.2469834752221232
  0
ARC
  5
24378
  8
0
 10
4467.874365695655797
 20
275.0594267644386832
 30
0.0
 40
0.9493927745594701
 50
71.9772283175145731
 51
84.1566919873700385
  0
ARC
  5
24379
  8
0
 10
4468.1638561097379352
 20
276.094854633708394
 30
0.0
 40
0.1326863399943502
 50
259.7337084735946746
 51
271.8341933027509185
  0
ARC
  5
2437A
  8
0
 10
4468.031845411195718
 20
276.1270309896336244
 30
0.0
 40
0.1373465616142047
 50
243.714248156861288
 51
258.0439212874704253
  0
ARC
  5
2437B
  8
0
 10
4468.0260388442129624
 20
275.9947862993143985
 30
0.0
 40
0.0234458346762317
 50
213.768416466413413
 51
252.7590632601771006
  0
ARC
  5
2437C
  8
0
 10
4468.0274615444313895
 20
275.9937155477298916
 30
0.0
 40
0.0240920580775459
 50
182.5017560472377909
 51
209.767655465853295
  0
ARC
  5
2437D
  8
0
 10
4468.4355070504489049
 20
275.9804324275933141
 30
0.0
 40
0.4322876802846508
 50
177.4090470812265892
 51
178.3786098982868964
  0
ARC
  5
2437E
  8
0
 10
4468.1190932480367337
 20
275.9791496066816876
 30
0.0
 40
0.0276239563137153
 50
258.2640586218394105
 51
296.7957503754734034
  0
ARC
  5
2437F
  8
0
 10
4468.1209846087549522
 20
275.9725545500447197
 30
0.0
 40
0.0209239214709201
 50
300.3162889829113738
 51
336.7429462817776198
  0
ARC
  5
24380
  8
0
 10
4468.1238904135198027
 20
275.9715352315232053
 30
0.0
 40
0.0178529953819149
 50
336.0661325172004013
 51
356.3592255929830799
  0
ARC
  5
24381
  8
0
 10
4468.208396393849398
 20
276.579445740279084
 30
0.0
 40
0.6777145858113436
 50
253.7828305054538873
 51
261.951595136703304
  0
ARC
  5
24382
  8
0
 10
4468.0159182888655778
 20
275.6742268183205056
 30
0.0
 40
0.2518080458254748
 50
72.0559258873887529
 51
84.2118879351715464
  0
ARC
  5
24383
  8
0
 10
4468.1185944434610064
 20
276.1628931405837761
 30
0.0
 40
0.2503678431983377
 50
252.0208303473303033
 51
264.2469834752221232
  0
ARC
  5
24384
  8
0
 10
4467.8744010116561185
 20
275.0157301958387279
 30
0.0
 40
0.9493927745594701
 50
71.9772283175145731
 51
84.1566919873700385
  0
ARC
  5
24385
  8
0
 10
4468.1638914257382567
 20
276.0511580651083818
 30
0.0
 40
0.1326863399943502
 50
259.7337084735946746
 51
271.8341933027509185
  0
ARC
  5
24386
  8
0
 10
4468.03188072719513
 20
276.0833344210336122
 30
0.0
 40
0.1373465616142047
 50
243.714248156861288
 51
258.0439212874704253
  0
ARC
  5
24387
  8
0
 10
4468.0260741602132839
 20
275.9510897307143864
 30
0.0
 40
0.0234458346762317
 50
213.768416466413413
 51
252.7590632601771006
  0
ARC
  5
24388
  8
0
 10
4468.027496860431711
 20
275.9500189791298794
 30
0.0
 40
0.0240920580775459
 50
182.5017560472377909
 51
209.767655465853295
  0
ARC
  5
24389
  8
0
 10
4468.4355423664492264
 20
275.9367358589931882
 30
0.0
 40
0.4322876802846508
 50
177.4090470812265892
 51
178.3786098982868964
  0
ARC
  5
2438A
  8
0
 10
4468.1191285640370552
 20
275.9354530380816755
 30
0.0
 40
0.0276239563137153
 50
258.2640586218394105
 51
296.7957503754734034
  0
ARC
  5
2438B
  8
0
 10
4468.1210199247552737
 20
275.9288579814447075
 30
0.0
 40
0.0209239214709201
 50
300.3162889829113738
 51
336.7429462817776198
  0
ARC
  5
2438C
  8
0
 10
4468.1239257295201242
 20
275.9278386629230795
 30
0.0
 40
0.0178529953819149
 50
336.0661325172004013
 51
356.3592255929830799
  0
ARC
  5
2438D
  8
0
 10
4468.2083270421599082
 20
276.5459948719974932
 30
0.0
 40
0.6777145858113436
 50
253.7828305054538873
 51
261.951595136703304
  0
ARC
  5
2438E
  8
0
 10
4467.995361242985382
 20
275.5016734811690071
 30
0.0
 40
0.3928514461195455
 50
74.7259511582865485
 51
82.3638727072266761
  0
ARC
  5
2438F
  8
0
 10
4468.1510213161845968
 20
276.2698488272044983
 30
0.0
 40
0.3926814670422507
 50
254.7242955999224137
 51
262.3655282655640804
  0
ARC
  5
24390
  8
0
 10
4467.8743316599684476
 20
274.9822793275570803
 30
0.0
 40
0.9493927745594701
 50
71.9772283175145731
 51
84.1566919873700385
  0
ARC
  5
24391
  8
0
 10
4468.1638220740487668
 20
276.0177071968269047
 30
0.0
 40
0.1326863399943502
 50
259.7337084735946746
 51
271.8341933027509185
  0
ARC
  5
24392
  8
0
 10
4468.0318113755065497
 20
276.0498835527520782
 30
0.0
 40
0.1373465616142047
 50
243.714248156861288
 51
258.0439212874704253
  0
ARC
  5
24393
  8
0
 10
4468.0260048085237941
 20
275.9176388624329093
 30
0.0
 40
0.0234458346762317
 50
213.768416466413413
 51
252.7590632601771006
  0
ARC
  5
24394
  8
0
 10
4468.0274275087431306
 20
275.9165681108484023
 30
0.0
 40
0.0240920580775459
 50
182.5017560472377909
 51
209.767655465853295
  0
ARC
  5
24395
  8
0
 10
4468.435473014760646
 20
275.9032849907117111
 30
0.0
 40
0.4322876802846508
 50
177.4090470812265892
 51
178.3786098982868964
  0
ARC
  5
24396
  8
0
 10
4468.1190592123475653
 20
275.9020021698001983
 30
0.0
 40
0.0276239563137153
 50
258.2640586218394105
 51
296.7957503754734034
  0
ARC
  5
24397
  8
0
 10
4468.1209505730666933
 20
275.8954071131631736
 30
0.0
 40
0.0209239214709201
 50
300.3162889829113738
 51
336.7429462817776198
  0
ARC
  5
24398
  8
0
 10
4468.1238563778324533
 20
275.8943877946416023
 30
0.0
 40
0.0178529953819149
 50
336.0661325172004013
 51
356.3592255929830799
  0
ARC
  5
24399
  8
0
 10
4468.4276605892400767
 20
277.6421655776891271
 30
0.0
 40
1.8118646060063439
 50
257.0049788652127063
 51
260.1806732540101166
  0
ARC
  5
2439A
  8
0
 10
4467.8496637719381397
 20
274.8025792876712785
 30
0.0
 40
1.1109720162199781
 50
73.3518921107051085
 51
75.3134580422112521
  0
ARC
  5
2439B
  8
0
 10
4467.8496637719381397
 20
274.8025792876712785
 30
0.0
 40
1.1109720162199781
 50
81.7853627585199661
 51
83.7135175264037059
  0
ARC
  5
2439C
  8
0
 10
4468.2351871914879666
 20
276.3508658103305038
 30
0.0
 40
0.4885329920598993
 50
258.9740159065751186
 51
262.089152254398698
  0
ARC
  5
2439D
  8
0
 10
4468.1105825550166628
 20
276.4196574613129087
 30
0.0
 40
0.531362011468317
 50
254.8055653434360011
 51
258.4765157222927883
  0
ARC
  5
2439E
  8
0
 10
4468.0242355174641489
 20
275.8961361888125907
 30
0.0
 40
0.0198405409988386
 50
213.2413054994273978
 51
258.362044302963227
  0
ARC
  5
2439F
  8
0
 10
4468.0240882042053272
 20
275.8960235788119917
 30
0.0
 40
0.0196556082829894
 50
179.9965827516882939
 51
213.2021532268153123
  0
ARC
  5
243A0
  8
0
 10
4468.122544528951039
 20
275.8760421138155721
 30
0.0
 40
0.0195868009999935
 50
258.5663797652272251
 51
298.4875849368243053
  0
ARC
  5
243A1
  8
0
 10
4468.1225618075613966
 20
275.8761393371464123
 30
0.0
 40
0.0196641075836713
 50
298.3082187945548185
 51
333.4507212233600058
  0
ARC
  5
243A2
  8
0
 10
4468.1297524518304272
 20
275.873905083515524
 30
0.0
 40
0.0122932984868548
 50
327.7771200690331739
 51
2.2584337035338828
  0
LINE
  5
243A3
  8
0
 10
4468.004432595956132
 20
275.8960247708500901
 30
0.0
 11
4468.004432595956132
 21
275.9027181116092038
 31
0.0
  0
LINE
  5
243A4
  8
0
 10
4468.0190982533049464
 20
275.8720649812959778
 30
0.0
 11
4468.1186708591567367
 21
275.8522248413163993
 31
0.0
  0
ARC
  5
243A5
  8
0
 10
4468.1225351473021874
 20
275.871535318554379
 30
0.0
 40
0.0196933301914808
 50
258.6838119743371749
 51
348.6779668762999904
  0
ARC
  5
243A6
  8
0
 10
4468.0247641584273879
 20
275.8915925121336272
 30
0.0
 40
0.0203329029278158
 50
180.7397350365826867
 51
253.8199351662402137
  0
LINE
  5
243A7
  8
0
 10
4468.0044329501106404
 20
275.8913300051398778
 30
0.0
 11
4468.0044325959206617
 21
275.8960235788119917
 31
0.0
  0
ARC
  5
243A8
  8
0
 10
4467.3395164272469628
 20
276.4634986447371716
 30
0.0
 40
0.2818311904351534
 50
247.4126093694511042
 51
266.8032496172619972
  0
ARC
  5
243A9
  8
0
 10
4467.2661879730967485
 20
276.1139937274406861
 30
0.0
 40
0.0858247519798996
 50
60.355089495958218
 51
95.5376076689812237
  0
ARC
  5
243AA
  8
0
 10
4467.3009113450580116
 20
276.2766054660834811
 30
0.0
 40
0.0883593619367943
 50
240.8754342711995093
 51
275.0172628937305035
  0
ARC
  5
243AB
  8
0
 10
4467.2103797476538602
 20
275.9014556005386112
 30
0.0
 40
0.3380143492479673
 50
60.1628199406599506
 51
94.5980405727817839
  0
ARC
  5
243AC
  8
0
 10
4467.3554935127058343
 20
276.2449318517668075
 30
0.0
 40
0.0553054251085193
 50
261.283873019564794
 51
294.64362537280482
  0
ARC
  5
243AD
  8
0
 10
4467.2282181567970838
 20
276.2746323481742934
 30
0.0
 40
0.0577343915714608
 50
218.8938688751123038
 51
258.7580412478851031
  0
ARC
  5
243AE
  8
0
 10
4467.2479193817216583
 20
276.2364729511621135
 30
0.0
 40
0.0371309468263713
 50
224.3296556691954891
 51
243.3544659690278991
  0
ARC
  5
243AF
  8
0
 10
4467.2399325331061846
 20
276.2264741893573046
 30
0.0
 40
0.0244811943671733
 50
183.5391194739127059
 51
220.6495839652187954
  0
ARC
  5
243B0
  8
0
 10
4469.9887683216084042
 20
276.1542701499802774
 30
0.0
 40
2.7741711554692161
 50
178.240999503167302
 51
178.5398022706631025
  0
ARC
  5
243B1
  8
0
 10
4467.3255193283430344
 20
276.2178439952671738
 30
0.0
 40
0.0357793184105535
 50
267.2458990133958991
 51
294.5956044165387766
  0
ARC
  5
243B2
  8
0
 10
4467.3307782660158409
 20
276.2053648120195817
 30
0.0
 40
0.0222473867517083
 50
295.6572162613963997
 51
326.5429133050081987
  0
ARC
  5
243B3
  8
0
 10
4467.3267179098138513
 20
276.206339323033319
 30
0.0
 40
0.0262109891782145
 50
329.660495516717674
 51
342.4849815111658131
  0
ARC
  5
243B4
  8
0
 10
4467.3364806555364339
 20
276.2039806154791108
 30
0.0
 40
0.0162056412172999
 50
340.0489591882771947
 51
359.6118248974058247
  0
LINE
  5
243B5
  8
0
 10
4467.3528216747681654
 20
276.2079910759696872
 30
0.0
 11
4467.3526859248386245
 21
276.203870824175624
 31
0.0
  0
ARC
  5
243B6
  8
0
 10
4467.4324056323857803
 20
276.7893725264391946
 30
0.0
 40
0.6777145858113435
 50
252.8826967431839137
 51
261.0514613744197163
  0
ARC
  5
243B7
  8
0
 10
4467.2257306061083
 20
275.8872890762626184
 30
0.0
 40
0.2518080458254748
 50
71.1557921250814616
 51
83.3117541729086071
  0
ARC
  5
243B8
  8
0
 10
4467.3360708677146249
 20
276.3742820884356775
 30
0.0
 40
0.2503678431983376
 50
251.1206965850300037
 51
263.3468497129210846
  0
ARC
  5
243B9
  8
0
 10
4467.0738860401952479
 20
275.2310969021464757
 30
0.0
 40
0.9493927745594701
 50
71.0770945552292233
 51
83.2565582250814202
  0
ARC
  5
243BA
  8
0
 10
4467.3796069410464042
 20
276.2618492017260792
 30
0.0
 40
0.1326863399943502
 50
258.8335747113089838
 51
270.934059540488704
  0
ARC
  5
243BB
  8
0
 10
4467.2481180125187166
 20
276.2960954290377913
 30
0.0
 40
0.1373465616142047
 50
242.8141143945794056
 51
257.1437875252076992
  0
ARC
  5
243BC
  8
0
 10
4467.240234644076736
 20
276.1639582774121209
 30
0.0
 40
0.0234458346762317
 50
212.8682827041317864
 51
251.8589294979377087
  0
ARC
  5
243BD
  8
0
 10
4467.2416403475954212
 20
276.1628653078378761
 30
0.0
 40
0.0240920580775459
 50
181.601622284961195
 51
208.8675217035973048
  0
ARC
  5
243BE
  8
0
 10
4467.6494268258966258
 20
276.1431735741509783
 30
0.0
 40
0.4322876802846507
 50
176.5089133189545976
 51
177.478476136012489
  0
ARC
  5
243BF
  8
0
 10
4467.3330319176038756
 20
276.1468616621472734
 30
0.0
 40
0.0276239563137153
 50
257.3639248595541176
 51
295.8956166132252861
  0
ARC
  5
243C0
  8
0
 10
4467.3348194388790944
 20
276.1402377067499856
 30
0.0
 40
0.0209239214709201
 50
299.4161552206512056
 51
335.8428125194884046
  0
ARC
  5
243C1
  8
0
 10
4467.3377088719171297
 20
276.1391728648359845
 30
0.0
 40
0.0178529953819149
 50
335.1659987549380162
 51
355.4590918307097809
  0
ARC
  5
243C2
  8
0
 10
4467.4303789950272403
 20
276.7440655386221806
 30
0.0
 40
0.6777145858113435
 50
252.8826967431839137
 51
261.0514613744197163
  0
ARC
  5
243C3
  8
0
 10
4467.2237039687488505
 20
275.8419820884454907
 30
0.0
 40
0.2518080458254748
 50
71.1557921250814616
 51
83.3117541729086071
  0
ARC
  5
243C4
  8
0
 10
4467.3340442303560849
 20
276.3289751006187203
 30
0.0
 40
0.2503678431983376
 50
251.1206965850300037
 51
263.3468497129210846
  0
ARC
  5
243C5
  8
0
 10
4467.0718594028339794
 20
275.1857899143295185
 30
0.0
 40
0.9493927745594701
 50
71.0770945552292233
 51
83.2565582250814202
  0
ARC
  5
243C6
  8
0
 10
4467.3775803036851357
 20
276.216542213909122
 30
0.0
 40
0.1326863399943502
 50
258.8335747113089838
 51
270.934059540488704
  0
ARC
  5
243C7
  8
0
 10
4467.246091375159267
 20
276.2507884412207773
 30
0.0
 40
0.1373465616142047
 50
242.8141143945794056
 51
257.1437875252076992
  0
ARC
  5
243C8
  8
0
 10
4467.238208006718196
 20
276.1186512895949932
 30
0.0
 40
0.0234458346762317
 50
212.8682827041317864
 51
251.8589294979377087
  0
ARC
  5
243C9
  8
0
 10
4467.2396137102359717
 20
276.1175583200209189
 30
0.0
 40
0.0240920580775459
 50
181.601622284961195
 51
208.8675217035973048
  0
ARC
  5
243CA
  8
0
 10
4467.6474001885371763
 20
276.0978665863340211
 30
0.0
 40
0.4322876802846507
 50
176.5089133189545976
 51
177.478476136012489
  0
ARC
  5
243CB
  8
0
 10
4467.3310052802462451
 20
276.1015546743303162
 30
0.0
 40
0.0276239563137153
 50
257.3639248595541176
 51
295.8956166132252861
  0
ARC
  5
243CC
  8
0
 10
4467.3327928015196449
 20
276.0949307189330284
 30
0.0
 40
0.0209239214709201
 50
299.4161552206512056
 51
335.8428125194884046
  0
ARC
  5
243CD
  8
0
 10
4467.3356822345576802
 20
276.0938658770190273
 30
0.0
 40
0.0178529953819149
 50
335.1659987549380162
 51
355.4590918307097809
  0
ARC
  5
243CE
  8
0
 10
4467.4303933622140903
 20
276.7098308101894872
 30
0.0
 40
0.6777145858113435
 50
252.8826967431839137
 51
261.0514613744197163
  0
ARC
  5
243CF
  8
0
 10
4467.2237183359384289
 20
275.807747360012911
 30
0.0
 40
0.2518080458254748
 50
71.1557921250814616
 51
83.3117541729086071
  0
ARC
  5
243D0
  8
0
 10
4467.3340585975420254
 20
276.2947403721859132
 30
0.0
 40
0.2503678431983376
 50
251.1206965850300037
 51
263.3468497129210846
  0
ARC
  5
243D1
  8
0
 10
4467.0718737700226484
 20
275.1515551858968252
 30
0.0
 40
0.9493927745594701
 50
71.0770945552292233
 51
83.2565582250814202
  0
ARC
  5
243D2
  8
0
 10
4467.3775946708728952
 20
276.1823074854763718
 30
0.0
 40
0.1326863399943502
 50
258.8335747113089838
 51
270.934059540488704
  0
ARC
  5
243D3
  8
0
 10
4467.246105742346117
 20
276.2165537127880839
 30
0.0
 40
0.1373465616142047
 50
242.8141143945794056
 51
257.1437875252076992
  0
ARC
  5
243D4
  8
0
 10
4467.2382223739059555
 20
276.0844165611624135
 30
0.0
 40
0.0234458346762317
 50
212.8682827041317864
 51
251.8589294979377087
  0
ARC
  5
243D5
  8
0
 10
4467.2396280774228217
 20
276.0833235915882256
 30
0.0
 40
0.0240920580775459
 50
181.601622284961195
 51
208.8675217035973048
  0
ARC
  5
243D6
  8
0
 10
4467.6474145557249358
 20
276.0636318579013277
 30
0.0
 40
0.4322876802846507
 50
176.5089133189545976
 51
177.478476136012489
  0
ARC
  5
243D7
  8
0
 10
4467.3310196474330951
 20
276.0673199458976228
 30
0.0
 40
0.0276239563137153
 50
257.3639248595541176
 51
295.8956166132252861
  0
ARC
  5
243D8
  8
0
 10
4467.3328071687074043
 20
276.0606959905003919
 30
0.0
 40
0.0209239214709201
 50
299.4161552206512056
 51
335.8428125194884046
  0
ARC
  5
243D9
  8
0
 10
4467.3356966017436207
 20
276.059631148586277
 30
0.0
 40
0.0178529953819149
 50
335.1659987549380162
 51
355.4590918307097809
  0
ARC
  5
243DA
  8
0
 10
4467.430641073073275
 20
276.6894584073639862
 30
0.0
 40
0.6777145858113435
 50
252.8826967431839137
 51
261.0514613744197163
  0
ARC
  5
243DB
  8
0
 10
4467.2239660467957947
 20
275.7873749571872963
 30
0.0
 40
0.2518080458254748
 50
71.1557921250814616
 51
83.3117541729086071
  0
ARC
  5
243DC
  8
0
 10
4467.3343063084012101
 20
276.2743679693605259
 30
0.0
 40
0.2503678431983376
 50
251.1206965850300037
 51
263.3468497129210846
  0
ARC
  5
243DD
  8
0
 10
4467.0721214808809236
 20
275.1311827830713241
 30
0.0
 40
0.9493927745594701
 50
71.0770945552292233
 51
73.5349477762480745
  0
ARC
  5
243DE
  8
0
 10
4467.0721214808809236
 20
275.1311827830713241
 30
0.0
 40
0.9493927745594701
 50
80.9987297983133345
 51
83.2565582250814202
  0
ARC
  5
243DF
  8
0
 10
4467.37784238173208
 20
276.1619350826509276
 30
0.0
 40
0.1326863399943502
 50
258.8335747113089838
 51
270.934059540488704
  0
ARC
  5
243E0
  8
0
 10
4467.2463534532053018
 20
276.196181309962526
 30
0.0
 40
0.1373465616142047
 50
242.8141143945794056
 51
257.1437875252076992
  0
ARC
  5
243E1
  8
0
 10
4467.2384700847642307
 20
276.0640441583367988
 30
0.0
 40
0.0234458346762317
 50
212.8682827041317864
 51
251.8589294979377087
  0
ARC
  5
243E2
  8
0
 10
4467.2398757882820064
 20
276.0629511887627245
 30
0.0
 40
0.0240920580775459
 50
181.601622284961195
 51
208.8675217035973048
  0
ARC
  5
243E3
  8
0
 10
4467.647662266583211
 20
276.0432594550758267
 30
0.0
 40
0.4322876802846507
 50
176.5089133189545976
 51
177.478476136012489
  0
ARC
  5
243E4
  8
0
 10
4467.3312673582913703
 20
276.0469475430720081
 30
0.0
 40
0.0276239563137153
 50
257.3639248595541176
 51
295.8956166132252861
  0
ARC
  5
243E5
  8
0
 10
4467.3330548795647701
 20
276.0403235876747772
 30
0.0
 40
0.0209239214709201
 50
299.4161552206512056
 51
335.8428125194884046
  0
ARC
  5
243E6
  8
0
 10
4467.3359443126037149
 20
276.039258745760776
 30
0.0
 40
0.0178529953819149
 50
335.1659987549380162
 51
355.4590918307097809
  0
ARC
  5
243E7
  8
0
 10
4466.5572070362259183
 20
276.7475305147137874
 30
0.0
 40
0.2818311904351534
 50
246.0014259153230967
 51
265.3920661631353255
  0
ARC
  5
243E8
  8
0
 10
4466.4752934573807579
 20
276.3999374839960979
 30
0.0
 40
0.0858247519798996
 50
58.9439060418410108
 51
94.1264242147944543
  0
ARC
  5
243E9
  8
0
 10
4466.5140109871008463
 20
276.5616447596430021
 30
0.0
 40
0.0883593619367943
 50
239.4642508170900896
 51
273.6060794395461926
  0
ARC
  5
243EA
  8
0
 10
4466.414267916657991
 20
276.1888382258410957
 30
0.0
 40
0.3380143492479673
 50
58.7516364865575582
 51
93.1868571186392387
  0
ARC
  5
243EB
  8
0
 10
4466.5677965642398703
 20
276.5286365400467048
 30
0.0
 40
0.0553054251085193
 50
259.872689565424821
 51
293.232441918630002
  0
ARC
  5
243EC
  8
0
 10
4466.4412912539673925
 20
276.5614624776785035
 30
0.0
 40
0.0577343915714608
 50
217.482685420964998
 51
257.3468577937425152
  0
ARC
  5
243ED
  8
0
 10
4466.4600467403415678
 20
276.5228294662152848
 30
0.0
 40
0.0371309468263713
 50
222.9184722150681921
 51
241.9432825148493862
  0
ARC
  5
243EE
  8
0
 10
4466.4518160715424528
 20
276.513030431593279
 30
0.0
 40
0.0244811943671733
 50
182.1279360197723918
 51
219.2384005110899068
  0
ARC
  5
243EF
  8
0
 10
4469.1980399521999061
 20
276.3731518672898915
 30
0.0
 40
2.7741711554692161
 50
176.8298160490240036
 51
177.1286188165227031
  0
ARC
  5
243F0
  8
0
 10
4466.5371643700209461
 20
276.5022950826992769
 30
0.0
 40
0.0357793184105535
 50
265.8347155592967965
 51
293.1844209624316022
  0
ARC
  5
243F1
  8
0
 10
4466.5421143839839715
 20
276.4896901708893893
 30
0.0
 40
0.0222473867517083
 50
294.2460328072666016
 51
325.1317298508819817
  0
ARC
  5
243F2
  8
0
 10
4466.5380792588621262
 20
276.4907643819764758
 30
0.0
 40
0.0262109891782145
 50
328.2493120625852043
 51
341.0737980570391983
  0
ARC
  5
243F3
  8
0
 10
4466.5477809549456651
 20
276.4881659596729264
 30
0.0
 40
0.0162056412172999
 50
338.6377757341327879
 51
358.2006414432663064
  0
LINE
  5
243F4
  8
0
 10
4466.5642157848187708
 20
276.4917727684925239
 30
0.0
 11
4466.5639786053552598
 21
276.487657109518409
 31
0.0
  0
ARC
  5
243F5
  8
0
 10
4466.6538170958447154
 20
277.0367341404293029
 30
0.0
 40
0.6777145858113435
 50
251.8247307009305018
 51
259.9934953321878766
  0
ARC
  5
243F6
  8
0
 10
4466.430521286012663
 20
276.1386205068164941
 30
0.0
 40
0.2518080458254748
 50
70.0978260828690765
 51
82.2537881306822527
  0
ARC
  5
243F7
  8
0
 10
4466.5498345480782518
 20
276.6234931836419833
 30
0.0
 40
0.2503678431983376
 50
250.0627305428502041
 51
262.2888836707106179
  0
ARC
  5
243F8
  8
0
 10
4466.266586711571108
 20
275.4853438450018075
 30
0.0
 40
0.9493927745594701
 50
70.0191285130204335
 51
82.1985921828604091
  0
ARC
  5
243F9
  8
0
 10
4466.5912872454318858
 20
276.5102756162024207
 30
0.0
 40
0.1326863399943502
 50
257.7756086691243809
 51
269.8760934982788058
  0
ARC
  5
243FA
  8
0
 10
4466.4604530525703012
 20
276.5469438093426788
 30
0.0
 40
0.1373465616142047
 50
241.7561483523666936
 51
256.0858214829818849
  0
ARC
  5
243FB
  8
0
 10
4466.4501312553884418
 20
276.4149747416007017
 30
0.0
 40
0.0234458346762317
 50
211.8103166619305
 51
250.8009634556997014
  0
ARC
  5
243FC
  8
0
 10
4466.4515165387447269
 20
276.4138560035210048
 30
0.0
 40
0.0240920580775459
 50
180.5436562427464082
 51
207.809555661366602
  0
ARC
  5
243FD
  8
0
 10
4466.8588699134015769
 20
276.3866382810497271
 30
0.0
 40
0.4322876802846507
 50
175.450947276737395
 51
176.4205100937973896
  0
ARC
  5
243FE
  8
0
 10
4466.5425970385722394
 20
276.396167637415715
 30
0.0
 40
0.0276239563137153
 50
256.3059588173501879
 51
294.8376505709737785
  0
ARC
  5
243FF
  8
0
 10
4466.5442619507957716
 20
276.3895118065362908
 30
0.0
 40
0.0209239214709201
 50
298.3581891784256186
 51
334.7848464772662851
  0
ARC
  5
24400
  8
0
 10
4466.5471312300851423
 20
276.3883937958265733
 30
0.0
 40
0.0178529953819149
 50
334.1080327127129976
 51
354.4011257884926067
  0
ARC
  5
24401
  8
0
 10
4466.6538170958447154
 20
276.9704468850292756
 30
0.0
 40
0.6777145858113435
 50
251.8247307009305018
 51
259.9934953321878766
  0
ARC
  5
24402
  8
0
 10
4466.430521286012663
 20
276.0723332514165236
 30
0.0
 40
0.2518080458254748
 50
70.0978260828690765
 51
82.2537881306822527
  0
ARC
  5
24403
  8
0
 10
4466.5498345480782518
 20
276.5572059282421264
 30
0.0
 40
0.2503678431983376
 50
250.0627305428502041
 51
262.2888836707106179
  0
ARC
  5
24404
  8
0
 10
4466.266586711571108
 20
275.4190565896017802
 30
0.0
 40
0.9493927745594701
 50
70.0191285130204335
 51
82.1985921828604091
  0
ARC
  5
24405
  8
0
 10
4466.5912872454318858
 20
276.4439883608023933
 30
0.0
 40
0.1326863399943502
 50
257.7756086691243809
 51
269.8760934982788058
  0
ARC
  5
24406
  8
0
 10
4466.4604530525703012
 20
276.4806565539427083
 30
0.0
 40
0.1373465616142047
 50
241.7561483523666936
 51
256.0858214829818849
  0
ARC
  5
24407
  8
0
 10
4466.4501312553884418
 20
276.3486874862006744
 30
0.0
 40
0.0234458346762317
 50
211.8103166619305
 51
250.8009634556997014
  0
ARC
  5
24408
  8
0
 10
4466.4515165387447269
 20
276.3475687481209775
 30
0.0
 40
0.0240920580775459
 50
180.5436562427464082
 51
207.809555661366602
  0
ARC
  5
24409
  8
0
 10
4466.8588699134015769
 20
276.3203510256496997
 30
0.0
 40
0.4322876802846507
 50
175.450947276737395
 51
176.4205100937973896
  0
ARC
  5
2440A
  8
0
 10
4466.5425970385722394
 20
276.3298803820156877
 30
0.0
 40
0.0276239563137153
 50
256.3059588173501879
 51
294.8376505709737785
  0
ARC
  5
2440B
  8
0
 10
4466.5442619507957716
 20
276.3232245511363203
 30
0.0
 40
0.0209239214709201
 50
298.3581891784256186
 51
334.7848464772662851
  0
ARC
  5
2440C
  8
0
 10
4466.5471312300851423
 20
276.3221065404266028
 30
0.0
 40
0.0178529953819149
 50
334.1080327127129976
 51
354.4011257884926067
  0
ARC
  5
2440D
  8
0
 10
4466.6538724275442291
 20
276.9236708203293915
 30
0.0
 40
0.6777145858113435
 50
251.8247307009305018
 51
259.9934953321878766
  0
ARC
  5
2440E
  8
0
 10
4466.4305766177130863
 20
276.0255571867165258
 30
0.0
 40
0.2518080458254748
 50
70.0978260828690765
 51
82.2537881306822527
  0
ARC
  5
2440F
  8
0
 10
4466.5498898797777656
 20
276.5104298635420719
 30
0.0
 40
0.2503678431983376
 50
250.0627305428502041
 51
262.2888836707106179
  0
ARC
  5
24410
  8
0
 10
4466.2666420432706218
 20
275.3722805249017824
 30
0.0
 40
0.9493927745594701
 50
70.0191285130204335
 51
82.1985921828604091
  0
ARC
  5
24411
  8
0
 10
4466.5913425771323091
 20
276.3972122961023956
 30
0.0
 40
0.1326863399943502
 50
257.7756086691243809
 51
269.8760934982788058
  0
ARC
  5
24412
  8
0
 10
4466.460508384269815
 20
276.4338804892427106
 30
0.0
 40
0.1373465616142047
 50
241.7561483523666936
 51
256.0858214829818849
  0
ARC
  5
24413
  8
0
 10
4466.4501865870879556
 20
276.3019114215007903
 30
0.0
 40
0.0234458346762317
 50
211.8103166619305
 51
250.8009634556997014
  0
ARC
  5
24414
  8
0
 10
4466.4515718704451501
 20
276.3007926834209229
 30
0.0
 40
0.0240920580775459
 50
180.5436562427464082
 51
207.809555661366602
  0
ARC
  5
24415
  8
0
 10
4466.8589252451020002
 20
276.273574960949702
 30
0.0
 40
0.4322876802846507
 50
175.450947276737395
 51
176.4205100937973896
  0
ARC
  5
24416
  8
0
 10
4466.5426523702717532
 20
276.28310431731569
 30
0.0
 40
0.0276239563137153
 50
256.3059588173501879
 51
294.8376505709737785
  0
ARC
  5
24417
  8
0
 10
4466.5443172824971043
 20
276.2764484864363226
 30
0.0
 40
0.0209239214709201
 50
298.3581891784256186
 51
334.7848464772662851
  0
ARC
  5
24418
  8
0
 10
4466.5471865617846561
 20
276.2753304757266051
 30
0.0
 40
0.0178529953819149
 50
334.1080327127129976
 51
354.4011257884926067
  0
ARC
  5
24419
  8
0
 10
4466.6538170958447154
 20
276.8888343316916121
 30
0.0
 40
0.6777145858113435
 50
251.8247307009305018
 51
259.9934953321878766
  0
ARC
  5
2441A
  8
0
 10
4466.430521286012663
 20
275.9907206980788033
 30
0.0
 40
0.2518080458254748
 50
70.0978260828690765
 51
82.2537881306822527
  0
ARC
  5
2441B
  8
0
 10
4466.5498345480782518
 20
276.4755933749042924
 30
0.0
 40
0.2503678431983376
 50
250.0627305428502041
 51
262.2888836707106179
  0
ARC
  5
2441C
  8
0
 10
4466.266586711571108
 20
275.3374440362641167
 30
0.0
 40
0.9493927745594701
 50
70.0191285130204335
 51
82.1985921828604091
  0
ARC
  5
2441D
  8
0
 10
4466.5912872454318858
 20
276.362375807464673
 30
0.0
 40
0.1326863399943502
 50
257.7756086691243809
 51
269.8760934982788058
  0
ARC
  5
2441E
  8
0
 10
4466.4604530525703012
 20
276.399044000604988
 30
0.0
 40
0.1373465616142047
 50
241.7561483523666936
 51
256.0858214829818849
  0
ARC
  5
2441F
  8
0
 10
4466.4501312553884418
 20
276.2670749328631246
 30
0.0
 40
0.0234458346762317
 50
211.8103166619305
 51
250.8009634556997014
  0
ARC
  5
24420
  8
0
 10
4466.4515165387447269
 20
276.2659561947832003
 30
0.0
 40
0.0240920580775459
 50
180.5436562427464082
 51
207.809555661366602
  0
ARC
  5
24421
  8
0
 10
4466.8588699134015769
 20
276.2387384723119794
 30
0.0
 40
0.4322876802846507
 50
175.450947276737395
 51
176.4205100937973896
  0
ARC
  5
24422
  8
0
 10
4466.5425970385722394
 20
276.2482678286779105
 30
0.0
 40
0.0276239563137153
 50
256.3059588173501879
 51
294.8376505709737785
  0
ARC
  5
24423
  8
0
 10
4466.5442619507957716
 20
276.2416119977986
 30
0.0
 40
0.0209239214709201
 50
298.3581891784256186
 51
334.7848464772662851
  0
ARC
  5
24424
  8
0
 10
4466.5471312300851423
 20
276.2404939870888825
 30
0.0
 40
0.0178529953819149
 50
334.1080327127129976
 51
354.4011257884926067
  0
ARC
  5
24425
  8
0
 10
4466.6540988160859342
 20
276.8680720141996972
 30
0.0
 40
0.6777145858113435
 50
251.8247307009305018
 51
259.9934953321878766
  0
ARC
  5
24426
  8
0
 10
4466.4308030062547914
 20
275.9699583805867746
 30
0.0
 40
0.2518080458254748
 50
70.0978260828690765
 51
82.2537881306822527
  0
ARC
  5
24427
  8
0
 10
4466.5501162683203802
 20
276.4548310574123775
 30
0.0
 40
0.2503678431983376
 50
250.0627305428502041
 51
262.2888836707106179
  0
ARC
  5
24428
  8
0
 10
4466.2668684318132364
 20
275.3166817187722017
 30
0.0
 40
0.9493927745594701
 50
70.0191285130204335
 51
72.5269971978735697
  0
ARC
  5
24429
  8
0
 10
4466.2668684318132364
 20
275.3166817187722017
 30
0.0
 40
0.9493927745594701
 50
79.9459647892677765
 51
82.1985921828604091
  0
ARC
  5
2442A
  8
0
 10
4466.5915689656740142
 20
276.3416134899728149
 30
0.0
 40
0.1326863399943502
 50
257.7756086691243809
 51
269.8760934982788058
  0
ARC
  5
2442B
  8
0
 10
4466.4607347728124296
 20
276.3782816831130731
 30
0.0
 40
0.1373465616142047
 50
241.7561483523666936
 51
256.0858214829818849
  0
ARC
  5
2442C
  8
0
 10
4466.4504129756305701
 20
276.2463126153710959
 30
0.0
 40
0.0234458346762317
 50
211.8103166619305
 51
250.8009634556997014
  0
ARC
  5
2442D
  8
0
 10
4466.4517982589868552
 20
276.2451938772913991
 30
0.0
 40
0.0240920580775459
 50
180.5436562427464082
 51
207.809555661366602
  0
ARC
  5
2442E
  8
0
 10
4466.8591516336437053
 20
276.2179761548201213
 30
0.0
 40
0.4322876802846507
 50
175.450947276737395
 51
176.4205100937973896
  0
ARC
  5
2442F
  8
0
 10
4466.5428787588125488
 20
276.2275055111861093
 30
0.0
 40
0.0276239563137153
 50
256.3059588173501879
 51
294.8376505709737785
  0
ARC
  5
24430
  8
0
 10
4466.5445436710388094
 20
276.2208496803066851
 30
0.0
 40
0.0209239214709201
 50
298.3581891784256186
 51
334.7848464772662851
  0
ARC
  5
24431
  8
0
 10
4466.5474129503272707
 20
276.2197316695970244
 30
0.0
 40
0.0178529953819149
 50
334.1080327127129976
 51
354.4011257884926067
  0
ARC
  5
24432
  8
0
 10
4465.7760958023263811
 20
276.8524390047184056
 30
0.0
 40
0.2818311904351533
 50
244.191414442266904
 51
263.5820546900831118
  0
ARC
  5
24433
  8
0
 10
4465.6832442268796513
 20
276.507606676854607
 30
0.0
 40
0.0858247519798996
 50
57.1338945687754389
 51
92.3164127417985441
  0
ARC
  5
24434
  8
0
 10
4465.7270500286249444
 20
276.6680103608464947
 30
0.0
 40
0.0883593619367943
 50
237.6542393440331011
 51
271.7960679665540056
  0
ARC
  5
24435
  8
0
 10
4465.564030149304017
 20
276.1168552157258773
 30
0.0
 40
0.521413610406507
 50
63.0962726086191168
 51
85.2221980504579761
  0
ARC
  5
24436
  8
0
 10
4465.7797661918039012
 20
276.6333197712170886
 30
0.0
 40
0.0553054251085193
 50
258.0626780923922752
 51
291.4224304456191135
  0
ARC
  5
24437
  8
0
 10
4465.6543608210731691
 20
276.670125052092601
 30
0.0
 40
0.0577343915714608
 50
215.6726739479323953
 51
255.5368463207379932
  0
ARC
  5
24438
  8
0
 10
4465.6718867101881187
 20
276.6309189166719875
 30
0.0
 40
0.0371309468263713
 50
221.1084607420181101
 51
240.1332710418434999
  0
ARC
  5
24439
  8
0
 10
4465.6633506415410011
 20
276.6213847402254942
 30
0.0
 40
0.0244811943671733
 50
180.3179245467381122
 51
217.4283890380675075
  0
ARC
  5
2443A
  8
0
 10
4468.4037861907563638
 20
276.3948353724201183
 30
0.0
 40
2.7741711554692161
 50
175.0806670276386114
 51
175.3186073434893046
  0
ARC
  5
2443B
  8
0
 10
4465.7483172757029024
 20
276.6079589870428777
 30
0.0
 40
0.0357793184105535
 50
264.0247040862561221
 51
291.3744094893867214
  0
ARC
  5
2443C
  8
0
 10
4465.752866688638278
 20
276.5952040161719196
 30
0.0
 40
0.0222473867517083
 50
292.4360213342328052
 51
323.3217183778493791
  0
ARC
  5
2443D
  8
0
 10
4465.7488675062068069
 20
276.5964051423520118
 30
0.0
 40
0.0262109891782144
 50
326.4393005895569218
 51
339.263786583995909
  0
ARC
  5
2443E
  8
0
 10
4465.7584822894723402
 20
276.593501584508715
 30
0.0
 40
0.0162056412172999
 50
336.8277642611051874
 51
356.3906299702293268
  0
LINE
  5
2443F
  8
0
 10
4465.7747721280129554
 20
276.5937828533470793
 30
0.0
 11
4465.7746557859318273
 21
276.5924813788845995
 31
0.0
  0
ARC
  5
24440
  8
0
 10
4465.9127920479268141
 20
277.252613323608216
 30
0.0
 40
0.7644468554396648
 50
250.2965910033495049
 51
257.4072157186711252
  0
ARC
  5
24441
  8
0
 10
4465.6353563628081247
 20
276.2791974241034154
 30
0.0
 40
0.2518080458254748
 50
68.3379022894754513
 51
80.4938643372924929
  0
ARC
  5
24442
  8
0
 10
4465.7695045757882326
 20
276.7601770745990279
 30
0.0
 40
0.2503678431983376
 50
248.3028067494539926
 51
260.5289598772973818
  0
ARC
  5
24443
  8
0
 10
4465.4514359242357386
 20
275.6312636205058197
 30
0.0
 40
0.9493927745594701
 50
68.2592047196060463
 51
80.4386683894501147
  0
ARC
  5
24444
  8
0
 10
4465.8074606227555705
 20
276.6457398333117794
 30
0.0
 40
0.1326863399943502
 50
256.0156848757227976
 51
268.1161697048386259
  0
ARC
  5
24445
  8
0
 10
4465.6778142863076937
 20
276.6864088615251944
 30
0.0
 40
0.1373465616142047
 50
239.9962245589854888
 51
254.3258976895461956
  0
ARC
  5
24446
  8
0
 10
4465.6634443722387005
 20
276.5548190446418744
 30
0.0
 40
0.0234458346762317
 50
210.0503928685338053
 51
249.0410396622837084
  0
ARC
  5
24447
  8
0
 10
4465.6647946438642975
 20
276.5536582899692917
 30
0.0
 40
0.0240920580775459
 50
178.783732449341187
 51
206.0496318679774106
  0
ARC
  5
24448
  8
0
 10
4466.0711199636762103
 20
276.5139429183736866
 30
0.0
 40
0.4322876802846507
 50
173.6910234833347886
 51
174.660586300397199
  0
ARC
  5
24449
  8
0
 10
4465.7541505416656946
 20
276.5396810752013153
 30
0.0
 40
0.0340831009915386
 50
256.3842941234539126
 51
290.5543373753699257
  0
ARC
  5
2444A
  8
0
 10
4465.7567486565640138
 20
276.5264772132437088
 30
0.0
 40
0.0209239214709201
 50
296.5982653850459201
 51
333.0249226838615186
  0
ARC
  5
2444B
  8
0
 10
4465.7595822464372759
 20
276.5252716096568975
 30
0.0
 40
0.0178529953819149
 50
332.3481089193031721
 51
352.6412019950889203
  0
ARC
  5
2444C
  8
0
 10
4465.9111341324196474
 20
277.2051400944079091
 30
0.0
 40
0.7644468554396648
 50
250.2965910033495049
 51
257.4072157186711252
  0
ARC
  5
2444D
  8
0
 10
4465.6336984473027769
 20
276.2317241949029949
 30
0.0
 40
0.2518080458254748
 50
68.3379022894754513
 51
80.4938643372924929
  0
ARC
  5
2444E
  8
0
 10
4465.7678466602828848
 20
276.7127038453987211
 30
0.0
 40
0.2503678431983376
 50
248.3028067494539926
 51
260.5289598772973818
  0
ARC
  5
2444F
  8
0
 10
4465.4497780087303909
 20
275.5837903913055129
 30
0.0
 40
0.9493927745594701
 50
68.2592047196060463
 51
80.4386683894501147
  0
ARC
  5
24450
  8
0
 10
4465.8058027072511322
 20
276.5982666041114726
 30
0.0
 40
0.1326863399943502
 50
256.0156848757227976
 51
268.1161697048386259
  0
ARC
  5
24451
  8
0
 10
4465.6761563708023459
 20
276.6389356323248876
 30
0.0
 40
0.1373465616142047
 50
239.9962245589854888
 51
254.3258976895461956
  0
ARC
  5
24452
  8
0
 10
4465.6617864567342622
 20
276.5073458154415107
 30
0.0
 40
0.0234458346762317
 50
210.0503928685338053
 51
249.0410396622837084
  0
ARC
  5
24453
  8
0
 10
4465.6631367283580403
 20
276.5061850607689848
 30
0.0
 40
0.0240920580775459
 50
178.783732449341187
 51
206.0496318679774106
  0
ARC
  5
24454
  8
0
 10
4466.0694620481699531
 20
276.4664696891733229
 30
0.0
 40
0.4322876802846507
 50
173.6910234833347886
 51
174.660586300397199
  0
ARC
  5
24455
  8
0
 10
4465.7524926261612563
 20
276.4922078460008947
 30
0.0
 40
0.0340831009915386
 50
256.3842941234539126
 51
290.5543373753699257
  0
ARC
  5
24456
  8
0
 10
4465.755090741056847
 20
276.4790039840434019
 30
0.0
 40
0.0209239214709201
 50
296.5982653850459201
 51
333.0249226838615186
  0
ARC
  5
24457
  8
0
 10
4465.7579243309319281
 20
276.4777983804567043
 30
0.0
 40
0.0178529953819149
 50
332.3481089193031721
 51
352.6412019950889203
  0
ARC
  5
24458
  8
0
 10
4465.9111269328213893
 20
277.1701222523079196
 30
0.0
 40
0.7644468554396648
 50
250.2965910033495049
 51
257.4072157186711252
  0
ARC
  5
24459
  8
0
 10
4465.6336912477026999
 20
276.196706352803119
 30
0.0
 40
0.2518080458254748
 50
68.3379022894754513
 51
80.4938643372924929
  0
ARC
  5
2445A
  8
0
 10
4465.7678394606818983
 20
276.6776860032986747
 30
0.0
 40
0.2503678431983376
 50
248.3028067494539926
 51
260.5289598772973818
  0
ARC
  5
2445B
  8
0
 10
4465.4497708091303139
 20
275.5487725492055233
 30
0.0
 40
0.9493927745594701
 50
68.2592047196060463
 51
80.4386683894501147
  0
ARC
  5
2445C
  8
0
 10
4465.8057955076510552
 20
276.563248762011483
 30
0.0
 40
0.1326863399943502
 50
256.0156848757227976
 51
268.1161697048386259
  0
ARC
  5
2445D
  8
0
 10
4465.6761491712022689
 20
276.603917790224898
 30
0.0
 40
0.1373465616142047
 50
239.9962245589854888
 51
254.3258976895461956
  0
ARC
  5
2445E
  8
0
 10
4465.6617792571350947
 20
276.4723279733415211
 30
0.0
 40
0.0234458346762317
 50
210.0503928685338053
 51
249.0410396622837084
  0
ARC
  5
2445F
  8
0
 10
4465.6631295287588728
 20
276.4711672186689952
 30
0.0
 40
0.0240920580775459
 50
178.783732449341187
 51
206.0496318679774106
  0
ARC
  5
24460
  8
0
 10
4466.0694548485707855
 20
276.4314518470732764
 30
0.0
 40
0.4322876802846507
 50
173.6910234833347886
 51
174.660586300397199
  0
ARC
  5
24461
  8
0
 10
4465.7524854265611793
 20
276.4571900039010188
 30
0.0
 40
0.0340831009915386
 50
256.3842941234539126
 51
290.5543373753699257
  0
ARC
  5
24462
  8
0
 10
4465.7550835414576795
 20
276.4439861419432987
 30
0.0
 40
0.0209239214709201
 50
296.5982653850459201
 51
333.0249226838615186
  0
ARC
  5
24463
  8
0
 10
4465.7579171313318511
 20
276.442780538356601
 30
0.0
 40
0.0178529953819149
 50
332.3481089193031721
 51
352.6412019950889203
  0
ARC
  5
24464
  8
0
 10
4465.4005680971340553
 20
275.5381577624792726
 30
0.0
 40
0.9487301696834133
 50
74.9668331326486452
 51
77.4038350527217176
  0
ARC
  5
24465
  8
0
 10
4465.8406272241199986
 20
277.1435581082718045
 30
0.0
 40
0.7183949686416734
 50
251.0611007779432953
 51
253.9682381438960874
  0
ARC
  5
24466
  8
0
 10
4465.546407844794885
 20
275.6426786911886779
 30
0.0
 40
0.8091065600619896
 50
71.3979550214603336
 51
74.8280080162699761
  0
ARC
  5
24467
  8
0
 10
4465.9402710087761079
 20
277.0606788051376839
 30
0.0
 40
0.6651660971748063
 50
255.9705405988055986
 51
258.2228885193320025
  0
LINE
  5
24468
  8
0
 10
4465.6422278715572247
 20
276.455594129914914
 30
0.0
 11
4465.6422282715357142
 21
276.4429964326507729
 31
0.0
  0
ARC
  5
24469
  8
0
 10
4465.760347546632147
 20
276.4215437289332726
 30
0.0
 40
0.0196725904435744
 50
328.38093787193759
 51
348.0052285442329776
  0
ARC
  5
2446A
  8
0
 10
4465.760347546632147
 20
276.4215437289332726
 30
0.0
 40
0.0196725904435744
 50
347.9924162912482188
 51
348.0052285442329776
  0
ARC
  5
2446B
  8
0
 10
4465.6621414133687722
 20
276.4487912691968745
 30
0.0
 40
0.0199152099462477
 50
180.7899616509992029
 51
254.3627997836456984
  0
ARC
  5
2446C
  8
0
 10
4465.7600418374368019
 20
276.4218396937250191
 30
0.0
 40
0.0200882926807344
 50
252.7433661031029999
 51
328.1192317265133056
  0
ARC
  5
2446D
  8
0
 10
4466.2296063396452155
 20
278.3082754205130982
 30
0.0
 40
1.9640543483969279
 50
253.0427311115547013
 51
255.9886955928459997
  0
ARC
  5
2446E
  8
0
 10
4465.6619182010572331
 20
276.4429997520164193
 30
0.0
 40
0.019689929800004
 50
180.0096590309115072
 51
254.4051497871874972
  0
ARC
  5
2446F
  8
0
 10
4465.760325737369385
 20
276.4158426463433216
 30
0.0
 40
0.0197032308834106
 50
254.7610575446796872
 51
344.6458245060168224
  0
LINE
  5
24470
  8
0
 10
4465.6566248932413146
 20
276.4240346728470854
 30
0.0
 11
4465.7551468413557814
 21
276.3968322191163907
 31
0.0
  0
ARC
  5
24471
  8
0
 10
4465.1774225064336861
 20
277.5129758964891948
 30
0.0
 40
0.8026691982116479
 50
247.1063863830094078
 51
254.2170110983850009
  0
ARC
  5
24472
  8
0
 10
4464.8296865267657267
 20
276.508684633363373
 30
0.0
 40
0.2643984481167485
 50
65.1476976691238576
 51
77.3036597169555648
  0
ARC
  5
24473
  8
0
 10
4464.9984291174951068
 20
277.0050918905145068
 30
0.0
 40
0.2628862353582546
 50
245.1126021290914991
 51
257.3387552569898844
  0
ARC
  5
24474
  8
0
 10
4464.5990083977621907
 20
275.8401555398461937
 30
0.0
 40
0.9968624132874436
 50
65.0690000992764368
 51
77.2484637691063227
  0
ARC
  5
24475
  8
0
 10
4465.0315342536950993
 20
276.882901099614287
 30
0.0
 40
0.1393206569940677
 50
252.8254802553709055
 51
264.925965084531299
  0
ARC
  5
24476
  8
0
 10
4464.8979929875049493
 20
276.9331130726026799
 30
0.0
 40
0.144213889694915
 50
236.806019938627287
 51
251.1356930692518858
  0
ARC
  5
24477
  8
0
 10
4464.8752387265776633
 20
276.7959975690408214
 30
0.0
 40
0.0246181264100433
 50
206.8601882481763994
 51
245.8508350419756994
  0
ARC
  5
24478
  8
0
 10
4464.8765864878469074
 20
276.7947017645121264
 30
0.0
 40
0.0252966609814232
 50
175.5935278290081101
 51
202.8594272476296112
  0
ARC
  5
24479
  8
0
 10
4465.3002462019749146
 20
276.7293222994338748
 30
0.0
 40
0.4539020642988833
 50
170.5008188630025927
 51
171.4703816800625873
  0
ARC
  5
2447A
  8
0
 10
4464.9694480458229009
 20
276.774827068210584
 30
0.0
 40
0.0357872560411156
 50
253.1940895031121954
 51
287.3641327550624851
  0
ARC
  5
2447B
  8
0
 10
4464.9714002929513299
 20
276.760832681823274
 30
0.0
 40
0.0219701175444661
 50
293.4080607647134116
 51
329.8347180635295217
  0
ARC
  5
2447C
  8
0
 10
4464.9743005040663775
 20
276.7594031836586055
 30
0.0
 40
0.0187456451510107
 50
329.1579042989828281
 51
349.4509973747515801
  0
ARC
  5
2447D
  8
0
 10
4465.1774225064336861
 20
277.4647931308713851
 30
0.0
 40
0.8026691982116479
 50
247.1063863830094078
 51
254.2170110983850009
  0
ARC
  5
2447E
  8
0
 10
4464.8296865267657267
 20
276.4605018677456769
 30
0.0
 40
0.2643984481167485
 50
65.1476976691238576
 51
77.3036597169555648
  0
ARC
  5
2447F
  8
0
 10
4464.9984291174951068
 20
276.9569091248968107
 30
0.0
 40
0.2628862353582546
 50
245.1126021290914991
 51
257.3387552569898844
  0
ARC
  5
24480
  8
0
 10
4464.5990083977621907
 20
275.7919727742284977
 30
0.0
 40
0.9968624132874436
 50
65.0690000992764368
 51
77.2484637691063227
  0
ARC
  5
24481
  8
0
 10
4465.0315342536950993
 20
276.8347183339965909
 30
0.0
 40
0.1393206569940677
 50
252.8254802553709055
 51
264.925965084531299
  0
ARC
  5
24482
  8
0
 10
4464.8979929875049493
 20
276.8849303069849839
 30
0.0
 40
0.144213889694915
 50
236.806019938627287
 51
251.1356930692518858
  0
ARC
  5
24483
  8
0
 10
4464.8752387265776633
 20
276.7478148034231253
 30
0.0
 40
0.0246181264100433
 50
206.8601882481763994
 51
245.8508350419756994
  0
ARC
  5
24484
  8
0
 10
4464.8765864878469074
 20
276.7465189988943735
 30
0.0
 40
0.0252966609814232
 50
175.5935278290081101
 51
202.8594272476296112
  0
ARC
  5
24485
  8
0
 10
4465.3002462019749146
 20
276.6811395338161788
 30
0.0
 40
0.4539020642988833
 50
170.5008188630025927
 51
171.4703816800625873
  0
ARC
  5
24486
  8
0
 10
4464.9694480458229009
 20
276.7266443025928879
 30
0.0
 40
0.0357872560411156
 50
253.1940895031121954
 51
287.3641327550624851
  0
ARC
  5
24487
  8
0
 10
4464.9714002929513299
 20
276.7126499162055779
 30
0.0
 40
0.0219701175444661
 50
293.4080607647134116
 51
329.8347180635295217
  0
ARC
  5
24488
  8
0
 10
4464.9743005040663775
 20
276.7112204180409094
 30
0.0
 40
0.0187456451510107
 50
329.1579042989828281
 51
349.4509973747515801
  0
ARC
  5
24489
  8
0
 10
4465.1773665806103963
 20
277.4306669899324902
 30
0.0
 40
0.8026691982116479
 50
247.1063863830094078
 51
254.2170110983850009
  0
ARC
  5
2448A
  8
0
 10
4464.8296306009433465
 20
276.4263757268067252
 30
0.0
 40
0.2643984481167485
 50
65.1476976691238576
 51
77.3036597169555648
  0
ARC
  5
2448B
  8
0
 10
4464.998373191671817
 20
276.9227829839578021
 30
0.0
 40
0.2628862353582546
 50
245.1126021290914991
 51
257.3387552569898844
  0
ARC
  5
2448C
  8
0
 10
4464.598952471938901
 20
275.7578466332894891
 30
0.0
 40
0.9968624132874436
 50
65.0690000992764368
 51
77.2484637691063227
  0
ARC
  5
2448D
  8
0
 10
4465.0314783278727191
 20
276.8005921930575823
 30
0.0
 40
0.1393206569940677
 50
252.8254802553709055
 51
264.925965084531299
  0
ARC
  5
2448E
  8
0
 10
4464.89793706168075
 20
276.8508041660459753
 30
0.0
 40
0.144213889694915
 50
236.806019938627287
 51
251.1356930692518858
  0
ARC
  5
2448F
  8
0
 10
4464.8751828007552831
 20
276.7136886624841736
 30
0.0
 40
0.0246181264100433
 50
206.8601882481763994
 51
245.8508350419756994
  0
ARC
  5
24490
  8
0
 10
4464.8765305620236177
 20
276.7123928579554786
 30
0.0
 40
0.0252966609814232
 50
175.5935278290081101
 51
202.8594272476296112
  0
ARC
  5
24491
  8
0
 10
4465.3001902761516249
 20
276.6470133928772839
 30
0.0
 40
0.4539020642988833
 50
170.5008188630025927
 51
171.4703816800625873
  0
ARC
  5
24492
  8
0
 10
4464.9693921199996112
 20
276.6925181616538794
 30
0.0
 40
0.0357872560411156
 50
253.1940895031121954
 51
287.3641327550624851
  0
ARC
  5
24493
  8
0
 10
4464.9713443671271307
 20
276.6785237752666262
 30
0.0
 40
0.0219701175444661
 50
293.4080607647134116
 51
329.8347180635295217
  0
ARC
  5
24494
  8
0
 10
4464.9742445782421782
 20
276.6770942771019008
 30
0.0
 40
0.0187456451510107
 50
329.1579042989828281
 51
349.4509973747515801
  0
ARC
  5
24495
  8
0
 10
4464.5585018911324369
 20
275.7974422163570125
 30
0.0
 40
0.9487301696834133
 50
71.7295221093261262
 51
74.0669933080798586
  0
ARC
  5
24496
  8
0
 10
4465.0912588060691633
 20
277.3745066966814079
 30
0.0
 40
0.7183949686416734
 50
247.7242590332841985
 51
250.6313963992406002
  0
ARC
  5
24497
  8
0
 10
4464.7222472742250829
 20
275.8970643961657743
 30
0.0
 40
0.8019175541932924
 50
68.5007469837823351
 51
71.4921311388702918
  0
ARC
  5
24498
  8
0
 10
4465.0942089961008605
 20
276.9823026084375783
 30
0.0
 40
0.3479861493635795
 50
252.120414340880302
 51
257.0358498916136227
  0
LINE
  5
24499
  8
0
 10
4464.8531522177663646
 20
276.699257119694721
 30
0.0
 11
4464.8524193560233471
 21
276.6866807573358074
 31
0.0
  0
ARC
  5
2449A
  8
0
 10
4464.969089696042829
 20
276.6583891789899212
 30
0.0
 40
0.0196725904435744
 50
325.0440961272972231
 51
345.7879824199569043
  0
ARC
  5
2449B
  8
0
 10
4464.8726360310502059
 20
276.6913067057851094
 30
0.0
 40
0.0199152099462477
 50
177.4531199063580118
 51
251.0259580390086001
  0
ARC
  5
2449C
  8
0
 10
4464.9688017320640938
 20
276.6587024360982809
 30
0.0
 40
0.0200882926807344
 50
249.4065243584736891
 51
324.7823899818826021
  0
ARC
  5
2449D
  8
0
 10
4465.5473719324254489
 20
278.514608440262009
 30
0.0
 40
1.9640543483969279
 50
249.7058893668796884
 51
252.651853848186505
  0
ARC
  5
2449E
  8
0
 10
4464.8720760963642533
 20
276.6855379998526132
 30
0.0
 40
0.019689929800004
 50
176.6728172862688098
 51
251.0683080425419007
  0
ARC
  5
2449F
  8
0
 10
4464.9681143993402657
 20
276.6576256326445105
 30
0.0
 40
0.024271317011984
 50
256.5268928137007833
 51
341.5203678773331717
  0
LINE
  5
244A0
  8
0
 10
4464.8656878822321232
 20
276.6669131762096185
 30
0.0
 11
4464.9624594509486997
 21
276.6340222772010975
 31
0.0
  0
LINE
  5
244A1
  8
0
 10
4483.4276624484573404
 20
273.6617576687883115
 30
0.0
 11
4483.4276624484573404
 21
277.2217166415164229
 31
0.0
  0
ARC
  5
244A3
  8
0
 10
-8995.8770863383251708
 20
-127880.9902755413932027
 30
0.0
 40
128863.3573244644940132
 50
83.9957960843154012
 51
84.0046981625520459
  0
ENDSEC
  0
EOF
