  0
SECTION
  2
HEADER
  9
$ACADVER
  1
AC1009
  9
$INSBASE
 10
4464.6019650667831229
 20
267.7157399799207269
 30
0.0
  9
$EXTMIN
 10
4464.0662909933826086
 20
267.7110391977233803
 30
0.0
  9
$EXTMAX
 10
4465.1405759919871343
 20
277.7913215987477997
 30
0.0
  9
$LIMMIN
 10
0.0
 20
0.0
  9
$LIMMAX
 10
11.6929133858000007
 20
8.2677165353999982
  9
$ORTHOMODE
 70
     0
  9
$REGENMODE
 70
     1
  9
$FILLMODE
 70
     1
  9
$QTEXTMODE
 70
     0
  9
$MIRRTEXT
 70
     0
  9
$DRAGMODE
 70
     2
  9
$LTSCALE
 40
0.6431102362
  9
$OSMODE
 70
   695
  9
$ATTMODE
 70
     1
  9
$TEXTSIZE
 40
0.2
  9
$TRACEWID
 40
0.05
  9
$TEXTSTYLE
  7
STANDARD
  9
$CLAYER
  8
0
  9
$CELTYPE
  6
BYLAYER
  9
$CECOLOR
 62
   256
  9
$DIMSCALE
 40
1.0
  9
$DIMASZ
 40
0.1875
  9
$DIMEXO
 40
0.0625
  9
$DIMDLI
 40
0.4443307087
  9
$DIMRND
 40
0.0
  9
$DIMDLE
 40
0.0
  9
$DIMEXE
 40
0.125
  9
$DIMTP
 40
0.01
  9
$DIMTM
 40
0.01
  9
$DIMTXT
 40
2.0
  9
$DIMCEN
 40
0.1052362205
  9
$DIMTSZ
 40
0.0
  9
$DIMTOL
 70
     1
  9
$DIMLIM
 70
     0
  9
$DIMTIH
 70
     1
  9
$DIMTOH
 70
     1
  9
$DIMSE1
 70
     0
  9
$DIMSE2
 70
     0
  9
$DIMTAD
 70
     0
  9
$DIMZIN
 70
     0
  9
$DIMBLK
  1

  9
$DIMASO
 70
     1
  9
$DIMSHO
 70
     1
  9
$DIMPOST
  1
\X
  9
$DIMAPOST
  1

  9
$DIMALT
 70
     1
  9
$DIMALTD
 70
     2
  9
$DIMALTF
 40
25.3999999999999986
  9
$DIMLFAC
 40
1.0
  9
$DIMTOFL
 70
     0
  9
$DIMTVP
 40
0.0
  9
$DIMTIX
 70
     0
  9
$DIMSOXD
 70
     0
  9
$DIMSAH
 70
     0
  9
$DIMBLK1
  1

  9
$DIMBLK2
  1

  9
$DIMSTYLE
  2
STANDARD
  9
$DIMCLRD
 70
     0
  9
$DIMCLRE
 70
     0
  9
$DIMCLRT
 70
     0
  9
$DIMTFAC
 40
1.0
  9
$DIMGAP
 40
0.09
  9
$LUNITS
 70
     2
  9
$LUPREC
 70
     4
  9
$SKETCHINC
 40
0.1
  9
$FILLETRAD
 40
0.0
  9
$AUNITS
 70
     0
  9
$AUPREC
 70
     0
  9
$MENU
  1
.
  9
$ELEVATION
 40
0.0
  9
$PELEVATION
 40
0.0
  9
$THICKNESS
 40
0.0
  9
$LIMCHECK
 70
     0
  9
$BLIPMODE
 70
     0
  9
$CHAMFERA
 40
0.0
  9
$CHAMFERB
 40
0.0
  9
$SKPOLY
 70
     0
  9
$TDCREATE
 40
2458060.468368056230247
  9
$TDUPDATE
 40
2459361.0512615740299225
  9
$TDINDWG
 40
0.5261991898
  9
$TDUSRTIMER
 40
0.5261991898
  9
$USRTIMER
 70
     1
  9
$ANGBASE
 50
0.0
  9
$ANGDIR
 70
     0
  9
$PDMODE
 70
     0
  9
$PDSIZE
 40
0.3125
  9
$PLINEWID
 40
0.0
  9
$COORDS
 70
     1
  9
$SPLFRAME
 70
     0
  9
$SPLINETYPE
 70
     6
  9
$SPLINESEGS
 70
     8
  9
$ATTDIA
 70
     1
  9
$ATTREQ
 70
     1
  9
$HANDLING
 70
     1
  9
$HANDSEED
  5
2497D
  9
$SURFTAB1
 70
     6
  9
$SURFTAB2
 70
     6
  9
$SURFTYPE
 70
     6
  9
$SURFU
 70
     6
  9
$SURFV
 70
     6
  9
$UCSNAME
  2

  9
$UCSORG
 10
0.0
 20
0.0
 30
0.0
  9
$UCSXDIR
 10
1.0
 20
0.0
 30
0.0
  9
$UCSYDIR
 10
0.0
 20
1.0
 30
0.0
  9
$PUCSNAME
  2

  9
$PUCSORG
 10
0.0
 20
0.0
 30
0.0
  9
$PUCSXDIR
 10
1.0
 20
0.0
 30
0.0
  9
$PUCSYDIR
 10
0.0
 20
1.0
 30
0.0
  9
$USERI1
 70
     0
  9
$USERI2
 70
     0
  9
$USERI3
 70
     0
  9
$USERI4
 70
     0
  9
$USERI5
 70
     0
  9
$USERR1
 40
0.0
  9
$USERR2
 40
0.0
  9
$USERR3
 40
0.0
  9
$USERR4
 40
0.0
  9
$USERR5
 40
0.0
  9
$WORLDVIEW
 70
     1
  9
$SHADEDGE
 70
     3
  9
$SHADEDIF
 70
    70
  9
$TILEMODE
 70
     1
  9
$MAXACTVP
 70
    64
  9
$PLIMCHECK
 70
     0
  9
$PEXTMIN
 10
1.0000000000000000E+20
 20
1.0000000000000000E+20
 30
1.0000000000000000E+20
  9
$PEXTMAX
 10
-1.0000000000000000E+20
 20
-1.0000000000000000E+20
 30
-1.0000000000000000E+20
  9
$PLIMMIN
 10
0.0
 20
0.0
  9
$PLIMMAX
 10
12.0
 20
9.0
  9
$UNITMODE
 70
     0
  9
$VISRETAIN
 70
     1
  9
$PLINEGEN
 70
     0
  9
$PSLTSCALE
 70
     1
  0
ENDSEC
  0
SECTION
  2
TABLES
  0
TABLE
  2
VPORT
 70
     1
  0
VPORT
  2
*ACTIVE
 70
     0
 10
0.0
 20
0.0
 11
1.0
 21
1.0
 12
553.2380771073443384
 22
140.1715752841905953
 13
0.0
 23
0.0
 14
1.0
 24
1.0
 15
0.0
 25
0.0
 16
0.0
 26
0.0
 36
60.4960186965801583
 17
3911.3653564453120453
 27
132.5796051025390057
 37
0.0
 40
14.7473027510785908
 41
2.3198804185351261
 42
50.0
 43
0.0
 44
0.0
 50
0.0
 51
0.0
 71
     0
 72
   100
 73
     1
 74
     1
 75
     0
 76
     0
 77
     0
 78
     0
  0
ENDTAB
  0
TABLE
  2
LTYPE
 70
     2
  0
LTYPE
  2
CONTINUOUS
 70
     0
  3
Solid line
 72
    65
 73
     0
 40
0.0
  0
LTYPE
  2
PHANTOM2
 70
     0
  3
___ _ _ ___ _ _ ___ _ _ ___ _ _
 72
    65
 73
     6
 40
1.25
 49
0.625
 49
-0.125
 49
0.125
 49
-0.125
 49
0.125
 49
-0.125
  0
ENDTAB
  0
TABLE
  2
LAYER
 70
     2
  0
LAYER
  2
0
 70
     0
 62
   255
  6
CONTINUOUS
  0
LAYER
  2
DEFPOINTS
 70
     0
 62
     7
  6
CONTINUOUS
  0
ENDTAB
  0
TABLE
  2
STYLE
 70
     1
  0
STYLE
  2
STANDARD
 70
     0
 40
0.0
 41
0.8
 50
0.0
 71
     0
 42
0.2
  3
txt
  4

  0
ENDTAB
  0
TABLE
  2
VIEW
 70
     0
  0
ENDTAB
  0
TABLE
  2
UCS
 70
     0
  0
ENDTAB
  0
TABLE
  2
APPID
 70
    11
  0
APPID
  2
ACAD
 70
     0
  0
APPID
  2
ACAD_MLEADERVER
 70
     0
  0
APPID
  2
ACAD_EXEMPT_FROM_CAD_STANDARDS
 70
     0
  0
APPID
  2
ACAD_NAV_VCDISPLAY
 70
     0
  0
APPID
  2
ACAECLAYERSTANDARD
 70
     0
  0
APPID
  2
ACCMTRANSPARENCY
 70
     0
  0
APPID
  2
ACAD_DSTYLE_DIMJAG
 70
     0
  0
APPID
  2
ACAD_DSTYLE_DIMTALN
 70
     0
  0
APPID
  2
ACDBATTR
 70
     0
  0
APPID
  2
ACADANNOTATIVE
 70
     0
  0
APPID
  2
DCO15
 70
     0
  0
ENDTAB
  0
TABLE
  2
DIMSTYLE
 70
     1
  0
DIMSTYLE
  2
STANDARD
 70
     0
  3

  4

  5

  6

  7

 40
1.0
 41
0.1875
 42
0.0625
 43
0.38
 44
0.125
 45
0.0
 46
0.0
 47
0.01
 48
0.01
140
0.15625
141
0.09
142
0.0
143
25.3999999999999986
144
1.0
145
0.0
146
1.0
147
0.09
 71
     1
 72
     0
 73
     1
 74
     1
 75
     0
 76
     0
 77
     0
 78
     4
170
     0
171
     2
172
     0
173
     0
174
     0
175
     0
176
     0
177
     0
178
     0
  0
ENDTAB
  0
ENDSEC
  0
SECTION
  2
BLOCKS
  0
BLOCK
  8
0
  2
$MODEL_SPACE
 70
     0
 10
0.0
 20
0.0
 30
0.0
  3
$MODEL_SPACE
  1

  0
ENDBLK
  5
21
  8
0
  0
BLOCK
 67
     1
  8
0
  2
$PAPER_SPACE
 70
     0
 10
0.0
 20
0.0
 30
0.0
  3
$PAPER_SPACE
  1

  0
ENDBLK
  5
1D
 67
     1
  8
0
  0
ENDSEC
  0
SECTION
  2
ENTITIES
  0
ATTDEF
  5
20106
  8
DEFPOINTS
 10
4464.6016359846171326
 20
267.7143725310567106
 30
0.0
 40
0.001
  1
K-37270T
  3

  2
MODELNUMBER
 70
     0
1001
ACDBATTR
1070
     0
1070
     1
  0
ATTDEF
  5
20107
  8
DEFPOINTS
 10
4464.6016381941826694
 20
267.7127056906775806
 30
0.0
 40
0.001
  1
AIRFOIL 
  3

  2
TRADENAME
 70
     0
1001
ACDBATTR
1070
     0
1070
     1
  0
ATTDEF
  5
20108
  8
DEFPOINTS
 10
4464.6016352353681214
 20
267.7110391977233803
 30
0.0
 40
0.001
  1
HANDSHOWER 
  3

  2
PRODUCT
 70
     0
1001
ACDBATTR
1070
     0
1070
     1
  0
LINE
  5
24572
  8
0
 10
4464.2479008924829031
 20
267.7157399799207269
 30
0.0
 11
4464.9577434121838451
 21
267.7157399799207269
 31
0.0
  0
LINE
  5
24573
  8
0
 10
4464.236089868883937
 20
267.7275510035207162
 30
0.0
 11
4464.9695544357837207
 21
267.7275510035207162
 31
0.0
  0
LINE
  5
24574
  8
0
 10
4464.2375091434842034
 20
267.7529386524207098
 30
0.0
 11
4464.2576053328839407
 21
267.7529386524207098
 31
0.0
  0
LINE
  5
24575
  8
0
 10
4464.2576053328839407
 20
267.7603205421207235
 30
0.0
 11
4464.2375091434842034
 21
267.7603205421207235
 31
0.0
  0
LINE
  5
24576
  8
0
 10
4464.216996408184059
 20
267.9992045468205788
 30
0.0
 11
4464.9765460308854017
 21
267.9992045468205788
 31
0.0
  0
LINE
  5
24577
  8
0
 10
4464.201247349183177
 20
268.0582596649206266
 30
0.0
 11
4465.0043969554835712
 21
268.0582596649206266
 31
0.0
  0
LINE
  5
24578
  8
0
 10
4465.0043969554835712
 20
268.160621869620627
 30
0.0
 11
4464.201247349183177
 21
268.160621869620627
 31
0.0
  0
LINE
  5
24579
  8
0
 10
4464.2578013744841883
 20
267.7412229273206208
 30
0.0
 11
4464.2375091434842034
 21
267.7529386524207098
 31
0.0
  0
LINE
  5
2457A
  8
0
 10
4464.2045141239832446
 20
267.9248137173207169
 30
0.0
 11
4464.236089868883937
 21
267.9066181587206756
 31
0.0
  0
LINE
  5
2457B
  8
0
 10
4464.2045735961828541
 20
267.8066938803207222
 30
0.0
 11
4464.2360112891828976
 21
267.788524988020697
 31
0.0
  0
LINE
  5
2457C
  8
0
 10
4464.2045232949831188
 20
267.8657616649206261
 30
0.0
 11
4464.236089868883937
 21
267.8475723141626759
 31
0.0
  0
LINE
  5
2457D
  8
0
 10
4464.2045437066835802
 20
267.9838568929206986
 30
0.0
 11
4464.2360030747840938
 21
267.9656761244207246
 31
0.0
  0
LINE
  5
2457E
  8
0
 10
4465.0011048627839045
 20
267.785302135620725
 30
0.0
 11
4464.9695544357837207
 21
267.8033384051205985
 31
0.0
  0
LINE
  5
2457F
  8
0
 10
4465.0010707084838941
 20
267.8443605898207238
 30
0.0
 11
4464.9695544357837207
 21
267.8623935232205895
 31
0.0
  0
LINE
  5
24580
  8
0
 10
4465.001114209084335
 20
267.9034150302205717
 30
0.0
 11
4464.9695544357837207
 21
267.9214486413205805
 31
0.0
  0
LINE
  5
24581
  8
0
 10
4465.0011136288840135
 20
267.962472477020583
 30
0.0
 11
4464.9695544357837207
 21
267.9805029060207175
 31
0.0
  0
LINE
  5
24582
  8
0
 10
4464.236089868883937
 20
267.7275510035207162
 30
0.0
 11
4464.2479008924829031
 21
267.7157399799207269
 31
0.0
  0
LINE
  5
24583
  8
0
 10
4464.2045141239832446
 20
267.9248137173207169
 30
0.0
 11
4464.2042192504841296
 21
267.9251696981206123
 31
0.0
  0
LINE
  5
24584
  8
0
 10
4464.2045437066835802
 20
267.9838568929206986
 30
0.0
 11
4464.2042049242836583
 21
267.9842472707205729
 31
0.0
  0
LINE
  5
24585
  8
0
 10
4464.2045735961828541
 20
267.8066938803207222
 30
0.0
 11
4464.2042392914836455
 21
267.8070800044205839
 31
0.0
  0
LINE
  5
24586
  8
0
 10
4464.2045232949831188
 20
267.8657616649206261
 30
0.0
 11
4464.2042085730827239
 21
267.866134234020592
 31
0.0
  0
LINE
  5
24587
  8
0
 10
4465.001444166584406
 20
267.9030352643206925
 30
0.0
 11
4465.001114209084335
 21
267.9034150302205717
 31
0.0
  0
LINE
  5
24588
  8
0
 10
4465.0014357315840243
 20
267.7849202361206267
 30
0.0
 11
4465.0011048627839045
 21
267.785302135620725
 31
0.0
  0
LINE
  5
24589
  8
0
 10
4465.0014050131840122
 20
267.8439744658206223
 30
0.0
 11
4465.0010707084838941
 21
267.8443605898207238
 31
0.0
  0
LINE
  5
2458A
  8
0
 10
4465.0014331524826048
 20
267.962101678120689
 30
0.0
 11
4465.0011136288840135
 21
267.962472477020583
 31
0.0
  0
LINE
  5
2458B
  8
0
 10
4464.1720683245839609
 20
273.7728182023205932
 30
0.0
 11
4464.1539983288839721
 21
273.7668439166205872
 31
0.0
  0
LINE
  5
2458C
  8
0
 10
4464.3358942177001154
 20
276.6926213577888802
 30
0.0
 11
4464.3214127336796082
 21
276.5581664567459939
 31
0.0
  0
LINE
  5
2458D
  8
0
 10
4464.370547082741723
 20
276.9686574517619988
 30
0.0
 11
4464.3550584822378369
 21
276.8492415566690283
 31
0.0
  0
LINE
  5
2458E
  8
0
 10
4464.2081849896303538
 20
268.1990330039251944
 30
0.0
 11
4464.2033375504843207
 21
268.3967645368206263
 31
0.0
  0
LINE
  5
2458F
  8
0
 10
4464.1894363255842109
 20
268.1488108460205808
 30
0.0
 11
4464.1894363255842109
 21
268.0700706885206728
 31
0.0
  0
LINE
  5
24590
  8
0
 10
4464.2042049242836583
 20
267.991616128820624
 30
0.0
 11
4464.2042049242836583
 21
267.9842472707205729
 31
0.0
  0
LINE
  5
24591
  8
0
 10
4464.2042085730827239
 20
267.8735161238205933
 30
0.0
 11
4464.2042085730827239
 21
267.866134234020592
 31
0.0
  0
LINE
  5
24592
  8
0
 10
4464.2042192504841296
 20
267.9325623661205782
 30
0.0
 11
4464.2042192504841296
 21
267.925169698120726
 31
0.0
  0
LINE
  5
24593
  8
0
 10
4464.2042392914836455
 20
267.8144618941207113
 30
0.0
 11
4464.2042392914836455
 21
267.8070800044205839
 31
0.0
  0
LINE
  5
24594
  8
0
 10
4464.2360030747840938
 20
267.9656761244207246
 30
0.0
 11
4464.236089868883937
 21
267.9513857213207189
 31
0.0
  0
LINE
  5
24595
  8
0
 10
4464.236089868883937
 20
267.9066181587206188
 30
0.0
 11
4464.236089868883937
 21
267.8923246695018747
 31
0.0
  0
LINE
  5
24596
  8
0
 10
4464.236089868883937
 20
267.8475723141627896
 30
0.0
 11
4464.236089868883937
 21
267.8332789227205808
 31
0.0
  0
LINE
  5
24597
  8
0
 10
4464.2360112891828976
 20
267.788524988020697
 30
0.0
 11
4464.236089868883937
 21
267.7275510035207162
 31
0.0
  0
LINE
  5
24598
  8
0
 10
4464.2375091434842034
 20
267.7529386524207098
 30
0.0
 11
4464.2375091434842034
 21
267.7603205421207235
 31
0.0
  0
LINE
  5
24599
  8
0
 10
4464.2484914436827239
 20
267.9992045468205788
 30
0.0
 11
4464.2484914436827239
 21
268.0582596649206266
 31
0.0
  0
LINE
  5
2459A
  8
0
 10
4464.1592888801851586
 20
274.0733263113411908
 30
0.0
 11
4464.1475292794830239
 21
273.7921526639206036
 31
0.0
  0
LINE
  5
2459B
  8
0
 10
4464.1855560209805844
 20
274.656014954362206
 30
0.0
 11
4464.1790547818818595
 21
274.5202527412836844
 31
0.0
  0
LINE
  5
2459C
  8
0
 10
4464.2005340840305507
 20
274.9469528234670861
 30
0.0
 11
4464.1932066478811976
 21
274.8113785890731151
 31
0.0
  0
LINE
  5
2459D
  8
0
 10
4464.2785751613482716
 20
276.1111710243416155
 30
0.0
 11
4464.2676540781230869
 21
275.9769988784086081
 31
0.0
  0
LINE
  5
2459E
  8
0
 10
4464.4881526472827318
 20
276.5529249485206265
 30
0.0
 11
4464.4735709504839178
 21
275.9747816921207004
 31
0.0
  0
LINE
  5
2459F
  8
0
 10
4464.5410077714841464
 20
277.5037601223207275
 30
0.0
 11
4464.5373873390835797
 21
277.4044706075205795
 31
0.0
  0
LINE
  5
245A0
  8
0
 10
4464.9571528609840243
 20
267.9992045468205788
 30
0.0
 11
4464.9571528609840243
 21
268.0582596649206266
 31
0.0
  0
LINE
  5
245A1
  8
0
 10
4464.9695544357837207
 20
267.995375374320588
 30
0.0
 11
4464.9695544357837207
 21
267.9805029060207175
 31
0.0
  0
LINE
  5
245A2
  8
0
 10
4464.9695544357837207
 20
267.9360905787319211
 30
0.0
 11
4464.9695544357837207
 21
267.9214486413206942
 31
0.0
  0
LINE
  5
245A3
  8
0
 10
4464.9695544357837207
 20
267.8772356591205721
 30
0.0
 11
4464.9695544357837207
 21
267.8623935232205895
 31
0.0
  0
LINE
  5
245A4
  8
0
 10
4464.9695544357837207
 20
267.81818850602059
 30
0.0
 11
4464.9695544357837207
 21
267.8033384051205985
 31
0.0
  0
LINE
  5
245A5
  8
0
 10
4464.9695544357837207
 20
267.7589250815735227
 30
0.0
 11
4464.9695544357837207
 21
267.7275510035207162
 31
0.0
  0
LINE
  5
245A6
  8
0
 10
4465.0014050131840122
 20
267.836592576020621
 30
0.0
 11
4465.0014050131840122
 21
267.8439744658206223
 31
0.0
  0
LINE
  5
245A7
  8
0
 10
4465.0014331524844238
 20
267.9547129045205907
 30
0.0
 11
4465.0014331524844238
 21
267.9621016781205753
 31
0.0
  0
LINE
  5
245A8
  8
0
 10
4465.0014357315840243
 20
267.7775383463206254
 30
0.0
 11
4465.0014357315840243
 21
267.7849202361206267
 31
0.0
  0
LINE
  5
245A9
  8
0
 10
4465.001444166584406
 20
267.8956637722205869
 30
0.0
 11
4465.001444166584406
 21
267.9030352643205788
 31
0.0
  0
LINE
  5
245AA
  8
0
 10
4465.0162079790843563
 20
268.1488108460205808
 30
0.0
 11
4465.0162079790843563
 21
268.0700706885206728
 31
0.0
  0
LINE
  5
245AB
  8
0
 10
4464.9974587902852363
 20
268.1990330304205941
 30
0.0
 11
4465.0022020749829608
 21
268.3937191837205773
 31
0.0
  0
LINE
  5
245AC
  8
0
 10
4464.1295399311829897
 20
274.0743664117205753
 30
0.0
 11
4464.1767038872985722
 21
274.0727174375451227
 31
0.0
  0
LINE
  5
245AD
  8
0
 10
4464.2107667385844252
 20
274.0744673216207161
 30
0.0
 11
4464.274117101696902
 21
274.0722278754201966
 31
0.0
  0
LINE
  5
245AE
  8
0
 10
4464.1981771776827372
 20
274.2183666603207257
 30
0.0
 11
4464.2889379215830559
 21
274.2376991391207071
 31
0.0
  0
LINE
  5
245AF
  8
0
 10
4464.1169069343841329
 20
274.2187622258206261
 30
0.0
 11
4464.1866177815509218
 21
274.2335827671685138
 31
0.0
  0
LINE
  5
245B0
  8
0
 10
4464.2706505320838914
 20
274.2490593964205914
 30
0.0
 11
4464.2706618568827253
 21
274.2490597945205764
 31
0.0
  0
LINE
  5
245B1
  8
0
 10
4464.1404913745836893
 20
274.3663594822206733
 30
0.0
 11
4464.1872065249654042
 21
274.3639092829258743
 31
0.0
  0
LINE
  5
245B2
  8
0
 10
4464.2180762525840692
 20
274.3660963870206047
 30
0.0
 11
4464.2811985839671252
 21
274.3627610648215978
 31
0.0
  0
LINE
  5
245B3
  8
0
 10
4464.2079509577843055
 20
274.510894847820623
 30
0.0
 11
4464.2976822110840658
 21
274.5283768869206256
 31
0.0
  0
LINE
  5
245B4
  8
0
 10
4464.1303917052837278
 20
274.5107914821206236
 30
0.0
 11
4464.1968229023896129
 21
274.5237072863869798
 31
0.0
  0
LINE
  5
245B5
  8
0
 10
4464.1521920104842138
 20
274.6583494005207058
 30
0.0
 11
4464.2022989963988948
 21
274.6548434652618198
 31
0.0
  0
LINE
  5
245B6
  8
0
 10
4464.2259620242839446
 20
274.6581449434207229
 30
0.0
 11
4464.2919203024603121
 21
274.6535041255153828
 31
0.0
  0
LINE
  5
245B7
  8
0
 10
4464.2183719419836052
 20
274.8029723405206255
 30
0.0
 11
4464.3059836055072083
 21
274.8184595753247095
 31
0.0
  0
LINE
  5
245B8
  8
0
 10
4464.1446211745842447
 20
274.8028095565205717
 30
0.0
 11
4464.2127955806063255
 21
274.8148334942287079
 31
0.0
  0
LINE
  5
245B9
  8
0
 10
4464.2042192504841296
 20
267.9325623661205782
 30
0.0
 11
4464.2045476941830202
 21
267.9329449795205846
 31
0.0
  0
LINE
  5
245BA
  8
0
 10
4464.2042085730827239
 20
267.8735161238205933
 30
0.0
 11
4464.2045439633711794
 21
267.8738996862402928
 31
0.0
  0
LINE
  5
245BB
  8
0
 10
4464.2042392914836455
 20
267.8144618941207113
 30
0.0
 11
4464.2045718110839516
 21
267.8148464700205977
 31
0.0
  0
LINE
  5
245BC
  8
0
 10
4464.2042049242836583
 20
267.991616128820624
 30
0.0
 11
4464.2045382233827695
 21
267.9920034385207259
 31
0.0
  0
LINE
  5
245BD
  8
0
 10
4465.0010905162280324
 20
267.9543152577708724
 30
0.0
 11
4465.0014331524844238
 21
267.9547129045205907
 31
0.0
  0
LINE
  5
245BE
  8
0
 10
4465.0011081460843343
 20
267.7771592941206791
 30
0.0
 11
4465.0014357315840243
 21
267.7775383463206254
 31
0.0
  0
LINE
  5
245BF
  8
0
 10
4465.001111764982852
 20
267.8952869105207242
 30
0.0
 11
4465.001444166584406
 21
267.8956637722205869
 31
0.0
  0
LINE
  5
245C0
  8
0
 10
4464.9695544357837207
 20
267.7275510035207162
 30
0.0
 11
4464.9577434121838451
 21
267.7157399799207269
 31
0.0
  0
LINE
  5
245C1
  8
0
 10
4464.216996408184059
 20
267.9992045468205788
 30
0.0
 11
4464.2045382233827695
 21
267.9920034385207259
 31
0.0
  0
LINE
  5
245C2
  8
0
 10
4464.236089868883937
 20
267.9513857213207189
 30
0.0
 11
4464.2045476941830202
 21
267.9329449795205846
 31
0.0
  0
LINE
  5
245C3
  8
0
 10
4464.236089868883937
 20
267.8923246695018747
 30
0.0
 11
4464.2045439633711794
 21
267.8738996862402928
 31
0.0
  0
LINE
  5
245C4
  8
0
 10
4464.236089868883937
 20
267.8332789227205808
 30
0.0
 11
4464.2045718110839516
 21
267.8148464700205977
 31
0.0
  0
LINE
  5
245C5
  8
0
 10
4464.9695544357837207
 20
267.995375374320588
 30
0.0
 11
4464.9765460308854017
 21
267.9992045468205788
 31
0.0
  0
LINE
  5
245C6
  8
0
 10
4464.9695544357837207
 20
267.9360905787319211
 30
0.0
 11
4465.0010905162280324
 21
267.9543152577708724
 31
0.0
  0
LINE
  5
245C7
  8
0
 10
4464.9695544357837207
 20
267.8772356591204016
 30
0.0
 11
4465.001111764982852
 21
267.8952869105207242
 31
0.0
  0
LINE
  5
245C8
  8
0
 10
4464.2569418851089722
 20
267.7715400407954007
 30
0.0
 11
4464.2375091434842034
 21
267.7603205421207235
 31
0.0
  0
LINE
  5
245C9
  8
0
 10
4464.9695544357837207
 20
267.8181885060204763
 30
0.0
 11
4465.0010906656843872
 21
267.8362184050205883
 31
0.0
  0
LINE
  5
245CA
  8
0
 10
4464.9695544357837207
 20
267.7589250815735227
 30
0.0
 11
4465.0011081460843343
 21
267.7771592941206222
 31
0.0
  0
LINE
  5
245CB
  8
0
 10
4464.5346803832771911
 20
277.6807157442223115
 30
0.0
 11
4464.5304026852827519
 21
277.6806784133206065
 31
0.0
  0
ARC
  5
245CC
  8
0
 10
4465.1597920012500254
 20
268.3898312548863032
 30
0.0
 40
0.1576378788584626
 50
147.0431736733686137
 51
178.5867324194277046
  0
ARC
  5
245CD
  8
0
 10
4465.1570125679218108
 20
268.3916948015024104
 30
0.0
 40
0.1542919362986594
 50
145.0751114911714978
 51
147.062348182310501
  0
ARC
  5
245CE
  8
0
 10
4464.2475608343829663
 20
268.2000092928205959
 30
0.0
 40
0.039387946
 50
181.4203066738010079
 51
269.7047946216388254
  0
ARC
  5
245CF
  8
0
 10
4464.9580838517640586
 20
268.2000083651765863
 30
0.0
 40
0.0393870164051287
 50
270.2946575301820076
 51
358.5810481982338729
  0
ARC
  5
245D0
  8
0
 10
4465.0043969554835712
 20
268.0700706885206728
 30
0.0
 40
0.0118110236
 50
270.0
 51
0.0
  0
ARC
  5
245D1
  8
0
 10
4464.201247349183177
 20
268.0700706885206728
 30
0.0
 40
0.0118110236
 50
180.0
 51
270.0
  0
ARC
  5
245D2
  8
0
 10
4465.0043969554835712
 20
268.1488108460205808
 30
0.0
 40
0.0118110236
 50
0.0
 51
90.0
  0
ARC
  5
245D3
  8
0
 10
4464.201247349183177
 20
268.1488108460205808
 30
0.0
 40
0.0118110236
 50
90.0
 51
180.0
  0
ARC
  5
245D4
  8
0
 10
4464.3225844587832398
 20
274.2078956957207083
 30
0.0
 40
0.0471361637
 50
138.0178299121710097
 51
141.9285389467607956
  0
ARC
  5
245D5
  8
0
 10
4466.7094593993997478
 20
277.2747674247473242
 30
0.0
 40
9.1305681946635442
 50
255.4499404802589027
 51
255.9753260386208069
  0
ARC
  5
245D6
  8
0
 10
4466.40095532808391
 20
274.5969607118206
 30
0.0
 40
2.282993865099999
 50
183.5143023887987965
 51
184.402812885698097
  0
ARC
  5
245D7
  8
0
 10
4465.9180687581783786
 20
274.8214554775564125
 30
0.0
 40
1.783944465876298
 50
181.1979240454388105
 51
183.4923981543525997
  0
ARC
  5
245D8
  8
0
 10
4464.6767719883100654
 20
274.5002829172036058
 30
0.0
 40
0.5562026455850049
 50
180.5096863197117045
 51
184.4612841833078107
  0
ARC
  5
245D9
  8
0
 10
4464.5305057521345589
 20
277.6688679087669129
 30
0.0
 40
0.0118109542624617
 50
90.4999909722577769
 51
157.6336667023979885
  0
LINE
  5
245DA
  8
0
 10
4465.0010906656843872
 20
267.8362184050205883
 30
0.0
 11
4465.0014050131840122
 21
267.836592576020621
 31
0.0
  0
LINE
  5
245DB
  8
0
 10
4464.6019650667831229
 20
277.7913063672207272
 30
0.0
 11
4464.6019650667831229
 21
268.3947147227252117
 31
0.0
  0
ARC
  5
245DC
  8
0
 10
4464.6717836138850544
 20
268.7087450751262736
 30
0.0
 40
0.4254351906776329
 50
327.4789740146076156
 51
343.7622380491065996
  0
ARC
  5
245DD
  8
0
 10
4464.0452371992278131
 20
268.8846844791771105
 30
0.0
 40
1.0762035915422921
 50
344.0963809720640256
 51
357.2035902351739765
  0
ARC
  5
245DE
  8
0
 10
4457.2273235235652464
 20
269.4112582952520825
 30
0.0
 40
7.9140500321678751
 50
355.803861900978518
 51
0.8134382385988452
  0
ARC
  5
245DF
  8
0
 10
4391.9917334509973443
 20
269.9606363769133281
 30
0.0
 40
73.1501480222269294
 50
359.6576928357447969
 51
1.6139753461531909
  0
ARC
  5
245E0
  8
0
 10
4364.1792235247712597
 20
269.7984985614818925
 30
0.0
 40
100.9581023484865057
 50
1.26138485718382
 51
2.7006211357217649
  0
ARC
  5
245E1
  8
0
 10
4423.8548563593358267
 20
272.7323158650942219
 30
0.0
 40
41.2106851676265222
 50
2.535444095439654
 51
4.820866338535108
  0
ARC
  5
245E2
  8
0
 10
4452.981198222668354
 20
275.2472292036919157
 30
0.0
 40
11.97616931850418
 50
4.5423471309613523
 51
9.3118304078996808
  0
ARC
  5
245E3
  8
0
 10
4456.1339329826550966
 20
275.5679815832888266
 30
0.0
 40
8.8152065170156462
 50
10.5703344165687092
 51
13.1938741082297906
  0
ARC
  5
245E4
  8
0
 10
4464.1375554428759642
 20
277.439200176144027
 30
0.0
 40
0.5957743542376494
 50
13.6724622716693691
 51
28.5283686721665504
  0
ARC
  5
245E5
  8
0
 10
4464.4751051221519447
 20
277.6346563760311028
 30
0.0
 40
0.2061292653303509
 50
25.6050660845499394
 51
40.6249866103428303
  0
ARC
  5
245E6
  8
0
 10
4461.452857543027676
 20
275.4070480590793863
 30
0.0
 40
3.96008961628291
 50
36.6129089503278493
 51
36.8744414264818019
  0
ARC
  5
245E7
  8
0
 10
4464.6028225540731
 20
277.76719166592801
 30
0.0
 40
0.0241299420405882
 50
42.0489471266573602
 51
138.0512309227430023
  0
ARC
  5
245E8
  8
0
 10
4464.550076869246368
 20
277.695988280967299
 30
0.0
 40
0.0198422922469245
 50
184.7695181727256113
 51
202.3349244654216079
  0
ARC
  5
245E9
  8
0
 10
4464.5420657963531994
 20
277.6949555218728278
 30
0.0
 40
0.011778685634128
 50
154.3006876545927923
 51
183.0030827675745968
  0
ARC
  5
245EA
  8
0
 10
4464.8715703684247273
 20
277.5405912402546278
 30
0.0
 40
0.3756483643044878
 50
139.7469919334374993
 51
154.8794044915314032
  0
ARC
  5
245EB
  8
0
 10
4464.4308421131490832
 20
277.6454333508386867
 30
0.0
 40
0.109668744981946
 50
12.0628189876106706
 51
23.0928107026135301
  0
ARC
  5
245EC
  8
0
 10
4464.3664042483705998
 20
277.6343382931938777
 30
0.0
 40
0.1750220082070143
 50
0.3836378023420529
 51
11.2062689668097999
  0
ARC
  5
245ED
  8
0
 10
4462.4703031447252215
 20
277.5761514384595898
 30
0.0
 40
2.071969631518582
 50
357.9977693029169927
 51
1.6416607159275689
  0
ARC
  5
245EE
  8
0
 10
4480.1275103226862484
 20
276.0758842652808767
 30
0.0
 40
15.6466314685504493
 50
175.1290370302507995
 51
178.2528728900961141
  0
ARC
  5
245EF
  8
0
 10
4465.5025143668290184
 20
264.7743268340371969
 30
0.0
 40
3.734799857475851
 50
97.2704436036563038
 51
99.6259289997833264
  0
ARC
  5
245F0
  8
0
 10
4468.3420305797681067
 20
253.3570129497036874
 30
0.0
 40
15.4917816492306404
 50
102.920825436234594
 51
103.7115821125585029
  0
ARC
  5
245F1
  8
0
 10
4465.1263926674282629
 20
266.162480838085628
 30
0.0
 40
2.2907529677089951
 50
101.4935341668144986
 51
102.6791719387577047
  0
ARC
  5
245F2
  8
0
 10
4464.6026154918190514
 20
268.4784161662113888
 30
0.0
 40
0.0837143447169132
 50
273.6378555801031212
 51
284.5111863010479851
  0
ARC
  5
245F3
  8
0
 10
4464.6028112827407313
 20
268.4764973516087139
 30
0.0
 40
0.0817870067219715
 50
263.4440575673422131
 51
273.5862617024994279
  0
ARC
  5
245F4
  8
0
 10
4464.6035589163166151
 20
268.481139849017211
 30
0.0
 40
0.0864847674673555
 50
256.3434608835545987
 51
263.3031475140704174
  0
ARC
  5
245F5
  8
0
 10
4465.069966651904906
 20
270.7828285861988888
 30
0.0
 40
2.434892328861272
 50
256.3839992601475046
 51
258.4666813300931949
  0
ARC
  5
245F6
  8
0
 10
4464.10556212800293
 20
267.2486098399340904
 30
0.0
 40
1.2282027237717801
 50
75.3773001369313818
 51
81.7980240907371154
  0
ARC
  5
245F7
  8
0
 10
4464.8288127967225591
 20
272.5067812965369853
 30
0.0
 40
4.079509842181519
 50
260.7800192816330878
 51
262.2796825938169718
  0
ARC
  5
245F8
  8
0
 10
4464.0446513574743221
 20
268.3894250284524219
 30
0.0
 40
0.1588558347517172
 50
2.6481407471903382
 51
34.7519958446276078
  0
ARC
  5
245F9
  8
0
 10
4464.5025080797913688
 20
268.6916238467018729
 30
0.0
 40
0.3897994329319379
 50
204.2898447800149881
 51
212.8856226680769055
  0
ARC
  5
245FA
  8
0
 10
4464.9097654380439053
 20
268.8362027733110722
 30
0.0
 40
0.8212560887116062
 50
183.9307554159389895
 51
201.7951854240957914
  0
ARC
  5
245FB
  8
0
 10
4470.1234403208036383
 20
269.3216579881787993
 30
0.0
 40
6.0572744763274242
 50
179.6316901935572048
 51
185.131300024229688
  0
ARC
  5
245FC
  8
0
 10
4530.8666717047663042
 20
269.876575242961394
 30
0.0
 40
66.8023734502353648
 50
179.1181361105350902
 51
180.442555719090393
  0
ARC
  5
245FD
  8
0
 10
4579.0266911305252506
 20
269.3507244979065831
 30
0.0
 40
114.9649836551868987
 50
177.8039054160165051
 51
179.2255031744431903
  0
ARC
  5
245FE
  8
0
 10
4464.1581903662790864
 20
273.7555357428133789
 30
0.0
 40
0.0120601812746499
 50
110.340176940869199
 51
177.0908686923326911
  0
ARC
  5
245FF
  8
0
 10
4464.1600514724514142
 20
273.7919817239828717
 30
0.0
 40
0.0125233596602836
 50
179.2179062646019929
 51
265.951170852744383
  0
ARC
  5
24600
  8
0
 10
4464.221432536471184
 20
274.0293367671367264
 30
0.0
 40
0.2339263655613118
 50
290.2406326989358263
 51
355.9770657692316149
  0
ARC
  5
24601
  8
0
 10
4464.9512112348284063
 20
271.2795805307538899
 30
0.0
 40
2.6121442842048381
 50
104.382672246325896
 51
107.3541531384753966
  0
ARC
  5
24602
  8
0
 10
4631.7333665853529965
 20
273.3919391688693281
 30
0.0
 40
167.2797367026805944
 50
179.1153031485283122
 51
179.7873025308643946
  0
ARC
  5
24603
  8
0
 10
4464.2626439566111003
 20
274.0877760130298952
 30
0.0
 40
0.019322982204732
 50
229.5268227567646022
 51
306.4240320674072109
  0
ARC
  5
24604
  8
0
 10
4464.1857896760539006
 20
274.163538489934524
 30
0.0
 40
0.1270407904705937
 50
314.0485955992091931
 51
35.7150587213652173
  0
ARC
  5
24605
  8
0
 10
4464.2653023440961988
 20
274.2200570383913032
 30
0.0
 40
0.0294938000335647
 50
36.7384455029374735
 51
79.5302376555835622
  0
ARC
  5
24606
  8
0
 10
4464.275323707393909
 20
274.2140623350076112
 30
0.0
 40
0.0353065861072834
 50
97.5874411102833932
 51
156.9633690812675866
  0
ARC
  5
24607
  8
0
 10
4464.2114076184634541
 20
274.0873810907810935
 30
0.0
 40
0.0129296620585767
 50
208.2207335902203056
 51
267.1588766548356944
  0
ARC
  5
24608
  8
0
 10
4464.3656611519118087
 20
274.138267873467214
 30
0.0
 40
0.1751792898338413
 50
182.8537360123895894
 51
198.9889412388421022
  0
ARC
  5
24609
  8
0
 10
4464.6685566220330657
 20
274.1881616475967007
 30
0.0
 40
0.4814390559010279
 50
178.305903415099408
 51
186.9931267229110006
  0
ARC
  5
2460A
  8
0
 10
4464.210293350086431
 20
274.201715631672414
 30
0.0
 40
0.0229753856958875
 50
153.8928136415734969
 51
178.3066657807956119
  0
ARC
  5
2460B
  8
0
 10
4464.2009094277973418
 20
274.2059965332605884
 30
0.0
 40
0.012668276684637
 50
102.455221571241097
 51
152.6024447855940025
  0
ARC
  5
2460C
  8
0
 10
4464.3088439193788872
 20
274.1555484518619892
 30
0.0
 40
0.1166381876333407
 50
175.5696387674717016
 51
194.4303619397659872
  0
ARC
  5
2460D
  8
0
 10
4464.0820798986478621
 20
274.1357091693421921
 30
0.0
 40
0.1141790842153008
 50
355.3646192220380726
 51
14.6353814851945696
  0
ARC
  5
2460E
  8
0
 10
4464.1828829418127498
 20
274.0732414835229065
 30
0.0
 40
0.0197298475239468
 50
180.1460063942290049
 51
221.8302739620760065
  0
ARC
  5
2460F
  8
0
 10
4464.1571913082898391
 20
274.0766877730166016
 30
0.0
 40
0.0199124158099256
 50
303.500198501991008
 51
348.4987131121854986
  0
ARC
  5
24610
  8
0
 10
4463.9055931444090675
 20
274.1602752560013982
 30
0.0
 40
0.2848989408251241
 50
342.1016392254580865
 51
355.6468649369804211
  0
ARC
  5
24611
  8
0
 10
4463.9770219583160724
 20
274.1931637962258037
 30
0.0
 40
0.2134574953696627
 50
5.0156679695817656
 51
13.8573443400646497
  0
ARC
  5
24612
  8
0
 10
4464.1468948167766939
 20
274.2364232020947838
 30
0.0
 40
0.0381905623356727
 50
11.8842709395594497
 51
32.481028030361152
  0
ARC
  5
24613
  8
0
 10
4464.1758668220436448
 20
274.2547104846245247
 30
0.0
 40
0.0039322405881748
 50
34.4042206556088104
 51
72.9121268257071904
  0
ARC
  5
24614
  8
0
 10
4464.1766624105675874
 20
274.2564432980706215
 30
0.0
 40
0.0020575517387196
 50
79.9275155519677156
 51
133.5881517657886093
  0
ARC
  5
24615
  8
0
 10
4464.1808346123680167
 20
274.2520976669898118
 30
0.0
 40
0.0080818033794833
 50
133.7710944838113107
 51
164.5204834158510039
  0
ARC
  5
24616
  8
0
 10
4464.3019455803250821
 20
274.2152311915223777
 30
0.0
 40
0.1346771702727339
 50
163.1566775592270062
 51
173.861176478509492
  0
ARC
  5
24617
  8
0
 10
4464.2380345678438971
 20
274.2223763751422894
 30
0.0
 40
0.0566219368437473
 50
159.9084359804346889
 51
169.5184022388228016
  0
ARC
  5
24618
  8
0
 10
4464.1197274970727449
 20
274.2066476790287197
 30
0.0
 40
0.0124385617278559
 50
103.1063677703871946
 51
184.8924165808682858
  0
ARC
  5
24619
  8
0
 10
4464.1300866505416707
 20
274.0865219985046224
 30
0.0
 40
0.0121678754151533
 50
190.7913317505017119
 51
267.4247549227068248
  0
ARC
  5
2461A
  8
0
 10
4465.9605292028982149
 20
274.309371644744374
 30
0.0
 40
1.8560988122225639
 50
183.2053969081759135
 51
186.9666091560524137
  0
ARC
  5
2461B
  8
0
 10
4463.7470457331974103
 20
274.1136529856182165
 30
0.0
 40
0.3677543871248447
 50
2.0014432177040531
 51
7.9985563495722038
  0
ARC
  5
2461C
  8
0
 10
4464.4812780294523691
 20
274.1778899851411211
 30
0.0
 40
0.3702861293672575
 50
182.0219636723215899
 51
187.9780358949601862
  0
ARC
  5
2461D
  8
0
 10
4497.1345100417402136
 20
272.8863696391892972
 30
0.0
 40
32.9960377759316685
 50
177.4320544345353028
 51
177.6676784124931032
  0
ARC
  5
2461E
  8
0
 10
4464.1411222670330972
 20
274.37823444285101
 30
0.0
 40
0.0118917078358602
 50
217.5795181960891966
 51
266.9588511887872073
  0
ARC
  5
2461F
  8
0
 10
4464.1432450616193819
 20
274.3795072293663111
 30
0.0
 40
0.0143531109786522
 50
187.2117237230617945
 51
216.4380929971995045
  0
ARC
  5
24620
  8
0
 10
4464.9139192498787452
 20
274.4767533601914238
 30
0.0
 40
0.79113848223318
 50
183.990303704608209
 51
187.1921180280413068
  0
ARC
  5
24621
  8
0
 10
4464.1390903034762232
 20
274.4970891147726775
 30
0.0
 40
0.018581916442708
 50
157.2858181748574111
 51
185.4162102560426035
  0
ARC
  5
24622
  8
0
 10
4464.1326385881939132
 20
274.4991521061467097
 30
0.0
 40
0.0118485988145664
 50
115.3152820898914968
 51
154.4401299016820133
  0
ARC
  5
24623
  8
0
 10
4464.1326845053117722
 20
274.4990849789766116
 30
0.0
 40
0.0119289206480437
 50
101.081502500770597
 51
115.376781283463103
  0
ARC
  5
24624
  8
0
 10
4464.2709690105302798
 20
274.3771682646220142
 30
0.0
 40
0.0176695098630555
 50
228.5747475432829106
 51
305.3759722543738917
  0
ARC
  5
24625
  8
0
 10
4464.18842191062231
 20
274.4556232753266158
 30
0.0
 40
0.1312665275564695
 50
314.973599722980282
 51
33.6586205042119673
  0
ARC
  5
24626
  8
0
 10
4464.2728948161466178
 20
274.5116031593444745
 30
0.0
 40
0.0299294651557388
 50
34.0863663945722806
 51
76.6053780440049366
  0
ARC
  5
24627
  8
0
 10
4464.2809161919449252
 20
274.5162219151711156
 30
0.0
 40
0.0245207071748174
 50
92.5431283393524353
 51
129.1353964132327974
  0
ARC
  5
24628
  8
0
 10
4464.2995171116681377
 20
274.4947686730810119
 30
0.0
 40
0.0529085682648506
 50
130.0966454722787091
 51
151.9654983250665907
  0
ARC
  5
24629
  8
0
 10
4464.2188369941777637
 20
274.378731875213191
 30
0.0
 40
0.012658368363313
 50
216.0812931358607045
 51
266.5545672040391878
  0
ARC
  5
2462A
  8
0
 10
4464.243698224320724
 20
274.3915936484004874
 30
0.0
 40
0.0405485075896088
 50
187.3107222653952135
 51
210.069276658565002
  0
ARC
  5
2462B
  8
0
 10
4464.7870080365191825
 20
274.4796540024768206
 30
0.0
 40
0.5909278522202035
 50
180.2270098567848038
 51
189.0764491115388068
  0
ARC
  5
2462C
  8
0
 10
4464.31974263218126
 20
274.4800541721867262
 30
0.0
 40
0.1236881946918291
 50
170.4888402938913998
 51
181.2700241556919138
  0
ARC
  5
2462D
  8
0
 10
4464.21085995714202
 20
274.4978452459467917
 30
0.0
 40
0.0133699059955265
 50
102.5668255599552054
 51
168.5804710477083859
  0
ARC
  5
2462E
  8
0
 10
4464.089674154702152
 20
274.429887696718481
 30
0.0
 40
0.11497424272014
 50
354.3537432933504761
 51
13.6296100864703806
  0
ARC
  5
2462F
  8
0
 10
4464.3179145842914295
 20
274.4458145042314072
 30
0.0
 40
0.117037821980533
 50
174.525254548819305
 51
193.4580988310013083
  0
ARC
  5
24630
  8
0
 10
4464.2023319277686824
 20
274.3625254243697782
 30
0.0
 40
0.0272231745023024
 50
175.7563292791828928
 51
215.4882648395723095
  0
ARC
  5
24631
  8
0
 10
4464.2156694728337243
 20
274.5226383511542281
 30
0.0
 40
0.0340284346911638
 50
137.448245909198306
 51
183.154864384814914
  0
ARC
  5
24632
  8
0
 10
4463.9290167621184082
 20
274.459635062898883
 30
0.0
 40
0.275364083697747
 50
335.791879544090591
 51
349.848423358663922
  0
ARC
  5
24633
  8
0
 10
4463.9290167621184082
 20
274.459635062898883
 30
0.0
 40
0.275364083697747
 50
9.7342063687694562
 51
18.2020587484002689
  0
ARC
  5
24634
  8
0
 10
4464.2835894867848765
 20
274.6729177111296281
 30
0.0
 40
0.0247559553780599
 50
225.3202607432195919
 51
245.7098905847358878
  0
ARC
  5
24635
  8
0
 10
4464.281854133429988
 20
274.6695606852265996
 30
0.0
 40
0.0209832234985802
 50
246.2581768401533964
 51
268.106174354361201
  0
ARC
  5
24636
  8
0
 10
4464.278700913450848
 20
274.6682077444638139
 30
0.0
 40
0.0197724215996916
 50
277.1463654101962106
 51
311.9573422511772947
  0
ARC
  5
24637
  8
0
 10
4464.228648195587084
 20
274.7228527260911051
 30
0.0
 40
0.0938753850049227
 50
312.3766229828777909
 51
342.2800641961925976
  0
ARC
  5
24638
  8
0
 10
4464.1840158816958137
 20
274.7439109435615023
 30
0.0
 40
0.1429462281752251
 50
339.6840111040453962
 51
31.4339435658266986
  0
ARC
  5
24639
  8
0
 10
4464.2820746116558439
 20
274.8029283212281939
 30
0.0
 40
0.0285106969319767
 50
33.0077056298351224
 51
74.6970777669567667
  0
ARC
  5
2463A
  8
0
 10
4464.3065077844503321
 20
274.7893725629264736
 30
0.0
 40
0.0469605721186116
 50
132.3409291641883101
 51
152.2992119338080101
  0
ARC
  5
2463B
  8
0
 10
4464.2919973058160394
 20
274.8053202542897111
 30
0.0
 40
0.0253994409596546
 50
107.8000354232065945
 51
132.3770146188367107
  0
ARC
  5
2463C
  8
0
 10
4464.2904708102360019
 20
274.8093279106611249
 30
0.0
 40
0.0211182248880808
 50
92.3653834618781246
 51
107.1806317379985956
  0
ARC
  5
2463D
  8
0
 10
4464.0987084078587941
 20
274.7241790930257253
 30
0.0
 40
0.1149471932230951
 50
353.3856682175148194
 51
12.5230585902686595
  0
ARC
  5
2463E
  8
0
 10
4464.3249495047621167
 20
274.7358551960215891
 30
0.0
 40
0.1147956597432313
 50
173.372918279271488
 51
192.5358085285226935
  0
ARC
  5
2463F
  8
0
 10
4464.2269211010197978
 20
274.670729656083779
 30
0.0
 40
0.0126212052118408
 50
215.2440052610332089
 51
265.6419319072538201
  0
ARC
  5
24640
  8
0
 10
4464.2452331638887699
 20
274.6805850785734719
 30
0.0
 40
0.0333590532908781
 50
187.0138009308647042
 51
210.9147371800501105
  0
ARC
  5
24641
  8
0
 10
4464.7354848838012913
 20
274.756755782035782
 30
0.0
 40
0.5294771024790313
 50
181.0798634235841007
 51
188.7169667090198004
  0
ARC
  5
24642
  8
0
 10
4464.6660626029606647
 20
274.758632283359475
 30
0.0
 40
0.4601135361845519
 50
176.6672132060390936
 51
181.4764179631233105
  0
ARC
  5
24643
  8
0
 10
4464.2351640279966887
 20
274.7840900875510215
 30
0.0
 40
0.0284660687404785
 50
152.856681552664611
 51
177.4005416860424873
  0
ARC
  5
24644
  8
0
 10
4464.2206494612091774
 20
274.7905420331726987
 30
0.0
 40
0.0126372320777163
 50
100.3827461853616967
 51
148.8617060269322963
  0
ARC
  5
24645
  8
0
 10
4464.1161012516213304
 20
274.6939857575608244
 30
0.0
 40
0.0946687395679271
 50
324.4331000632215023
 51
356.0991492986433968
  0
ARC
  5
24646
  8
0
 10
4464.2242279167958259
 20
274.6563448892488282
 30
0.0
 40
0.0356652347948581
 50
180.8684921238480001
 51
209.24394257801859
  0
ARC
  5
24647
  8
0
 10
4464.1535637095430502
 20
274.6711153670847807
 30
0.0
 40
0.0128394493896318
 50
180.0333502832019974
 51
263.8671166938950137
  0
ARC
  5
24648
  8
0
 10
4465.0197863257708377
 20
274.7614064443419011
 30
0.0
 40
0.8836876935041061
 50
183.1540990447842887
 51
185.8649362891752901
  0
ARC
  5
24649
  8
0
 10
4464.0828920084168203
 20
274.7910545447231243
 30
0.0
 40
0.1320620176543039
 50
4.5801041220736494
 51
19.1480879460400608
  0
ARC
  5
2464A
  8
0
 10
4464.1977444461117557
 20
274.8309307487485853
 30
0.0
 40
0.0104840838407359
 50
19.1635935145820611
 51
46.2012668234243975
  0
ARC
  5
2464B
  8
0
 10
4464.2036417292792976
 20
274.8371618633602225
 30
0.0
 40
0.0019057767075116
 50
44.5111298958620694
 51
142.0645307488593119
  0
ARC
  5
2464C
  8
0
 10
4464.2696165584284245
 20
274.8077857969345814
 30
0.0
 40
0.0740704475582074
 50
155.6434327042761936
 51
176.8852339101796929
  0
ARC
  5
2464D
  8
0
 10
4464.1846988603056161
 20
274.7862679123520024
 30
0.0
 40
0.0502289225047819
 50
172.1685908366077058
 51
182.4052035402121135
  0
ARC
  5
2464E
  8
0
 10
4464.1469593784886456
 20
274.7908840435611069
 30
0.0
 40
0.0122256978627187
 50
127.8652079663600034
 51
169.4998157287396054
  0
ARC
  5
2464F
  8
0
 10
4464.1467138456700923
 20
274.791049888798625
 30
0.0
 40
0.011944415314486
 50
100.0903431251814055
 51
127.4236960512003947
  0
LINE
  5
24650
  8
0
 10
4464.1660423281628027
 20
274.9493661768315178
 30
0.0
 11
4464.2161493140783932
 21
274.945860241572575
 31
0.0
  0
LINE
  5
24651
  8
0
 10
4464.239812341963443
 20
274.9491617197314781
 30
0.0
 11
4464.3057706201379915
 21
274.9445209018261949
 31
0.0
  0
LINE
  5
24652
  8
0
 10
4464.2322222596631036
 20
275.0939891168314944
 30
0.0
 11
4464.3198339231867067
 21
275.1094763516355783
 31
0.0
  0
LINE
  5
24653
  8
0
 10
4464.1584714922637431
 20
275.0938263328316111
 30
0.0
 11
4464.2266458982849144
 21
275.1058502705395767
 31
0.0
  0
ARC
  5
24654
  8
0
 10
4465.931919075857877
 20
275.1124722538672245
 30
0.0
 40
1.783944465876298
 50
181.1979240454388105
 51
183.4923981543525997
  0
ARC
  5
24655
  8
0
 10
4464.2974398044643749
 20
274.9639344874403832
 30
0.0
 40
0.0247559553780599
 50
225.3202607432195919
 51
245.7098905847358878
  0
ARC
  5
24656
  8
0
 10
4464.2957044511085769
 20
274.9605774615374116
 30
0.0
 40
0.0209832234985802
 50
246.2581768401533964
 51
268.106174354361201
  0
ARC
  5
24657
  8
0
 10
4464.2925512311312559
 20
274.9592245207747965
 30
0.0
 40
0.0197724215996916
 50
277.1463654101962106
 51
311.9573422511772947
  0
ARC
  5
24658
  8
0
 10
4464.242498513265673
 20
275.0138695024019739
 30
0.0
 40
0.0938753850049227
 50
312.3766229828777909
 51
342.2800641961925976
  0
ARC
  5
24659
  8
0
 10
4464.1978661993753121
 20
275.034927719872428
 30
0.0
 40
0.1429462281752251
 50
339.6840111040453962
 51
31.4339435658266986
  0
ARC
  5
2465A
  8
0
 10
4464.2959249293353423
 20
275.0939450975391196
 30
0.0
 40
0.0285106969319767
 50
33.0077056298351224
 51
74.6970777669567667
  0
ARC
  5
2465B
  8
0
 10
4464.3203581021298305
 20
275.0803893392372856
 30
0.0
 40
0.0469605721186116
 50
132.3409291641883101
 51
152.2992119338051111
  0
ARC
  5
2465C
  8
0
 10
4464.3058476234964473
 20
275.0963370306005231
 30
0.0
 40
0.0253994409596546
 50
107.8000354232065945
 51
132.3770146188367107
  0
ARC
  5
2465D
  8
0
 10
4464.3043211279145908
 20
275.1003446869721074
 30
0.0
 40
0.0211182248880808
 50
92.3653834618781246
 51
107.1806317379985956
  0
ARC
  5
2465E
  8
0
 10
4464.112558725537383
 20
275.0151958693365941
 30
0.0
 40
0.1149471932230951
 50
353.3856682175148194
 51
12.5230585902686595
  0
ARC
  5
2465F
  8
0
 10
4464.3387998224407056
 20
275.0268719723325148
 30
0.0
 40
0.1147956597432313
 50
173.372918279271488
 51
192.5358085285226935
  0
ARC
  5
24660
  8
0
 10
4464.2407714186992962
 20
274.9617464323947047
 30
0.0
 40
0.0126212052118408
 50
215.2440052610332089
 51
265.6419319072538201
  0
ARC
  5
24661
  8
0
 10
4464.2590834815691778
 20
274.9716018548843977
 30
0.0
 40
0.0333590532908781
 50
187.0138009308647042
 51
210.9147371800501105
  0
ARC
  5
24662
  8
0
 10
4464.7493352014807897
 20
275.0477725583467077
 30
0.0
 40
0.5294771024790313
 50
181.0798634235841007
 51
188.7169667090198004
  0
ARC
  5
24663
  8
0
 10
4464.6799129206410726
 20
275.0496490596705144
 30
0.0
 40
0.4601135361845519
 50
176.6672132060390936
 51
181.4764179631233105
  0
ARC
  5
24664
  8
0
 10
4464.2490143456770966
 20
275.0751068638618904
 30
0.0
 40
0.0284660687404785
 50
152.856681552664611
 51
177.4005416860424873
  0
ARC
  5
24665
  8
0
 10
4464.2344997788877663
 20
275.0815588094835107
 30
0.0
 40
0.0126372320777163
 50
100.3827461853616967
 51
148.8617060269322963
  0
ARC
  5
24666
  8
0
 10
4464.1299515692999194
 20
274.9850025338715795
 30
0.0
 40
0.0946687395679271
 50
324.4331000632215023
 51
356.0991492986433968
  0
ARC
  5
24667
  8
0
 10
4464.2380782344753243
 20
274.947361665559697
 30
0.0
 40
0.0356652347948581
 50
180.8684921238480001
 51
209.24394257801859
  0
ARC
  5
24668
  8
0
 10
4464.1674140272225486
 20
274.9621321433957064
 30
0.0
 40
0.0128394493896318
 50
180.0333502832019974
 51
263.8671166938950137
  0
ARC
  5
24669
  8
0
 10
4465.0336366434512456
 20
275.0524232206528268
 30
0.0
 40
0.8836876935041061
 50
183.1540990447842887
 51
185.8649362891752901
  0
ARC
  5
2466A
  8
0
 10
4464.0967423260972282
 20
275.0820713210341069
 30
0.0
 40
0.1320620176543039
 50
4.5801041220736494
 51
19.1480879460400608
  0
ARC
  5
2466B
  8
0
 10
4464.2115947637912541
 20
275.1219475250596247
 30
0.0
 40
0.0104840838407359
 50
19.1635935145820611
 51
46.2012668234243975
  0
ARC
  5
2466C
  8
0
 10
4464.2174920469597055
 20
275.1281786396710913
 30
0.0
 40
0.0019057767075116
 50
44.5111298958620694
 51
142.0645307488593119
  0
ARC
  5
2466D
  8
0
 10
4464.2834668761079229
 20
275.0988025732455071
 30
0.0
 40
0.0740704475582074
 50
155.6434327042761936
 51
176.8852339101796929
  0
ARC
  5
2466E
  8
0
 10
4464.198549177986024
 20
275.0772846886629281
 30
0.0
 40
0.0502289225047819
 50
172.1685908366077058
 51
182.4052035402121135
  0
ARC
  5
2466F
  8
0
 10
4464.160809696168144
 20
275.0819008198719757
 30
0.0
 40
0.0122256978627187
 50
127.8652079663600034
 51
169.4998157287396054
  0
ARC
  5
24670
  8
0
 10
4464.1605641633486812
 20
275.0820666651094939
 30
0.0
 40
0.011944415314486
 50
100.0903431251814055
 51
127.4236960512003947
  0
LINE
  5
24671
  8
0
 10
4464.1830058682489835
 20
275.2413083707887722
 30
0.0
 11
4464.2331195677379583
 21
275.2378997430470804
 31
0.0
  0
LINE
  5
24672
  8
0
 10
4464.2567761399886876
 20
275.241247165342088
 30
0.0
 11
4464.3227433056381415
 21
275.2367344381332828
 31
0.0
  0
LINE
  5
24673
  8
0
 10
4464.2489048370207456
 20
275.3860595504812068
 30
0.0
 11
4464.3364862612688739
 21
275.401716885941994
 31
0.0
  0
LINE
  5
24674
  8
0
 10
4464.1751545247761896
 20
275.385753552894073
 30
0.0
 11
4464.243305453420362
 21
275.3979098532955732
 31
0.0
  0
ARC
  5
24675
  8
0
 10
4465.9485625568540854
 20
275.4078432312002178
 30
0.0
 40
1.783944465876298
 50
181.3091846754917071
 51
183.6036587844045869
  0
ARC
  5
24676
  8
0
 10
4464.3143748071461232
 20
275.2561318098411789
 30
0.0
 40
0.0247559553780599
 50
225.4315213732799066
 51
245.8211512148239137
  0
ARC
  5
24677
  8
0
 10
4464.3126459759469071
 20
275.2527714204489939
 30
0.0
 40
0.0209832234985802
 50
246.3694374702243977
 51
268.2174349844494259
  0
ARC
  5
24678
  8
0
 10
4464.3094953891395562
 20
275.2514123591155908
 30
0.0
 40
0.0197724215996916
 50
277.2576260402690878
 51
312.068602881239201
  0
ARC
  5
24679
  8
0
 10
4464.2593366525716192
 20
275.3059600421883033
 30
0.0
 40
0.0938753850049227
 50
312.4878836129087745
 51
342.3913248262405205
  0
ARC
  5
2467A
  8
0
 10
4464.2146635306571625
 20
275.3269315501116239
 30
0.0
 40
0.1429462281752251
 50
339.7952717340983213
 51
31.5452041958805296
  0
ARC
  5
2467B
  8
0
 10
4464.3126074720657925
 20
275.3861392331353954
 30
0.0
 40
0.0285106969319767
 50
33.1189662598905912
 51
74.8083383969900524
  0
ARC
  5
2467C
  8
0
 10
4464.337066922221311
 20
275.3726309462686004
 30
0.0
 40
0.0469605721186116
 50
132.4521897942084081
 51
152.410472563870286
  0
ARC
  5
2467D
  8
0
 10
4464.3225255027118692
 20
275.3885504302007803
 30
0.0
 40
0.0253994409596546
 50
107.9112960532734036
 51
132.4882752488670974
  0
ARC
  5
2467E
  8
0
 10
4464.3209912276888645
 20
275.3925551147706869
 30
0.0
 40
0.0211182248880808
 50
92.4766440919227932
 51
107.291892368084504
  0
ARC
  5
2467F
  8
0
 10
4464.1293945342122242
 20
275.3070340813429198
 30
0.0
 40
0.1149471932230951
 50
353.4969288475722919
 51
12.6343192203305605
  0
ARC
  5
24680
  8
0
 10
4464.3556125311615688
 20
275.3191494915625981
 30
0.0
 40
0.1147956597432313
 50
173.484178909322992
 51
192.6470691585813881
  0
ARC
  5
24681
  8
0
 10
4464.2577107771267038
 20
275.2538337166736255
 30
0.0
 40
0.0126212052118408
 50
215.3552658910975026
 51
265.7531925373065746
  0
ARC
  5
24682
  8
0
 10
4464.2760036675899755
 20
275.2637246801007791
 30
0.0
 40
0.0333590532908781
 50
187.1250615609118029
 51
211.0259978101140916
  0
ARC
  5
24683
  8
0
 10
4464.7661065500942641
 20
275.3408472416750783
 30
0.0
 40
0.5294771024790313
 50
181.1911240536379921
 51
188.8282273390670127
  0
ARC
  5
24684
  8
0
 10
4464.6966807562357644
 20
275.3425889308952037
 30
0.0
 40
0.4601135361845519
 50
176.7784738360940935
 51
181.5876785931795041
  0
ARC
  5
24685
  8
0
 10
4464.2657335581252482
 20
275.3672099410446776
 30
0.0
 40
0.0284660687404785
 50
152.9679421827206056
 51
177.5118023160962935
  0
ARC
  5
24686
  8
0
 10
4464.2512064899074176
 20
275.3736336892000054
 30
0.0
 40
0.0126372320777163
 50
100.4940068153973982
 51
148.9729666569843118
  0
ARC
  5
24687
  8
0
 10
4464.1468459765046646
 20
275.2768745773265096
 30
0.0
 40
0.0946687395679271
 50
324.5443606932547027
 51
356.2104099286914902
  0
ARC
  5
24688
  8
0
 10
4464.2550455312293707
 20
275.2394437471647848
 30
0.0
 40
0.0356652347948581
 50
180.9797527539016926
 51
209.3552032080951051
  0
ARC
  5
24689
  8
0
 10
4464.1843527749633722
 20
275.2540769769356075
 30
0.0
 40
0.0128394493896318
 50
180.144610913257992
 51
263.9783773239761899
  0
ARC
  5
2468A
  8
0
 10
4465.0503984250881331
 20
275.3460499696926718
 30
0.0
 40
0.8836876935041061
 50
183.2653596748384075
 51
185.9761969192281015
  0
ARC
  5
2468B
  8
0
 10
4464.1134483016203376
 20
275.3738786936697238
 30
0.0
 40
0.1320620176543039
 50
4.691364752129509
 51
19.2593485760987697
  0
ARC
  5
2468C
  8
0
 10
4464.2282230886394245
 20
275.4139778502226932
 30
0.0
 40
0.0104840838407359
 50
19.2748541446359383
 51
46.3125274534856572
  0
ARC
  5
2468D
  8
0
 10
4464.2341082607172211
 20
275.4202204048027056
 30
0.0
 40
0.0019057767075116
 50
44.6223905259299514
 51
142.1757913788997882
  0
ARC
  5
2468E
  8
0
 10
4464.3001400097746227
 20
275.3909725078495967
 30
0.0
 40
0.0740704475582074
 50
155.7546933343301987
 51
171.6905368808616004
  0
ARC
  5
2468F
  8
0
 10
4464.2152642565442875
 20
275.3692897652924785
 30
0.0
 40
0.0502289225047819
 50
172.2798514666623078
 51
182.5164641702658059
  0
ARC
  5
24690
  8
0
 10
4464.1775158819873468
 20
275.3738326028911274
 30
0.0
 40
0.0122256978627187
 50
127.9764685964063062
 51
169.6110763587863062
  0
ARC
  5
24691
  8
0
 10
4464.1772700275805619
 20
275.3739979710247212
 30
0.0
 40
0.011944415314486
 50
100.201603755256798
 51
127.5349566812520976
  0
LINE
  5
24692
  8
0
 10
4464.1948385065852563
 20
275.5348310035205941
 30
0.0
 11
4464.2501382090085826
 21
275.5274500776963009
 31
0.0
  0
LINE
  5
24693
  8
0
 10
4464.2548496343106308
 20
275.534434990308398
 30
0.0
 11
4464.3249092455853315
 21
275.5253936160207218
 31
0.0
  0
LINE
  5
24694
  8
0
 10
4464.2559813963216584
 20
275.6794567245926828
 30
0.0
 11
4464.3400220585408533
 21
275.6889385765159091
 31
0.0
  0
LINE
  5
24695
  8
0
 10
4464.1963517091835456
 20
275.6793259245205832
 30
0.0
 11
4464.262403964979967
 21
275.6867316882538717
 31
0.0
  0
ARC
  5
24696
  8
0
 10
4465.2251136597124059
 20
275.5991783279104084
 30
0.0
 40
1.0418718515809651
 50
176.5259075222475929
 51
180.4538572144195996
  0
ARC
  5
24697
  8
0
 10
4464.3156470416470256
 20
275.5348835029291195
 30
0.0
 40
0.0162302522987307
 50
203.1009235388279137
 51
267.3134568047664743
  0
ARC
  5
24698
  8
0
 10
4464.307291180073662
 20
275.5408281411677081
 30
0.0
 40
0.0234226556739961
 50
288.9209794778997775
 51
318.7796166257363097
  0
ARC
  5
24699
  8
0
 10
4464.2444614646583432
 20
275.5931682254054067
 30
0.0
 40
0.1051914594117087
 50
319.8869644235189753
 51
344.7240395654245049
  0
ARC
  5
2469A
  8
0
 10
4464.1819116299811867
 20
275.6194818487566067
 30
0.0
 40
0.1726937886849487
 50
341.7685854224869217
 51
23.7155245760347597
  0
ARC
  5
2469B
  8
0
 10
4464.3109401905048799
 20
275.6751440989497723
 30
0.0
 40
0.0321876165376501
 50
25.3765094712634998
 51
59.9244266432902606
  0
ARC
  5
2469C
  8
0
 10
4464.3454266513863331
 20
275.6663218139813125
 30
0.0
 40
0.0433659779553197
 50
132.0631442287401001
 51
154.2817953939876929
  0
ARC
  5
2469D
  8
0
 10
4464.3276786859623826
 20
275.6864547316267249
 30
0.0
 40
0.016531865855543
 50
102.3391968549269961
 51
133.1439049906319099
  0
ARC
  5
2469E
  8
0
 10
4464.3276382307640233
 20
275.6877103724968947
 30
0.0
 40
0.0152982967306435
 50
92.1258299398825073
 51
103.1961702034031987
  0
ARC
  5
2469F
  8
0
 10
4464.1317967266995765
 20
275.6080011084313242
 30
0.0
 40
0.1149471932230951
 50
349.9385361186654109
 51
9.0759264914245978
  0
ARC
  5
246A0
  8
0
 10
4464.358330541592295
 20
275.6060527707761025
 30
0.0
 40
0.1147956597432313
 50
169.9257861804198058
 51
189.0886764296695048
  0
ARC
  5
246A1
  8
0
 10
4464.2565636633025861
 20
275.546939266601612
 30
0.0
 40
0.0126212052118408
 50
211.7968731621853067
 51
262.194799808431128
  0
ARC
  5
246A2
  8
0
 10
4464.2754351763051091
 20
275.5556757988667869
 30
0.0
 40
0.0333590532908781
 50
183.5666688320144999
 51
207.4676050811974903
  0
ARC
  5
246A3
  8
0
 10
4464.769379840988222
 20
275.6022310689612027
 30
0.0
 40
0.5294771024790313
 50
177.6327313247363975
 51
185.269834610166896
  0
ARC
  5
246A4
  8
0
 10
4464.7001959949548109
 20
275.6082783644263259
 30
0.0
 40
0.4601135361845518
 50
173.2200811071934936
 51
178.0292858642773126
  0
ARC
  5
246A5
  8
0
 10
4464.2716077575196323
 20
275.6595989687880888
 30
0.0
 40
0.0284660687404785
 50
149.4095494538123035
 51
173.9534095871981094
  0
ARC
  5
246A6
  8
0
 10
4464.2575073913403685
 20
275.6669119657750002
 30
0.0
 40
0.0126372320777163
 50
96.935614086522861
 51
145.4145739280857015
  0
ARC
  5
246A7
  8
0
 10
4464.1979923313456311
 20
275.5442306736269984
 30
0.0
 40
0.0547793844162459
 50
321.1540522422063191
 51
350.4747538569961876
  0
ARC
  5
246A8
  8
0
 10
4464.2756018916397807
 20
275.525695890821396
 30
0.0
 40
0.0383613906924084
 50
174.8328996798844059
 51
204.3625348748732904
  0
ARC
  5
246A9
  8
0
 10
4464.1971384287598994
 20
275.5477857331807172
 30
0.0
 40
0.0131573045332298
 50
174.1509344914867086
 51
259.9328683524880148
  0
ARC
  5
246AA
  8
0
 10
4465.0669506313652164
 20
275.586405926657676
 30
0.0
 40
0.8836876935041061
 50
179.7069669459370118
 51
182.41780419032861
  0
ARC
  5
246AB
  8
0
 10
4464.0891993662244204
 20
275.6659885330490738
 30
0.0
 40
0.1744422870691717
 50
4.6910971477454639
 51
13.5967729688579393
  0
ARC
  5
246AC
  8
0
 10
4464.2405895060155672
 20
275.7024176303237937
 30
0.0
 40
0.0187318318301538
 50
14.1527549083728204
 51
33.426860413131223
  0
ARC
  5
246AD
  8
0
 10
4464.2549019420903278
 20
275.711125118046823
 30
0.0
 40
0.0020836014214573
 50
50.6557578208901376
 51
159.7304663381817136
  0
ARC
  5
246AE
  8
0
 10
4464.3634470267916186
 20
275.6742248721158148
 30
0.0
 40
0.1167287237549787
 50
161.197708687399512
 51
174.6891424670913864
  0
ARC
  5
246AF
  8
0
 10
4464.2201440343524155
 20
275.6621583465994263
 30
0.0
 40
0.0349879202868544
 50
165.3171662664981056
 51
179.7469859760643942
  0
ARC
  5
246B0
  8
0
 10
4464.1978723484153306
 20
275.6673223808309103
 30
0.0
 40
0.0121520101666811
 50
126.7143559444585037
 51
162.2521064098675936
  0
ARC
  5
246B1
  8
0
 10
4464.1976815260495641
 20
275.6675253440408255
 30
0.0
 40
0.0118752731572407
 50
96.4295816044861027
 51
126.5617404050803003
  0
LINE
  5
246B2
  8
0
 10
4464.2139089201509705
 20
275.8266477225815265
 30
0.0
 11
4464.2692086225770254
 21
275.8192667967571765
 31
0.0
  0
LINE
  5
246B3
  8
0
 10
4464.2697674347282373
 20
275.8262517093692168
 30
0.0
 11
4464.3410711652841201
 21
275.8153904813207191
 31
0.0
  0
LINE
  5
246B4
  8
0
 10
4464.2708991967383554
 20
275.9712734436535015
 30
0.0
 11
4464.3547769037531907
 21
275.9789656444845036
 31
0.0
  0
LINE
  5
246B5
  8
0
 10
4464.2154221227510789
 20
275.9711426435814019
 30
0.0
 11
4464.2814743785465907
 21
275.9785484073146904
 31
0.0
  0
ARC
  5
246B6
  8
0
 10
4465.2441840732799392
 20
275.8909950469712271
 30
0.0
 40
1.0418718515809651
 50
176.5259075222475929
 51
180.4538572144195996
  0
ARC
  5
246B7
  8
0
 10
4464.3464091654723234
 20
275.8325930709074782
 30
0.0
 40
0.0361528521941701
 50
200.8531810313486119
 51
215.0769059871184936
  0
ARC
  5
246B8
  8
0
 10
4464.3305169280629343
 20
275.8205808263265908
 30
0.0
 40
0.0162587761847341
 50
212.6173943643165103
 51
264.2989570377066002
  0
ARC
  5
246B9
  8
0
 10
4464.3169536080322359
 20
275.8298681009924849
 30
0.0
 40
0.0281293092545297
 50
295.1354788852488014
 51
329.0238682275116275
  0
ARC
  5
246BA
  8
0
 10
4464.1909068245759045
 20
275.911936567032626
 30
0.0
 40
0.1785230402117774
 50
327.2615700713506044
 51
342.1687886735982147
  0
ARC
  5
246BB
  8
0
 10
4464.1725008791081564
 20
275.9088637739056935
 30
0.0
 40
0.1952916317190456
 50
344.6813693407900132
 51
21.0363355413515301
  0
ARC
  5
246BC
  8
0
 10
4464.3348275994958385
 20
275.9685111853988246
 30
0.0
 40
0.0225226653430271
 50
27.6568451029671003
 51
70.5032618552690451
  0
ARC
  5
246BD
  8
0
 10
4464.3554571390159253
 20
275.9602621230491764
 30
0.0
 40
0.0337276133869375
 50
129.0187710224714124
 51
151.5930496035263957
  0
ARC
  5
246BE
  8
0
 10
4464.3438794519679504
 20
275.9742322120454787
 30
0.0
 40
0.0155859567004239
 50
95.6514122669262434
 51
128.2837227320760007
  0
ARC
  5
246BF
  8
0
 10
4464.1467145271162735
 20
275.8998178274920861
 30
0.0
 40
0.1149471932230951
 50
349.9385361186654109
 51
9.0759264914245978
  0
ARC
  5
246C0
  8
0
 10
4464.373248342008992
 20
275.8978694898369213
 30
0.0
 40
0.1147956597432313
 50
169.9257861804198058
 51
189.0886764296695048
  0
ARC
  5
246C1
  8
0
 10
4464.2714814637192831
 20
275.8387559856623739
 30
0.0
 40
0.0126212052118408
 50
211.7968731621853067
 51
262.194799808431128
  0
ARC
  5
246C2
  8
0
 10
4464.2903529767208965
 20
275.8474925179276056
 30
0.0
 40
0.0333590532908781
 50
183.5666688320112883
 51
207.4676050811974903
  0
ARC
  5
246C3
  8
0
 10
4464.7842976414031
 20
275.8940477880220215
 30
0.0
 40
0.5294771024790313
 50
177.6327313247363975
 51
185.269834610166896
  0
ARC
  5
246C4
  8
0
 10
4464.7151137953733269
 20
275.9000950834869741
 30
0.0
 40
0.4601135361845518
 50
173.2200811071934936
 51
178.0292858642773126
  0
ARC
  5
246C5
  8
0
 10
4464.2865255579372388
 20
275.9514156878489075
 30
0.0
 40
0.0284660687404785
 50
149.4095494538123035
 51
173.9534095871981094
  0
ARC
  5
246C6
  8
0
 10
4464.272425191756156
 20
275.9587286848358758
 30
0.0
 40
0.0126372320777163
 50
96.935614086522861
 51
145.4145739280857015
  0
ARC
  5
246C7
  8
0
 10
4464.2170627449131644
 20
275.8360473926877035
 30
0.0
 40
0.0547793844162459
 50
321.1540522422063191
 51
349.5111379865559229
  0
ARC
  5
246C8
  8
0
 10
4464.2946723052064044
 20
275.8175126098822147
 30
0.0
 40
0.0383613906924084
 50
174.8328996798877029
 51
204.3625348748732904
  0
ARC
  5
246C9
  8
0
 10
4464.2162088423274326
 20
275.8396024522414223
 30
0.0
 40
0.0131573045332298
 50
174.1509344914867086
 51
259.9328683524880148
  0
ARC
  5
246CA
  8
0
 10
4465.0860210449327496
 20
275.8782226457184947
 30
0.0
 40
0.8836876935041061
 50
179.7069669459370118
 51
182.41780419032861
  0
ARC
  5
246CB
  8
0
 10
4464.1082697797910441
 20
275.9578052521098925
 30
0.0
 40
0.1744422870691717
 50
4.7667867316656967
 51
13.5967729688579393
  0
ARC
  5
246CC
  8
0
 10
4464.2596599195840099
 20
275.9942343493846124
 30
0.0
 40
0.0187318318301538
 50
14.1527549083728204
 51
33.426860413131223
  0
ARC
  5
246CD
  8
0
 10
4464.273972355657861
 20
276.0029418371075849
 30
0.0
 40
0.0020836014214573
 50
50.6557578208901376
 51
159.7304663381817136
  0
ARC
  5
246CE
  8
0
 10
4464.3825174403591518
 20
275.9660415911765767
 30
0.0
 40
0.1167287237549787
 50
161.197708687399512
 51
166.607914431761003
  0
ARC
  5
246CF
  8
0
 10
4464.2392144479190392
 20
275.9539750656601882
 30
0.0
 40
0.0349879202868544
 50
165.3171662664981056
 51
179.7469859760643942
  0
ARC
  5
246D0
  8
0
 10
4464.2169427619810449
 20
275.9591390998916722
 30
0.0
 40
0.0121520101666811
 50
126.7143559444585037
 51
162.2521064098675936
  0
ARC
  5
246D1
  8
0
 10
4464.2167519396152784
 20
275.9593420631015874
 30
0.0
 40
0.0118752731572407
 50
96.4295816044861027
 51
126.5617404050803003
  0
LINE
  5
246D2
  8
0
 10
4464.2335820466832956
 20
276.1191064171205767
 30
0.0
 11
4464.2916387996847334
 21
276.1088670028906904
 31
0.0
  0
LINE
  5
246D3
  8
0
 10
4464.2840376424828719
 20
276.1189865356207065
 30
0.0
 11
4464.3568146358657032
 21
276.1061216459237926
 31
0.0
  0
LINE
  5
246D4
  8
0
 10
4464.2916277247841208
 20
276.2638139327207227
 30
0.0
 11
4464.362928676267984
 21
276.2688306605534194
 31
0.0
  0
LINE
  5
246D5
  8
0
 10
4464.2411552022949763
 20
276.2635668044695763
 30
0.0
 11
4464.3035300418232509
 21
276.2679311090712986
 31
0.0
  0
ARC
  5
246D6
  8
0
 10
4465.9210238027126252
 20
276.1032438041447108
 30
0.0
 40
1.69792753740585
 50
175.2507007241050019
 51
177.5591973893415059
  0
ARC
  5
246D7
  8
0
 10
4464.3640503890555919
 20
276.1192083050689234
 30
0.0
 40
0.0348878715035714
 50
193.8966518715326117
 51
215.975353696815688
  0
ARC
  5
246D8
  8
0
 10
4464.3463418318624463
 20
276.1059058356414084
 30
0.0
 40
0.0127476649954776
 50
214.3452932909978017
 51
265.3873573650672029
  0
ARC
  5
246D9
  8
0
 10
4464.318433690988968
 20
276.1286959563356049
 30
0.0
 40
0.044527479383737
 50
307.1381754917110243
 51
329.5374673670718835
  0
ARC
  5
246DA
  8
0
 10
4464.2243803005567315
 20
276.1816086577683791
 30
0.0
 40
0.15243733837585
 50
330.3170424523177076
 51
347.8532418971370817
  0
ARC
  5
246DB
  8
0
 10
4464.1725609835539217
 20
276.1962375328113808
 30
0.0
 40
0.2062026674423277
 50
346.9091022400847919
 51
16.1679600261601806
  0
ARC
  5
246DC
  8
0
 10
4464.3266332557786882
 20
276.2409321920650882
 30
0.0
 40
0.0457786204744942
 50
16.136776766157201
 51
42.4190877350815967
  0
ARC
  5
246DD
  8
0
 10
4464.3614223050235523
 20
276.2597552869456194
 30
0.0
 40
0.0120976925716764
 50
94.7123609709451273
 51
136.3286584487325115
  0
ARC
  5
246DE
  8
0
 10
4464.164461256596951
 20
276.199875316271573
 30
0.0
 40
0.1149471932230951
 50
346.2645829157859794
 51
5.4019732885416447
  0
ARC
  5
246DF
  8
0
 10
4464.3904046640627712
 20
276.1834150024275232
 30
0.0
 40
0.1147956597432313
 50
166.2518329775386974
 51
185.414723226786009
  0
ARC
  5
246E0
  8
0
 10
4464.2862907909238857
 20
276.1313384068733967
 30
0.0
 40
0.012555691989539
 50
220.5245428772221032
 51
259.6621375939644167
  0
ARC
  5
246E1
  8
0
 10
4464.2932875509677615
 20
276.135531914999774
 30
0.0
 40
0.0206437161227875
 50
184.0599952679586977
 51
216.7507742290491137
  0
ARC
  5
246E2
  8
0
 10
4464.7544147762682769
 20
276.1660344447697071
 30
0.0
 40
0.4827784487059641
 50
175.0533878714695959
 51
183.7962551210848119
  0
ARC
  5
246E3
  8
0
 10
4464.7289126983678216
 20
276.174890751622911
 30
0.0
 40
0.4566557466322655
 50
171.3278896682714105
 51
175.8845613647843891
  0
ARC
  5
246E4
  8
0
 10
4464.3095239867370765
 20
276.2412830072212273
 30
0.0
 40
0.0321407160594034
 50
145.6857979874110072
 51
175.6065662453032132
  0
ARC
  5
246E5
  8
0
 10
4464.2925819561642129
 20
276.2512566768991178
 30
0.0
 40
0.0125934598619194
 50
94.3455796833236491
 51
139.7016659852039027
  0
ARC
  5
246E6
  8
0
 10
4464.2064141238770389
 20
276.1293514302308836
 30
0.0
 40
0.0876519088796922
 50
329.0166756153831216
 51
352.1365226864850229
  0
ARC
  5
246E7
  8
0
 10
4464.3496191672838904
 20
276.1024325044795091
 30
0.0
 40
0.0704518461360534
 50
173.035655164846105
 51
194.9738980640773036
  0
ARC
  5
246E8
  8
0
 10
4464.2362943297594029
 20
276.1317681607469012
 30
0.0
 40
0.0129489857185271
 50
171.1777519343065137
 51
171.4137350944841103
  0
ARC
  5
246E9
  8
0
 10
4464.2362943297594029
 20
276.1317681607469012
 30
0.0
 40
0.0129489857185271
 50
183.4805383255300057
 51
257.9093431649254171
  0
ARC
  5
246EA
  8
0
 10
4465.3176013905258515
 20
276.1221695272058128
 30
0.0
 40
1.0942676474095481
 50
177.2036977183502131
 51
179.5385727403239002
  0
ARC
  5
246EB
  8
0
 10
4464.1621356394243776
 20
276.2493299790954779
 30
0.0
 40
0.1426126890072189
 50
6.178483079415976
 51
11.3194935693742806
  0
ARC
  5
246EC
  8
0
 10
4464.2843350890489091
 20
276.274057504050802
 30
0.0
 40
0.0179386605467922
 50
10.4850539870306605
 51
25.8148379215472588
  0
ARC
  5
246ED
  8
0
 10
4464.3700331860391088
 20
276.2550551892159092
 30
0.0
 40
0.0770859650855608
 50
159.8675765939019868
 51
170.8911929774129135
  0
ARC
  5
246EE
  8
0
 10
4464.3299413369040849
 20
276.235515889312012
 30
0.0
 40
0.1013564606526874
 50
169.2258192497994003
 51
175.2974140203668014
  0
ARC
  5
246EF
  8
0
 10
4464.2422723435302032
 20
276.2514201758344257
 30
0.0
 40
0.0122836385885298
 50
124.3816691218407016
 51
165.65616144489519
  0
ARC
  5
246F0
  8
0
 10
4464.2419799872523072
 20
276.2517445962860734
 30
0.0
 40
0.0118509441196216
 50
93.9908150030376817
 51
124.100874599868007
  0
ARC
  5
246F1
  8
0
 10
4464.2978340509152986
 20
276.2805711671855988
 30
0.0
 40
0.0029503828180517
 50
26.0998506666965611
 51
50.6127665012153187
  0
ARC
  5
246F2
  8
0
 10
4464.2991681364846954
 20
276.2821703345675246
 30
0.0
 40
0.0008680246222562
 50
51.6898278411049503
 51
101.2704781635625011
  0
ARC
  5
246F3
  8
0
 10
4464.2996012955027254
 20
276.2813375707078762
 30
0.0
 40
0.001788685795642
 50
109.6948621360482008
 51
147.9510528737856134
  0
ARC
  5
246F4
  8
0
 10
4464.3029122878833732
 20
276.2788513904462775
 30
0.0
 40
0.0059247080544632
 50
144.5612711768960139
 51
152.4959252845156925
  0
LINE
  5
246F5
  8
0
 10
4464.260222543423879
 20
276.409795067298603
 30
0.0
 11
4464.3158492176398795
 21
276.3999842437497136
 31
0.0
  0
LINE
  5
246F6
  8
0
 10
4464.303291062583412
 20
276.4109049593205896
 30
0.0
 11
4464.3720760730020629
 21
276.3976132116069948
 31
0.0
  0
LINE
  5
246F7
  8
0
 10
4464.3134163192844426
 20
276.5557028823205883
 30
0.0
 11
4464.38809355797639
 21
276.5598964488081037
 31
0.0
  0
LINE
  5
246F8
  8
0
 10
4464.2677336315318826
 20
276.5554388248211239
 30
0.0
 11
4464.3321971411569393
 21
276.558714452017
 31
0.0
  0
ARC
  5
246F9
  8
0
 10
4466.3541554870125765
 20
276.3370306540483057
 30
0.0
 40
2.1078603251462358
 50
174.6241283385625138
 51
176.4855688514616929
  0
ARC
  5
246FA
  8
0
 10
4464.3780713971818841
 20
276.4095484479710763
 30
0.0
 40
0.0254233828821298
 50
199.4392471763432013
 51
217.4076603833831882
  0
ARC
  5
246FB
  8
0
 10
4464.3665281364856128
 20
276.4002861259594965
 30
0.0
 40
0.0106330908950248
 50
215.5480622880662054
 51
260.1012584317637106
  0
ARC
  5
246FC
  8
0
 10
4464.3522289206703135
 20
276.4089890908882126
 30
0.0
 40
0.022876190353839
 50
303.0359692028039831
 51
330.1797699880289088
  0
ARC
  5
246FD
  8
0
 10
4464.2424229890757488
 20
276.4758247952684087
 30
0.0
 40
0.1514165578472002
 50
328.9000508243432819
 51
346.7708005665256223
  0
ARC
  5
246FE
  8
0
 10
4464.1658610819631576
 20
276.4991884185243975
 30
0.0
 40
0.2313523476697408
 50
345.4772714784136838
 51
11.3589380357761502
  0
ARC
  5
246FF
  8
0
 10
4464.3295427139746607
 20
276.5338884772423853
 30
0.0
 40
0.0640672765006649
 50
9.7646336375458898
 51
34.0840450168424169
  0
ARC
  5
24700
  8
0
 10
4464.3900500723821096
 20
276.5500007853348166
 30
0.0
 40
0.021145790413967
 50
110.6168423843042063
 51
155.022313007027293
  0
ARC
  5
24701
  8
0
 10
4464.1842648062429362
 20
276.4905639664495993
 30
0.0
 40
0.1149471932230951
 50
346.2645829157859794
 51
5.4019732885416447
  0
ARC
  5
24702
  8
0
 10
4464.4102082137087564
 20
276.474103652605379
 30
0.0
 40
0.1147956597432313
 50
166.2518329775386974
 51
185.414723226786009
  0
ARC
  5
24703
  8
0
 10
4464.3056951180469696
 20
276.4231076878776889
 30
0.0
 40
0.0124372853512116
 50
219.5956169336585901
 51
258.8549056938379067
  0
ARC
  5
24704
  8
0
 10
4464.3078903241203079
 20
276.4250930111127786
 30
0.0
 40
0.015394757917588
 50
181.2433245265877133
 51
220.0819356903085975
  0
ARC
  5
24705
  8
0
 10
4464.660482592003973
 20
276.4535252326031127
 30
0.0
 40
0.3691060572792173
 50
173.0244113670945865
 51
184.4698765831709864
  0
ARC
  5
24706
  8
0
 10
4464.714420818076178
 20
276.4637199254742086
 30
0.0
 40
0.4217365028719393
 50
170.257580268092795
 51
175.2897126036787938
  0
ARC
  5
24707
  8
0
 10
4464.342118209318869
 20
276.5294898576360083
 30
0.0
 40
0.0437114786364627
 50
152.4404416883994031
 51
172.6448078600795952
  0
ARC
  5
24708
  8
0
 10
4464.315077528744041
 20
276.541489093590485
 30
0.0
 40
0.014310534823424
 50
96.6660933338799708
 51
144.9188935384086108
  0
ARC
  5
24709
  8
0
 10
4464.2408912442188011
 20
276.4199828302415085
 30
0.0
 40
0.0775799023004111
 50
329.5517294373427717
 51
351.2245889567325889
  0
ARC
  5
2470A
  8
0
 10
4464.3481699472486071
 20
276.3942601036259816
 30
0.0
 40
0.0426232129847931
 50
169.966203713088106
 51
198.595195290311608
  0
ARC
  5
2470B
  8
0
 10
4464.2649686484583071
 20
276.4258824492084727
 30
0.0
 40
0.0167728760117185
 50
193.1550050109889867
 51
253.5628681839974945
  0
ARC
  5
2470C
  8
0
 10
4464.8526109587473911
 20
276.4219904486150767
 30
0.0
 40
0.6039750359213194
 50
175.7983000381638874
 51
179.9929112662726993
  0
ARC
  5
2470D
  8
0
 10
4464.0507438598942827
 20
276.543758311980298
 30
0.0
 40
0.2818503781417204
 50
2.644584496137186
 51
5.4221182151072851
  0
ARC
  5
2470E
  8
0
 10
4464.2607934723273502
 20
276.5634306318092968
 30
0.0
 40
0.070882221667176
 50
5.6353890989008333
 51
11.0595533471266503
  0
ARC
  5
2470F
  8
0
 10
4464.6277123545505674
 20
276.5100340196880779
 30
0.0
 40
0.3093609073840123
 50
168.0959552952826925
 51
171.0423957569844902
  0
ARC
  5
24710
  8
0
 10
4464.3191033672628691
 20
276.5302895620030199
 30
0.0
 40
0.0636770855933697
 50
164.1306406037768113
 51
176.1960276065987046
  0
ARC
  5
24711
  8
0
 10
4464.2694983820483685
 20
276.5432223272501915
 30
0.0
 40
0.0124770271282625
 50
129.7834380297865948
 51
158.9604481150018955
  0
ARC
  5
24712
  8
0
 10
4464.2691745681941029
 20
276.5433571373690143
 30
0.0
 40
0.0121673115417725
 50
96.8013216566473176
 51
129.017839331008787
  0
ARC
  5
24713
  8
0
 10
4464.3177990071280874
 20
276.5749184320193876
 30
0.0
 40
0.0127361953426259
 50
9.5337588783536962
 51
28.7361426383202598
  0
ARC
  5
24714
  8
0
 10
4464.36046933632133
 20
276.5664475671678133
 30
0.0
 40
0.0362285754012822
 50
158.8414706645102967
 51
168.2149683826455089
  0
ARC
  5
24715
  8
0
 10
4464.3327650601504502
 20
276.5771276247219248
 30
0.0
 40
0.0065371325994091
 50
144.6931331022354925
 51
158.4927717965630052
  0
ARC
  5
24716
  8
0
 10
4464.3285652737276905
 20
276.5801882663790252
 30
0.0
 40
0.0013427523999691
 50
109.0039723468245967
 51
147.6986464093679103
  0
ARC
  5
24717
  8
0
 10
4464.3282441860328618
 20
276.5806388298819911
 30
0.0
 40
0.0008271997214264
 50
29.1453351860667311
 51
98.0723210108463093
  0
LINE
  5
24718
  8
0
 10
4464.2874394007158116
 20
276.7029228624583084
 30
0.0
 11
4464.3450711662380854
 21
276.6906703365262956
 31
0.0
  0
LINE
  5
24719
  8
0
 10
4464.3265547513838101
 20
276.7031797106207023
 30
0.0
 11
4464.3959081048842563
 21
276.6884070624207084
 31
0.0
  0
LINE
  5
2471A
  8
0
 10
4464.339144308082723
 20
276.8470790027205908
 30
0.0
 11
4464.4111399317744144
 21
276.8496240604006857
 31
0.0
  0
LINE
  5
2471B
  8
0
 10
4464.3000895428804142
 20
276.8473156048323744
 30
0.0
 11
4464.363053940993268
 21
276.8495216943003925
 31
0.0
  0
ARC
  5
2471C
  8
0
 10
4466.3922294397443693
 20
276.5875185426243092
 30
0.0
 40
2.1187704618898402
 50
173.496187606420591
 51
175.3376677030514088
  0
ARC
  5
2471D
  8
0
 10
4464.4268788039680658
 20
276.7046113715497881
 30
0.0
 40
0.0510545549649335
 50
193.8756625007034131
 51
206.5617255917933903
  0
ARC
  5
2471E
  8
0
 10
4464.3901537707670286
 20
276.685996158729381
 30
0.0
 40
0.0098843629944153
 50
205.2376152331069079
 51
255.4500958443742036
  0
ARC
  5
2471F
  8
0
 10
4464.3448894321927582
 20
276.7146712379537234
 30
0.0
 40
0.0573821564558321
 50
318.2061981447214976
 51
332.7608008700642017
  0
ARC
  5
24720
  8
0
 10
4464.2246907594144432
 20
276.7722462878962233
 30
0.0
 40
0.1906420602019774
 50
333.9106032182742183
 51
346.8285553130294261
  0
ARC
  5
24721
  8
0
 10
4464.1322505749321863
 20
276.7953390243048943
 30
0.0
 40
0.28591595615131
 50
346.5437372968426075
 51
5.7932099824721019
  0
ARC
  5
24722
  8
0
 10
4464.3146343348807932
 20
276.8151741675657718
 30
0.0
 40
0.1024701192944838
 50
5.0527037625089832
 51
24.5408164191949396
  0
ARC
  5
24723
  8
0
 10
4464.2094833956780349
 20
276.7888842537490177
 30
0.0
 40
0.1149471932230951
 50
344.3033154347314166
 51
3.440705807486141
  0
ARC
  5
24724
  8
0
 10
4464.4347311074971003
 20
276.7647009200439925
 30
0.0
 40
0.1147956597432313
 50
164.2905654964824009
 51
183.4534557457367896
  0
ARC
  5
24725
  8
0
 10
4464.3291126304138743
 20
276.7151922435409119
 30
0.0
 40
0.0122818440102986
 50
237.7685634330653954
 51
257.9793000827223182
  0
ARC
  5
24726
  8
0
 10
4464.3305593075601791
 20
276.7167681145172082
 30
0.0
 40
0.0143915502340165
 50
186.9708795070363863
 51
236.2425072437422955
  0
ARC
  5
24727
  8
0
 10
4464.7522434028487623
 20
276.7376052318124948
 30
0.0
 40
0.4365538037398025
 50
172.6047954161539906
 51
182.9653416216656012
  0
ARC
  5
24728
  8
0
 10
4464.7199059400136321
 20
276.7511533805060822
 30
0.0
 40
0.4028482533084545
 50
168.8009365609526071
 51
173.9238108053177996
  0
ARC
  5
24729
  8
0
 10
4464.3542495447054534
 20
276.8252109252732112
 30
0.0
 40
0.0298158339361092
 50
144.0675187388825123
 51
171.9351755112597004
  0
ARC
  5
2472A
  8
0
 10
4464.339679701811292
 20
276.8344452045043909
 30
0.0
 40
0.0126451375560222
 50
92.426622365371756
 51
139.2000162238400094
  0
ARC
  5
2472B
  8
0
 10
4464.2600612124560939
 20
276.7117949291912282
 30
0.0
 40
0.0875953232606436
 50
331.6351247948841774
 51
351.5271403605996738
  0
ARC
  5
2472C
  8
0
 10
4464.4078552353175837
 20
276.6820234151213072
 30
0.0
 40
0.0717003508510232
 50
171.6745670494736942
 51
189.5078804652982001
  0
ARC
  5
2472D
  8
0
 10
4464.2900449017706705
 20
276.7147595064275265
 30
0.0
 40
0.0121200155196116
 50
181.3442625632532952
 51
257.5859359118055067
  0
ARC
  5
2472E
  8
0
 10
4464.9263247309318103
 20
276.7007694698339719
 30
0.0
 40
0.6485413474255975
 50
174.7830824846577968
 51
178.7890709966808913
  0
ARC
  5
2472F
  8
0
 10
4464.1308945732880602
 20
276.8426789850536238
 30
0.0
 40
0.2322601874690708
 50
1.2944065969748679
 51
4.5057488928329521
  0
ARC
  5
24730
  8
0
 10
4464.3283074963401305
 20
276.8577003516376749
 30
0.0
 40
0.0342814660289706
 50
5.3976818318396456
 51
13.6100461898452192
  0
ARC
  5
24731
  8
0
 10
4464.4641219529066802
 20
276.8336902796993968
 30
0.0
 40
0.1095779675185262
 50
163.1830693349477883
 51
171.829990378152786
  0
ARC
  5
24732
  8
0
 10
4464.3303346405573393
 20
276.8253495788715099
 30
0.0
 40
0.0432938858754951
 50
158.8472259640273876
 51
177.1393577765213081
  0
ARC
  5
24733
  8
0
 10
4464.3020684806861027
 20
276.8339797545401098
 30
0.0
 40
0.013984472604236
 50
125.2727006935139968
 51
149.997891507020114
  0
ARC
  5
24734
  8
0
 10
4464.3004792113442818
 20
276.83543228678991
 30
0.0
 40
0.0118897051775022
 50
91.8781253820454111
 51
123.0616656608048061
  0
ARC
  5
24735
  8
0
 10
4464.364607590063315
 20
276.863543968754982
 30
0.0
 40
0.0056863491492401
 50
142.9905639063522926
 51
161.0263190244218947
  0
ARC
  5
24736
  8
0
 10
4464.3577315760467172
 20
276.8647950587567834
 30
0.0
 40
0.0040142484022016
 50
14.0149588217625194
 51
32.5289162790113124
  0
ARC
  5
24737
  8
0
 10
4464.3604508412299765
 20
276.8665474273165046
 30
0.0
 40
0.0007794373675745
 50
31.4085724480693607
 51
69.7619177304493832
  0
ARC
  5
24738
  8
0
 10
4464.360859636337409
 20
276.8663448333987844
 30
0.0
 40
0.0010076891540031
 50
114.9298035128931019
 51
141.8831478522965028
  0
ARC
  5
24739
  8
0
 10
4464.3606058723207752
 20
276.8668683635286811
 30
0.0
 40
0.0004260803065376
 50
74.3983348903667689
 51
113.6592624627619017
  0
ARC
  5
2473A
  8
0
 10
4464.4174088492136434
 20
276.8402662592193906
 30
0.0
 40
0.0199133817271438
 50
118.6937541792133999
 51
153.2899442925105973
  0
LINE
  5
2473B
  8
0
 10
4464.3240927844699399
 20
276.9776678301655011
 30
0.0
 11
4464.3817252444141559
 21
276.9664893108090951
 31
0.0
  0
LINE
  5
2473C
  8
0
 10
4464.3359805257332482
 20
277.1221422717418932
 30
0.0
 11
4464.3516988647843391
 21
277.1229660349205801
 31
0.0
  0
ARC
  5
2473D
  8
0
 10
4445.2649510263809134
 20
278.405783352017977
 30
0.0
 40
19.1020490837252801
 50
355.886386890789197
 51
356.113613085299221
  0
ARC
  5
2473E
  8
0
 10
4464.2967145962093127
 20
276.9876111087683057
 30
0.0
 40
0.0875953232606436
 50
331.6351247948841774
 51
348.1951966643792957
  0
ARC
  5
2473F
  8
0
 10
4464.444508619069893
 20
276.9578395946983846
 30
0.0
 40
0.0717003508510232
 50
171.7917184622234004
 51
189.5078804652982001
  0
ARC
  5
24740
  8
0
 10
4464.3269114173263006
 20
276.9896863807782097
 30
0.0
 40
0.0123446445880544
 50
177.1909813037144943
 51
256.8013228149555971
  0
ARC
  5
24741
  8
0
 10
4452.9692370812190347
 20
277.8177167762127056
 30
0.0
 40
11.3754769221196703
 50
355.8287561239109777
 51
356.0570787337882166
  0
ARC
  5
24742
  8
0
 10
4464.334558001323785
 20
277.1103931579602886
 30
0.0
 40
0.0115052782806405
 50
109.8765429920487975
 51
176.5776507666500947
  0
ARC
  5
24743
  8
0
 10
4464.3354817284907767
 20
277.1092303877049972
 30
0.0
 40
0.0129215149293171
 50
87.7877145661514362
 51
111.9759685663911029
  0
LINE
  5
24744
  8
0
 10
4464.3952646377765632
 20
277.1252492203350926
 30
0.0
 11
4464.3738524149639488
 21
277.1241270533568013
 31
0.0
  0
LINE
  5
24745
  8
0
 10
4464.4237027546632817
 20
277.1250055051070831
 30
0.0
 11
4464.355876425884162
 21
277.1238102844205855
 31
0.0
  0
ARC
  5
24746
  8
0
 10
4464.3561785367683115
 20
277.1115574211846138
 30
0.0
 40
0.0122565871460268
 50
91.4124186204055746
 51
131.471760182112007
  0
ARC
  5
24747
  8
0
 10
4464.3572494635473049
 20
277.1106330064731083
 30
0.0
 40
0.0136597814834165
 50
132.2697105065122116
 51
158.7116118742432036
  0
ARC
  5
24748
  8
0
 10
4465.0528047425923432
 20
276.973878842006286
 30
0.0
 40
0.7223209155369906
 50
168.6856401351118961
 51
178.0490217489596034
  0
ARC
  5
24749
  8
0
 10
4464.3565582103847191
 20
276.9953230144909071
 30
0.0
 40
0.0258479366336535
 50
173.007260465370905
 51
200.5448939478633008
  0
ARC
  5
2474A
  8
0
 10
4464.3436216785494253
 20
276.9913041097112227
 30
0.0
 40
0.0123482506780478
 50
204.1510148695157056
 51
241.5667831144471904
  0
ARC
  5
2474B
  8
0
 10
4464.3434085177987072
 20
276.9910841478073849
 30
0.0
 40
0.0120536129049334
 50
241.9599711785380123
 51
256.9756437324339231
  0
LINE
  5
2474C
  8
0
 10
4464.3406920524830639
 20
276.9793406219206986
 30
0.0
 11
4464.3705743832842927
 21
276.9724364962705749
 31
0.0
  0
LINE
  5
2474D
  8
0
 10
4464.3705743832842927
 20
276.9724364962705749
 30
0.0
 11
4464.3997040953827309
 21
276.9657062584648202
 31
0.0
  0
ARC
  5
2474E
  8
0
 10
4463.9943705394298377
 20
277.1082276777228799
 30
0.0
 40
0.4296599196209023
 50
339.2044646492591937
 51
2.9072566392799
  0
ARC
  5
2474F
  8
0
 10
4464.3693153626500134
 20
277.1536282846203108
 30
0.0
 40
0.0590837902556812
 50
330.970691303533215
 51
336.448286811035473
  0
ARC
  5
24750
  8
0
 10
4464.4358446144478876
 20
276.9711763182365871
 30
0.0
 40
0.0427137298912303
 50
185.3661747987518993
 51
201.2665382395396136
  0
ARC
  5
24751
  8
0
 10
4464.1558901976623019
 20
277.0717968666405113
 30
0.0
 40
0.1841251139213275
 50
347.9913417623677105
 51
0.0086534949319796
  0
ARC
  5
24752
  8
0
 10
4464.5220997912911116
 20
277.033306672031074
 30
0.0
 40
0.186113930430241
 50
168.0557829830613912
 51
179.9442122742374863
  0
ARC
  5
24753
  8
0
 10
4464.3448525372232325
 20
266.6504328879133823
 30
0.0
 40
1.3488883011297379
 50
90.7534954929263336
 51
95.9708336210893691
  0
ARC
  5
24754
  8
0
 10
4464.7456081555019409
 20
258.796000594557313
 30
0.0
 40
9.2041835292871834
 50
90.8353045550136642
 51
93.3721661502202238
  0
ARC
  5
24755
  8
0
 10
4507.8439887266958976
 20
-800.0480787664566833
 30
0.0
 40
1068.9036612570509988
 50
92.2987883782392231
 51
92.3381406907472808
  0
ARC
  5
24756
  8
0
 10
4487.3753664579417091
 20
-305.6765461407538851
 30
0.0
 40
574.0944437402489484
 50
92.2367131485539744
 51
92.3099720494818143
  0
ARC
  5
24757
  8
0
 10
4449.4686957016056112
 20
681.5848679002067456
 30
0.0
 40
413.91431319770561
 50
272.0402304362527275
 51
272.1506125378609227
  0
ARC
  5
24758
  8
0
 10
4478.4177474288671874
 20
-109.7798969861566007
 30
0.0
 40
377.9724087579039065
 50
92.0342208055547388
 51
92.1550970816106343
  0
ARC
  5
24759
  8
0
 10
4479.248945340265891
 20
-96.5689859800332329
 30
0.0
 40
364.7846650309114125
 50
92.2434000061945625
 51
92.3586963673565435
  0
ARC
  5
2475A
  8
0
 10
4483.2242950582804042
 20
-201.0604178381738052
 30
0.0
 40
469.337007534868178
 50
92.2290666791457738
 51
92.3186772237194333
  0
ARC
  5
2475B
  8
0
 10
4482.8940190247412829
 20
-232.3975219489792039
 30
0.0
 40
500.6204068782984109
 50
92.0482333416400422
 51
92.1394991569265756
  0
ARC
  5
2475C
  8
0
 10
4470.1167352040001788
 20
117.1506739753338024
 30
0.0
 40
150.8313890811494957
 50
91.9436263015730333
 51
92.2465459070788256
  0
ARC
  5
2475D
  8
0
 10
4452.8783830317688626
 20
557.7643241493843789
 30
0.0
 40
290.1391398954704073
 50
272.2434580234254895
 51
272.3884187800125005
  0
ARC
  5
2475E
  8
0
 10
3851.681601323482937
 20
15708.760301195030479
 30
0.0
 40
15453.0725200063807279
 50
272.2717802335205874
 51
272.2745018617986261
  0
ARC
  5
2475F
  8
0
 10
4449.2859232827140659
 20
686.8471189863654445
 30
0.0
 40
419.2977599321575894
 50
272.0390188802809917
 51
272.1479764846063745
  0
ARC
  5
24760
  8
0
 10
4467.9086564575645752
 20
177.4122993820228089
 30
0.0
 40
90.4706530887878131
 50
91.8417015230386085
 51
92.3466927122888279
  0
ARC
  5
24761
  8
0
 10
4443.1770759901728525
 20
797.6353354503271476
 30
0.0
 40
530.2651424646044234
 50
272.2760415763063975
 51
272.3553665724600137
  0
ARC
  5
24762
  8
0
 10
4463.2489071526006228
 20
306.1283159033387733
 30
0.0
 40
38.3635833481708701
 50
271.5479192573329783
 51
272.5706386508351216
  0
ARC
  5
24763
  8
0
 10
4464.2838976749681024
 20
267.7247431075805935
 30
0.0
 40
0.0540052549783699
 50
88.5941233350406065
 51
119.9426378446978987
  0
ARC
  5
24764
  8
0
 10
4463.3781542060532956
 20
305.6106647697661742
 30
0.0
 40
37.8605598537019432
 50
271.3310254933282977
 51
272.4573249841362212
  0
ARC
  5
24765
  8
0
 10
4462.8950041186908493
 20
321.0045984704466946
 30
0.0
 40
53.2690900564641368
 50
271.4657621339254092
 51
272.2658981481056912
  0
ARC
  5
24766
  8
0
 10
4463.4166714929397131
 20
301.7057546466605231
 30
0.0
 40
33.9823289807399931
 50
271.4645769864239924
 51
272.6191446034379169
  0
ARC
  5
24767
  8
0
 10
4464.283910339441718
 20
267.7886495157408717
 30
0.0
 40
0.0541383352193545
 50
241.1666340971860905
 51
271.3890130504045146
  0
ARC
  5
24768
  8
0
 10
4520.4537070493297506
 20
271.8707377389047224
 30
0.0
 40
56.3375370675564966
 50
176.572403476119888
 51
176.711229450075308
  0
ARC
  5
24769
  8
0
 10
4485.8203260452155519
 20
274.041649460402823
 30
0.0
 40
21.6362659836588591
 50
176.0570320617416087
 51
176.4140725167468133
  0
ARC
  5
2476A
  8
0
 10
4524.2759564054667862
 20
271.3404705560321872
 30
0.0
 40
60.1872199819810803
 50
175.7307083776595107
 51
175.860716245824193
  0
ARC
  5
2476B
  8
0
 10
4473.381529019876325
 20
275.4652210178372229
 30
0.0
 40
9.1244003618161251
 50
174.1082154487847049
 51
174.957828530922086
  0
ARC
  5
2476C
  8
0
 10
4468.9658644201181232
 20
276.3767367281903944
 30
0.0
 40
4.6314850017285041
 50
163.7422466832300074
 51
170.7087771593066066
  0
LINE
  5
2476E
  8
0
 10
4464.1937468403757521
 20
273.7794896196292029
 30
0.0
 11
4464.159167240582974
 21
273.7794896196292029
 31
0.0
  0
ENDSEC
  0
EOF
