  0
SECTION
  2
HEADER
  9
$ACADVER
  1
AC1009
  9
$INSBASE
 10
4466.822493999661674
 20
282.5694447851792006
 30
0.0
  9
$EXTMIN
 10
4463.756539135136336
 20
249.9650190470736959
 30
0.0
  9
$EXTMAX
 10
4469.113298036303604
 20
285.8429586557149946
 30
0.0
  9
$LIMMIN
 10
0.0
 20
0.0
  9
$LIMMAX
 10
11.6929133858000007
 20
8.2677165353999982
  9
$ORTHOMODE
 70
     0
  9
$REGENMODE
 70
     1
  9
$FILLMODE
 70
     1
  9
$QTEXTMODE
 70
     0
  9
$MIRRTEXT
 70
     0
  9
$DRAGMODE
 70
     2
  9
$LTSCALE
 40
0.6431102362
  9
$OSMODE
 70
   575
  9
$ATTMODE
 70
     1
  9
$TEXTSIZE
 40
0.2
  9
$TRACEWID
 40
0.05
  9
$TEXTSTYLE
  7
STANDARD
  9
$CLAYER
  8
0
  9
$CELTYPE
  6
BYLAYER
  9
$CECOLOR
 62
   256
  9
$DIMSCALE
 40
1.0
  9
$DIMASZ
 40
0.1875
  9
$DIMEXO
 40
0.0625
  9
$DIMDLI
 40
0.4443307087
  9
$DIMRND
 40
0.0
  9
$DIMDLE
 40
0.0
  9
$DIMEXE
 40
0.125
  9
$DIMTP
 40
0.01
  9
$DIMTM
 40
0.01
  9
$DIMTXT
 40
2.0
  9
$DIMCEN
 40
0.1052362205
  9
$DIMTSZ
 40
0.0
  9
$DIMTOL
 70
     1
  9
$DIMLIM
 70
     0
  9
$DIMTIH
 70
     1
  9
$DIMTOH
 70
     1
  9
$DIMSE1
 70
     0
  9
$DIMSE2
 70
     0
  9
$DIMTAD
 70
     0
  9
$DIMZIN
 70
     0
  9
$DIMBLK
  1

  9
$DIMASO
 70
     1
  9
$DIMSHO
 70
     1
  9
$DIMPOST
  1
\X
  9
$DIMAPOST
  1

  9
$DIMALT
 70
     1
  9
$DIMALTD
 70
     2
  9
$DIMALTF
 40
25.3999999999999986
  9
$DIMLFAC
 40
1.0
  9
$DIMTOFL
 70
     0
  9
$DIMTVP
 40
0.0
  9
$DIMTIX
 70
     0
  9
$DIMSOXD
 70
     0
  9
$DIMSAH
 70
     0
  9
$DIMBLK1
  1

  9
$DIMBLK2
  1

  9
$DIMSTYLE
  2
STANDARD
  9
$DIMCLRD
 70
     0
  9
$DIMCLRE
 70
     0
  9
$DIMCLRT
 70
     0
  9
$DIMTFAC
 40
1.0
  9
$DIMGAP
 40
0.09
  9
$LUNITS
 70
     2
  9
$LUPREC
 70
     4
  9
$SKETCHINC
 40
0.1
  9
$FILLETRAD
 40
0.0
  9
$AUNITS
 70
     0
  9
$AUPREC
 70
     0
  9
$MENU
  1
.
  9
$ELEVATION
 40
0.0
  9
$PELEVATION
 40
0.0
  9
$THICKNESS
 40
0.0
  9
$LIMCHECK
 70
     0
  9
$BLIPMODE
 70
     0
  9
$CHAMFERA
 40
0.0
  9
$CHAMFERB
 40
0.0
  9
$SKPOLY
 70
     0
  9
$TDCREATE
 40
2458060.468368056230247
  9
$TDUPDATE
 40
2459568.9672337961383164
  9
$TDINDWG
 40
0.5345788194
  9
$TDUSRTIMER
 40
0.5345788194
  9
$USRTIMER
 70
     1
  9
$ANGBASE
 50
0.0
  9
$ANGDIR
 70
     0
  9
$PDMODE
 70
     0
  9
$PDSIZE
 40
0.3125
  9
$PLINEWID
 40
0.0
  9
$COORDS
 70
     1
  9
$SPLFRAME
 70
     0
  9
$SPLINETYPE
 70
     6
  9
$SPLINESEGS
 70
     8
  9
$ATTDIA
 70
     1
  9
$ATTREQ
 70
     1
  9
$HANDLING
 70
     1
  9
$HANDSEED
  5
2489E
  9
$SURFTAB1
 70
     6
  9
$SURFTAB2
 70
     6
  9
$SURFTYPE
 70
     6
  9
$SURFU
 70
     6
  9
$SURFV
 70
     6
  9
$UCSNAME
  2

  9
$UCSORG
 10
0.0
 20
0.0
 30
0.0
  9
$UCSXDIR
 10
1.0
 20
0.0
 30
0.0
  9
$UCSYDIR
 10
0.0
 20
1.0
 30
0.0
  9
$PUCSNAME
  2

  9
$PUCSORG
 10
0.0
 20
0.0
 30
0.0
  9
$PUCSXDIR
 10
1.0
 20
0.0
 30
0.0
  9
$PUCSYDIR
 10
0.0
 20
1.0
 30
0.0
  9
$USERI1
 70
     0
  9
$USERI2
 70
     0
  9
$USERI3
 70
     0
  9
$USERI4
 70
     0
  9
$USERI5
 70
     0
  9
$USERR1
 40
0.0
  9
$USERR2
 40
0.0
  9
$USERR3
 40
0.0
  9
$USERR4
 40
0.0
  9
$USERR5
 40
0.0
  9
$WORLDVIEW
 70
     1
  9
$SHADEDGE
 70
     3
  9
$SHADEDIF
 70
    70
  9
$TILEMODE
 70
     1
  9
$MAXACTVP
 70
    64
  9
$PLIMCHECK
 70
     0
  9
$PEXTMIN
 10
1.0000000000000000E+20
 20
1.0000000000000000E+20
 30
1.0000000000000000E+20
  9
$PEXTMAX
 10
-1.0000000000000000E+20
 20
-1.0000000000000000E+20
 30
-1.0000000000000000E+20
  9
$PLIMMIN
 10
0.0
 20
0.0
  9
$PLIMMAX
 10
12.0
 20
9.0
  9
$UNITMODE
 70
     0
  9
$VISRETAIN
 70
     1
  9
$PLINEGEN
 70
     0
  9
$PSLTSCALE
 70
     1
  0
ENDSEC
  0
SECTION
  2
TABLES
  0
TABLE
  2
VPORT
 70
     1
  0
VPORT
  2
*ACTIVE
 70
     0
 10
0.0
 20
0.0
 11
1.0
 21
1.0
 12
555.0695620301318058
 22
135.3243837066659125
 13
0.0
 23
0.0
 14
1.0
 24
1.0
 15
0.0
 25
0.0
 16
0.0
 26
0.0
 36
60.4960186965801583
 17
3911.3653564453120453
 27
132.5796051025390057
 37
0.0
 40
55.0853213869269496
 41
2.6138279932546369
 42
50.0
 43
0.0
 44
0.0
 50
0.0
 51
0.0
 71
     0
 72
   100
 73
     1
 74
     1
 75
     0
 76
     0
 77
     0
 78
     0
  0
ENDTAB
  0
TABLE
  2
LTYPE
 70
     2
  0
LTYPE
  2
CONTINUOUS
 70
     0
  3
Solid line
 72
    65
 73
     0
 40
0.0
  0
LTYPE
  2
PHANTOM2
 70
     0
  3
___ _ _ ___ _ _ ___ _ _ ___ _ _
 72
    65
 73
     6
 40
1.25
 49
0.625
 49
-0.125
 49
0.125
 49
-0.125
 49
0.125
 49
-0.125
  0
ENDTAB
  0
TABLE
  2
LAYER
 70
     2
  0
LAYER
  2
0
 70
     0
 62
   255
  6
CONTINUOUS
  0
LAYER
  2
DEFPOINTS
 70
     0
 62
     7
  6
CONTINUOUS
  0
ENDTAB
  0
TABLE
  2
STYLE
 70
     1
  0
STYLE
  2
STANDARD
 70
     0
 40
0.0
 41
0.8
 50
0.0
 71
     0
 42
0.2
  3
txt
  4

  0
ENDTAB
  0
TABLE
  2
VIEW
 70
     0
  0
ENDTAB
  0
TABLE
  2
UCS
 70
     0
  0
ENDTAB
  0
TABLE
  2
APPID
 70
    11
  0
APPID
  2
ACAD
 70
     0
  0
APPID
  2
ACAD_MLEADERVER
 70
     0
  0
APPID
  2
ACAD_EXEMPT_FROM_CAD_STANDARDS
 70
     0
  0
APPID
  2
ACAD_NAV_VCDISPLAY
 70
     0
  0
APPID
  2
ACAECLAYERSTANDARD
 70
     0
  0
APPID
  2
ACCMTRANSPARENCY
 70
     0
  0
APPID
  2
ACAD_DSTYLE_DIMJAG
 70
     0
  0
APPID
  2
ACAD_DSTYLE_DIMTALN
 70
     0
  0
APPID
  2
ACDBATTR
 70
     0
  0
APPID
  2
ACADANNOTATIVE
 70
     0
  0
APPID
  2
DCO15
 70
     0
  0
ENDTAB
  0
TABLE
  2
DIMSTYLE
 70
     1
  0
DIMSTYLE
  2
STANDARD
 70
     0
  3

  4

  5

  6

  7

 40
1.0
 41
0.1875
 42
0.0625
 43
0.38
 44
0.125
 45
0.0
 46
0.0
 47
0.01
 48
0.01
140
0.15625
141
0.09
142
0.0
143
25.3999999999999986
144
1.0
145
0.0
146
1.0
147
0.09
 71
     1
 72
     0
 73
     1
 74
     1
 75
     0
 76
     0
 77
     0
 78
     4
170
     0
171
     2
172
     0
173
     0
174
     0
175
     0
176
     0
177
     0
178
     0
  0
ENDTAB
  0
ENDSEC
  0
SECTION
  2
BLOCKS
  0
BLOCK
  8
0
  2
$MODEL_SPACE
 70
     0
 10
0.0
 20
0.0
 30
0.0
  3
$MODEL_SPACE
  1

  0
ENDBLK
  5
21
  8
0
  0
BLOCK
 67
     1
  8
0
  2
$PAPER_SPACE
 70
     0
 10
0.0
 20
0.0
 30
0.0
  3
$PAPER_SPACE
  1

  0
ENDBLK
  5
1D
 67
     1
  8
0
  0
ENDSEC
  0
SECTION
  2
ENTITIES
  0
ATTDEF
  5
20106
  8
DEFPOINTS
 10
4466.8225274532378535
 20
282.5684154070764862
 30
0.0
 40
0.001
  1
K-37273X
  3

  2
MODELNUMBER
 70
     0
1001
ACDBATTR
1070
     0
1070
     1
  0
ATTDEF
  5
20107
  8
DEFPOINTS
 10
4466.8225244637551441
 20
282.566748566697413
 30
0.0
 40
0.001
  1
AIRFOIL
  3

  2
TRADENAME
 70
     0
1001
ACDBATTR
1070
     0
1070
     1
  0
ATTDEF
  5
20108
  8
DEFPOINTS
 10
4466.8225274532378535
 20
282.5650820737432127
 30
0.0
 40
0.001
  1
SUPPLY ELBOW AND BRACKET
  3

  2
PRODUCT
 70
     0
1001
ACDBATTR
1070
     0
1070
     1
  0
LINE
  5
246E7
  8
0
 10
4467.5410192256113078
 20
278.3563646994729197
 30
0.0
 11
4467.5410242676107373
 21
278.3563781443729113
 31
0.0
  0
LINE
  5
246E8
  8
0
 10
4466.5175347669110124
 20
277.4538869057728903
 30
0.0
 11
4466.5175347669110124
 21
277.7193669587729232
 31
0.0
  0
LINE
  5
246E9
  8
0
 10
4466.5470623260116554
 20
275.6768931832729095
 30
0.0
 11
4466.5470623260116554
 21
271.7960142025729056
 31
0.0
  0
LINE
  5
246EA
  8
0
 10
4466.3997594469101386
 20
277.0863420021728984
 30
0.0
 11
4466.4576935847107961
 21
275.6957587236728955
 31
0.0
  0
LINE
  5
246EB
  8
0
 10
4466.3923197708481894
 20
277.422068837196889
 30
0.0
 11
4466.4059875524435483
 21
277.094042079701012
 31
0.0
  0
LINE
  5
246EC
  8
0
 10
4467.1277709874111679
 20
277.7193215689728731
 30
0.0
 11
4467.1277709874111679
 21
277.4539180970729149
 31
0.0
  0
LINE
  5
246ED
  8
0
 10
4467.1277709874111679
 20
272.3752160178729014
 30
0.0
 11
4467.1277709874111679
 21
275.6768931832729095
 31
0.0
  0
LINE
  5
246EE
  8
0
 10
4467.5499694849113439
 20
278.4019697570728908
 30
0.0
 11
4467.549968971112321
 21
278.4019571866729166
 31
0.0
  0
LINE
  5
246EF
  8
0
 10
4467.2529999954122104
 20
277.422405123072906
 30
0.0
 11
4467.2393254494108987
 21
277.0942160178728955
 31
0.0
  0
LINE
  5
246F0
  8
0
 10
4467.3046014256105991
 20
277.0863420021728984
 30
0.0
 11
4467.2466672878108511
 21
275.6957587236728955
 31
0.0
  0
LINE
  5
246F1
  8
0
 10
4466.4773615585118023
 20
275.6768931832729095
 30
0.0
 11
4467.22699931391071
 21
275.6768931832729095
 31
0.0
  0
LINE
  5
246F2
  8
0
 10
4467.2967274085121971
 20
277.0942160178728955
 30
0.0
 11
4466.40764522911104
 21
277.0942160178728955
 31
0.0
  0
LINE
  5
246F3
  8
0
 10
4467.1277709874111679
 20
277.6255703485729214
 30
0.0
 11
4466.5175347669110124
 21
277.6255703485729214
 31
0.0
  0
ARC
  5
246F4
  8
0
 10
4466.8226438569117818
 20
193.3244859420728972
 30
0.0
 40
84.3449287811999966
 50
89.7923900117178846
 51
89.7927257136095562
  0
ARC
  5
246F5
  8
0
 10
4466.8226438569117818
 20
193.3244859420728972
 30
0.0
 40
84.3449287811999966
 50
89.7927257136095562
 51
90.2072620313442144
  0
ARC
  5
246F6
  8
0
 10
4467.1671410673488936
 20
277.7193229012626716
 30
0.0
 40
0.0393700799611891
 50
130.2782882426809863
 51
180.0019388983220097
  0
ARC
  5
246F7
  8
0
 10
4466.478164688211109
 20
277.719372397372922
 30
0.0
 40
0.0393700787
 50
359.9920851509003228
 51
49.7144852692175974
  0
ARC
  5
246F8
  8
0
 10
4467.22699931391071
 20
275.6965782226728834
 30
0.0
 40
0.0196850394
 50
270.0
 51
357.6140559692000807
  0
ARC
  5
246F9
  8
0
 10
4466.4773615585118023
 20
275.6965782226728834
 30
0.0
 40
0.0196850394
 50
182.3859440307998057
 51
270.0
  0
ARC
  5
246FA
  8
0
 10
4466.4076334775818395
 20
277.0863419959720773
 30
0.0
 40
0.0078740306700265
 50
89.914489370387642
 51
179.9999548796712929
  0
ARC
  5
246FB
  8
0
 10
4467.296727409911
 20
277.0863420021728984
 30
0.0
 40
0.0078740157
 50
0.0
 51
90.0
  0
ARC
  5
246FC
  8
0
 10
4466.4776406427081383
 20
277.4544460683442821
 30
0.0
 40
0.0398980426675859
 50
266.9931065408306949
 51
359.1969855630254074
  0
ARC
  5
246FD
  8
0
 10
4466.8400264167576097
 20
281.9453661843413101
 30
0.0
 40
4.545399886860837
 50
261.9126097494145142
 51
265.4007272891959133
  0
ARC
  5
246FE
  8
0
 10
4466.4822214972818983
 20
279.3917087607721896
 30
0.0
 40
1.966808687239356
 50
251.7641078832006087
 51
261.7666429184918115
  0
ARC
  5
246FF
  8
0
 10
4466.1644682787582497
 20
278.4206617512153912
 30
0.0
 40
0.9450991197862088
 50
225.7064234165873984
 51
251.6382977017609051
  0
ARC
  5
24700
  8
0
 10
4466.2020228088867952
 20
278.4195863230424948
 30
0.0
 40
0.9709482544990894
 50
200.6215514090833096
 51
224.0756676579426028
  0
ARC
  5
24701
  8
0
 10
4468.1681533534820119
 20
279.0938987427733764
 30
0.0
 40
3.0492090361313422
 50
186.4715912530733988
 51
199.4686552647542896
  0
ARC
  5
24702
  8
0
 10
4476.8735869113370427
 20
280.1410865415043077
 30
0.0
 40
11.8173483897214293
 50
179.9907652511608944
 51
186.7592055688467951
  0
ARC
  5
24703
  8
0
 10
4552.6064380636025817
 20
280.5711517501868002
 30
0.0
 40
87.5512463326546708
 50
178.3090533142427887
 51
180.2802003391319943
  0
ARC
  5
24704
  8
0
 10
4475.6367969012471804
 20
282.977466615856315
 30
0.0
 40
10.5449682049221902
 50
171.3078816179456112
 51
179.037285717101895
  0
ARC
  5
24705
  8
0
 10
4468.9249254289316013
 20
283.9801339442100243
 30
0.0
 40
3.7587282208669941
 50
165.6234159163518882
 51
170.9545506845387024
  0
ARC
  5
24706
  8
0
 10
4466.9284864568826379
 20
284.5046592046131195
 30
0.0
 40
1.6946171527031539
 50
152.0138684495302925
 51
166.0425253683818028
  0
ARC
  5
24707
  8
0
 10
4466.2386434675909186
 20
284.8530104306205999
 30
0.0
 40
0.9221175728152449
 50
127.3076532975057944
 51
151.0135203179067958
  0
ARC
  5
24708
  8
0
 10
4466.3275104977010415
 20
284.6951231729138954
 30
0.0
 40
1.1018456383017601
 50
102.2172974207436056
 51
126.0070025640365969
  0
ARC
  5
24709
  8
0
 10
4466.7490743484031555
 20
282.6402052021069267
 30
0.0
 40
3.199516778582471
 50
90.0925684153592385
 51
101.8081909599736008
  0
ARC
  5
2470A
  8
0
 10
4466.8866710400270676
 20
282.6967776152656029
 30
0.0
 40
3.1461810404493868
 50
77.8791856455511748
 51
92.6008336774325329
  0
ARC
  5
2470B
  8
0
 10
4467.3229787931777537
 20
284.7137495529178182
 30
0.0
 40
1.0825645881626751
 50
52.0849879277774477
 51
78.041667433101523
  0
ARC
  5
2470C
  8
0
 10
4467.3722286245938449
 20
284.8265806643826181
 30
0.0
 40
0.9637679753987818
 50
26.0510046729226517
 51
50.2726880029233882
  0
ARC
  5
2470D
  8
0
 10
4466.4000847279494337
 20
284.3796523762334232
 30
0.0
 40
2.033582214146584
 50
9.4801630425658026
 51
25.3349074227553004
  0
ARC
  5
2470E
  8
0
 10
4457.4024532771527447
 20
282.883649817755213
 30
0.0
 40
11.1547327954305899
 50
0.8268320949514713
 51
9.4473214720624181
  0
ARC
  5
2470F
  8
0
 10
4340.2839319779359357
 20
280.1478069643084154
 30
0.0
 40
128.3047982568199927
 50
0.0858219620196173
 51
1.2937094032406891
  0
ARC
  5
24710
  8
0
 10
4456.4784295548788577
 20
280.1661014642180021
 30
0.0
 40
12.1114051274751198
 50
355.1201489288803828
 51
0.822655174940496
  0
ARC
  5
24711
  8
0
 10
4463.2681097138265613
 20
279.4790808227820094
 30
0.0
 40
5.2889748021569503
 50
347.7594855319334783
 51
356.2788864122030077
  0
ARC
  5
24712
  8
0
 10
4466.9932747423272303
 20
278.6464983289578186
 30
0.0
 40
1.472169518241957
 50
327.1859434913718019
 51
348.6881630647332031
  0
ARC
  5
24713
  8
0
 10
4467.557337938848832
 20
278.3280426680728965
 30
0.0
 40
0.8264117418303643
 50
296.0393975722906248
 51
324.5481460034583847
  0
ARC
  5
24714
  8
0
 10
4467.3224019496647088
 20
278.7885942545731268
 30
0.0
 40
1.343377729910102
 50
281.6987054968544726
 51
296.4194630720378996
  0
ARC
  5
24715
  8
0
 10
4467.0396159925903703
 20
280.0375122803832824
 30
0.0
 40
2.6237984253512741
 50
274.6648096195053768
 51
282.215695486146501
  0
ARC
  5
24716
  8
0
 10
2210.2348417806761063
 20
24453.6978683321613062
 30
0.0
 40
24281.4008294306804601
 50
275.3332908895091009
 51
275.33348815519048
  0
ARC
  5
24717
  8
0
 10
4467.1671410561102675
 20
277.4539171879524133
 30
0.0
 40
0.0393700687090846
 50
179.9986769449452026
 51
273.8180357789241839
  0
ARC
  5
24718
  8
0
 10
4468.4790264953953738
 20
279.1341634461634271
 30
0.0
 40
0.0669283033722635
 50
1.42355780951544
 51
61.5683595046599876
  0
ARC
  5
24719
  8
0
 10
4468.1135622433039316
 20
278.6130348969311967
 30
0.0
 40
0.7030309805321329
 50
55.5861535716112414
 51
77.0765604646743441
  0
ARC
  5
2471A
  8
0
 10
4467.6134487526460362
 20
276.8153436560181717
 30
0.0
 40
2.5684560716001248
 50
75.1712868757380761
 51
83.1061372339872264
  0
ARC
  5
2471B
  8
0
 10
4466.7617552689043805
 20
268.7386789515712735
 30
0.0
 40
10.68967551848284
 50
83.7703004604852879
 51
88.3535068110709148
  0
ARC
  5
2471C
  8
0
 10
4466.8292310591987189
 20
269.8746879925558915
 30
0.0
 40
9.5522601533790006
 50
88.5622859341675763
 51
93.5913535480615337
  0
ARC
  5
2471D
  8
0
 10
4466.461239782447592
 20
273.8082018893445024
 30
0.0
 40
5.6047235362921128
 50
92.3555944889877338
 51
99.3151879002483469
  0
ARC
  5
2471E
  8
0
 10
4465.8831354882859159
 20
277.4774590150403242
 30
0.0
 40
1.8904237768292591
 50
100.0257893079923974
 51
106.7241321496909023
  0
ARC
  5
2471F
  8
0
 10
4465.5911904219492499
 20
278.4447521312279719
 30
0.0
 40
0.8800354508141065
 50
106.6431310062157962
 51
117.2881878181034949
  0
ARC
  5
24720
  8
0
 10
4465.376691790120276
 20
278.8688168728779146
 30
0.0
 40
0.4048414789309116
 50
117.8248574659214967
 51
129.1358694584598936
  0
ARC
  5
24721
  8
0
 10
4465.1577820448355851
 20
279.1369560224177917
 30
0.0
 40
0.0586942151216529
 50
128.5906259191538936
 51
181.5013719407307065
  0
ARC
  5
24722
  8
0
 10
4467.338178465767669
 20
278.6983345036247783
 30
0.0
 40
1.263705920510001
 50
208.1084786869205914
 51
228.6692626888670929
  0
ARC
  5
24723
  8
0
 10
4468.109165959944221
 20
279.1399939107641899
 30
0.0
 40
2.1520064426523691
 50
201.0303598923694892
 51
208.8093538054438056
  0
ARC
  5
24724
  8
0
 10
4466.2795969749777214
 20
278.4143933350853786
 30
0.0
 40
0.1850752008830944
 50
176.6942624819047865
 51
194.6071123532489082
  0
ARC
  5
24725
  8
0
 10
4466.7213503244183812
 20
278.354523531451207
 30
0.0
 40
0.6304793617118257
 50
161.2328625587998943
 51
173.5759381704231998
  0
ARC
  5
24726
  8
0
 10
4467.1446961805349929
 20
278.2768876668599205
 30
0.0
 40
1.0581535647621421
 50
136.1234203450372888
 51
164.6294150220973904
  0
ARC
  5
24727
  8
0
 10
4466.859792517515416
 20
278.5609012846283008
 30
0.0
 40
0.6559734394590452
 50
105.5720035063230995
 51
136.7573826161367094
  0
ARC
  5
24728
  8
0
 10
4466.8215843520683848
 20
278.6423920841867812
 30
0.0
 40
0.5674133474923988
 50
64.4799884720711987
 51
104.0642857282931999
  0
ARC
  5
24729
  8
0
 10
4466.6876783590323612
 20
278.428043690531581
 30
0.0
 40
0.8190348537980767
 50
30.9296682761155388
 51
62.4862459639992593
  0
ARC
  5
2472A
  8
0
 10
4466.3275506332993245
 20
278.1949458517025278
 30
0.0
 40
1.247849291827192
 50
12.3642762620773805
 51
31.6115605840142493
  0
ARC
  5
2472B
  8
0
 10
4467.3489257627861662
 20
278.420424478267023
 30
0.0
 40
0.2018889668614654
 50
338.170313413887186
 51
11.9256449155536099
  0
ARC
  5
2472C
  8
0
 10
4465.7078859907051083
 20
279.0644917725138043
 30
0.0
 40
1.9647895816626819
 50
329.1310147367902914
 51
338.5300325573776945
  0
ARC
  5
2472D
  8
0
 10
4466.3073817264194076
 20
278.6933681488083039
 30
0.0
 40
1.2598495795144971
 50
311.4699474290874832
 51
329.6296440770003073
  0
ARC
  5
2472E
  8
0
 10
4454.4543236432027697
 20
272.746185462698179
 30
0.0
 40
12.1300104812093306
 50
340.460784021195991
 51
355.5072889931798272
  0
ARC
  5
2472F
  8
0
 10
4362.2216263876352969
 20
304.6890207974183227
 30
0.0
 40
109.7371514790555977
 50
339.2157103746533835
 51
340.8492798585477885
  0
ARC
  5
24730
  8
0
 10
4486.641825176254315
 20
257.6480711279500042
 30
0.0
 40
23.2792930809199987
 50
159.6363848335699913
 51
164.898964808493588
  0
ARC
  5
24731
  8
0
 10
4475.5469092103858202
 20
260.5917921174901721
 30
0.0
 40
11.8007029161406294
 50
164.6639636066809089
 51
174.7698972882562032
  0
ARC
  5
24732
  8
0
 10
4472.968997097466854
 20
260.8229006454058094
 30
0.0
 40
9.2124579623312144
 50
174.7397625734176927
 51
187.8656446592866018
  0
ARC
  5
24733
  8
0
 10
4478.5413042443124141
 20
261.8098970710079243
 30
0.0
 40
14.8689666901392599
 50
188.6946778222464047
 51
198.600909587659487
  0
ARC
  5
24734
  8
0
 10
4508.2882214578448838
 20
272.0141072033296155
 30
0.0
 40
46.3172460665799122
 50
198.826881487774898
 51
202.3690580707286983
  0
ARC
  5
24735
  8
0
 10
4426.2976045623681784
 20
238.1505763459900038
 30
0.0
 40
42.3913426506446598
 50
19.6384528979172011
 51
22.5205769173598718
  0
ARC
  5
24736
  8
0
 10
4458.0657024924348661
 20
249.5171808989389888
 30
0.0
 40
8.6510446202813824
 50
13.2061564137860508
 51
19.4484252364497294
  0
ARC
  5
24737
  8
0
 10
4463.4752833799793734
 20
250.7506962820474996
 30
0.0
 40
3.1029170914498319
 50
351.9431729191668978
 51
13.8516024818065802
  0
ARC
  5
24738
  8
0
 10
4455.272753321851269
 20
272.6359602797140838
 30
0.0
 40
11.85788477852687
 50
343.2737486524200108
 51
358.7400155924302112
  0
ARC
  5
24739
  8
0
 10
4426.0248692804825623
 20
281.73132765533569
 30
0.0
 40
42.4869635082267791
 50
338.5840978912136165
 51
342.8785835197746792
  0
ARC
  5
2473A
  8
0
 10
4490.23470787023507
 20
256.5770343408008216
 30
0.0
 40
26.4742073150661383
 50
158.6441939601922115
 51
164.999071790360091
  0
ARC
  5
2473B
  8
0
 10
4475.1733254909449897
 20
260.653833416371981
 30
0.0
 40
10.8709468279904904
 50
165.2070485189219937
 51
177.1555013316620091
  0
ARC
  5
2473C
  8
0
 10
4473.142487706331849
 20
260.8190897686964149
 30
0.0
 40
8.8346441078446691
 50
177.5723279894465065
 51
192.6028753426373044
  0
ARC
  5
2473D
  8
0
 10
4484.7710358293788886
 20
263.5330690389257029
 30
0.0
 40
20.7754792676774684
 50
192.9099074140343077
 51
202.0428668581097043
  0
ARC
  5
2473E
  8
0
 10
4347.9546867931194356
 20
207.7993480017439936
 30
0.0
 40
126.957309957308297
 50
20.8425675986862302
 51
22.1839303087412283
  0
ARC
  5
2473F
  8
0
 10
4456.5263984218236146
 20
249.0965940689827107
 30
0.0
 40
10.7967978455996203
 50
13.4235152897642305
 51
21.029076526375281
  0
ARC
  5
24740
  8
0
 10
4463.5206599171933703
 20
250.7630488732557978
 30
0.0
 40
3.6067531640616299
 50
358.0034593546627093
 51
13.4675081124917497
  0
ARC
  5
24741
  8
0
 10
4496.7513376908227656
 20
248.163304912616411
 30
0.0
 40
29.729240653922151
 50
175.2262850177446865
 51
176.2566334008411104
  0
ARC
  5
24742
  8
0
 10
4422.0215966143432524
 20
264.4363314871145008
 30
0.0
 40
46.8005436673068687
 50
344.0849131096283031
 51
351.238094585681381
  0
ARC
  5
24743
  8
0
 10
4449.4381133799861345
 20
260.5843234111144966
 30
0.0
 40
19.1207754448007492
 50
350.1315035563201263
 51
4.986479066043751
  0
ARC
  5
24744
  8
0
 10
4446.7653852160801762
 20
259.8114041452827792
 30
0.0
 40
21.8571849649324683
 50
6.3960762572091578
 51
18.1824125664188898
  0
ARC
  5
24745
  8
0
 10
4496.0570450944287586
 20
275.6110448848396004
 30
0.0
 40
29.9057038462252898
 50
191.4852855825172071
 51
197.4727498683137128
  0
ARC
  5
24746
  8
0
 10
4479.0841705846187324
 20
271.904140108451486
 30
0.0
 40
11.9895756220696601
 50
180.8384640244291006
 51
193.4893431381468929
  0
ARC
  5
24747
  8
0
 10
4613.4091815265110199
 20
307.2919903641205792
 30
0.0
 40
150.8951387920706964
 50
194.6582959242444986
 51
196.2322142002711018
  0
ARC
  5
24748
  8
0
 10
4451.7301441868894472
 20
260.6439118766703018
 30
0.0
 40
17.3831538494138691
 50
359.77397592992412
 51
14.8946567692371303
  0
ARC
  5
24749
  8
0
 10
4444.1881840823562015
 20
261.0391944687210071
 30
0.0
 40
24.9292945336951384
 50
350.2827429929291725
 51
358.9338423114060106
  0
ARC
  5
2474A
  8
0
 10
4423.6847186646882619
 20
264.1447030731545738
 30
0.0
 40
45.6645070360616927
 50
347.354037811797582
 51
350.7843207066702007
  0
ARC
  5
2474B
  8
0
 10
4431.6854021038279825
 20
262.0636296864873884
 30
0.0
 40
37.4033481836926498
 50
341.8954170040673262
 51
347.781472318321903
  0
ARC
  5
2474C
  8
0
 10
4465.5139943174917789
 20
251.0142584167687119
 30
0.0
 40
1.8159880626497791
 50
329.926794824282581
 51
341.5801726874126985
  0
ARC
  5
2474D
  8
0
 10
4466.8280969411698607
 20
250.2702388370196047
 30
0.0
 40
0.3062995985995203
 50
281.0963060200102746
 51
327.1870727701414125
  0
ARC
  5
2474E
  8
0
 10
4466.8360257570739122
 20
250.2474668091377055
 30
0.0
 40
0.2824477620640739
 50
223.618084848712499
 51
280.4070078137855262
  0
ARC
  5
2474F
  8
0
 10
4466.8814234282435791
 20
250.2773369229487912
 30
0.0
 40
0.3360592500775129
 50
173.4268247952581987
 51
221.9652825499871938
  0
LINE
  5
24751
  8
0
 10
4466.5470623260116554
 20
271.7960142025729056
 30
0.0
 11
4466.5470623260116554
 21
275.6768931832729095
 31
0.0
  0
ARC
  5
24752
  8
0
 10
4458.7395481792018472
 20
272.3754685030024802
 30
0.0
 40
7.8370417099763641
 50
350.6358250988968734
 51
359.9981541080356919
  0
LINE
  5
24753
  8
0
 10
4466.5765898851113889
 20
272.3752160178680128
 30
0.0
 11
4466.5765898851113889
 21
275.6768931832729095
 31
0.0
  0
ENDSEC
  0
EOF
