  0
SECTION
  2
HEADER
  9
$ACADVER
  1
AC1009
  9
$INSBASE
 10
4445.3644784502657785
 20
283.8319600322154201
 30
0.0
  9
$EXTMIN
 10
4442.313833511077064
 20
251.227534294109887
 30
0.0
  9
$EXTMAX
 10
4446.5489629702669845
 20
287.1054739027512142
 30
0.0
  9
$LIMMIN
 10
0.0
 20
0.0
  9
$LIMMAX
 10
11.6929133858000007
 20
8.2677165353999982
  9
$ORTHOMODE
 70
     0
  9
$REGENMODE
 70
     1
  9
$FILLMODE
 70
     1
  9
$QTEXTMODE
 70
     0
  9
$MIRRTEXT
 70
     0
  9
$DRAGMODE
 70
     2
  9
$LTSCALE
 40
0.6431102362
  9
$OSMODE
 70
   575
  9
$ATTMODE
 70
     1
  9
$TEXTSIZE
 40
0.2
  9
$TRACEWID
 40
0.05
  9
$TEXTSTYLE
  7
STANDARD
  9
$CLAYER
  8
0
  9
$CELTYPE
  6
BYLAYER
  9
$CECOLOR
 62
   256
  9
$DIMSCALE
 40
1.0
  9
$DIMASZ
 40
0.1875
  9
$DIMEXO
 40
0.0625
  9
$DIMDLI
 40
0.4443307087
  9
$DIMRND
 40
0.0
  9
$DIMDLE
 40
0.0
  9
$DIMEXE
 40
0.125
  9
$DIMTP
 40
0.01
  9
$DIMTM
 40
0.01
  9
$DIMTXT
 40
2.0
  9
$DIMCEN
 40
0.1052362205
  9
$DIMTSZ
 40
0.0
  9
$DIMTOL
 70
     1
  9
$DIMLIM
 70
     0
  9
$DIMTIH
 70
     1
  9
$DIMTOH
 70
     1
  9
$DIMSE1
 70
     0
  9
$DIMSE2
 70
     0
  9
$DIMTAD
 70
     0
  9
$DIMZIN
 70
     0
  9
$DIMBLK
  1

  9
$DIMASO
 70
     1
  9
$DIMSHO
 70
     1
  9
$DIMPOST
  1
\X
  9
$DIMAPOST
  1

  9
$DIMALT
 70
     1
  9
$DIMALTD
 70
     2
  9
$DIMALTF
 40
25.3999999999999986
  9
$DIMLFAC
 40
1.0
  9
$DIMTOFL
 70
     0
  9
$DIMTVP
 40
0.0
  9
$DIMTIX
 70
     0
  9
$DIMSOXD
 70
     0
  9
$DIMSAH
 70
     0
  9
$DIMBLK1
  1

  9
$DIMBLK2
  1

  9
$DIMSTYLE
  2
STANDARD
  9
$DIMCLRD
 70
     0
  9
$DIMCLRE
 70
     0
  9
$DIMCLRT
 70
     0
  9
$DIMTFAC
 40
1.0
  9
$DIMGAP
 40
0.09
  9
$LUNITS
 70
     2
  9
$LUPREC
 70
     4
  9
$SKETCHINC
 40
0.1
  9
$FILLETRAD
 40
0.0
  9
$AUNITS
 70
     0
  9
$AUPREC
 70
     0
  9
$MENU
  1
.
  9
$ELEVATION
 40
0.0
  9
$PELEVATION
 40
0.0
  9
$THICKNESS
 40
0.0
  9
$LIMCHECK
 70
     0
  9
$BLIPMODE
 70
     0
  9
$CHAMFERA
 40
0.0
  9
$CHAMFERB
 40
0.0
  9
$SKPOLY
 70
     0
  9
$TDCREATE
 40
2458060.468368056230247
  9
$TDUPDATE
 40
2459568.9689930560998619
  9
$TDINDWG
 40
0.5354700231
  9
$TDUSRTIMER
 40
0.5354700231
  9
$USRTIMER
 70
     1
  9
$ANGBASE
 50
0.0
  9
$ANGDIR
 70
     0
  9
$PDMODE
 70
     0
  9
$PDSIZE
 40
0.3125
  9
$PLINEWID
 40
0.0
  9
$COORDS
 70
     1
  9
$SPLFRAME
 70
     0
  9
$SPLINETYPE
 70
     6
  9
$SPLINESEGS
 70
     8
  9
$ATTDIA
 70
     1
  9
$ATTREQ
 70
     1
  9
$HANDLING
 70
     1
  9
$HANDSEED
  5
24AC1
  9
$SURFTAB1
 70
     6
  9
$SURFTAB2
 70
     6
  9
$SURFTYPE
 70
     6
  9
$SURFU
 70
     6
  9
$SURFV
 70
     6
  9
$UCSNAME
  2

  9
$UCSORG
 10
0.0
 20
0.0
 30
0.0
  9
$UCSXDIR
 10
1.0
 20
0.0
 30
0.0
  9
$UCSYDIR
 10
0.0
 20
1.0
 30
0.0
  9
$PUCSNAME
  2

  9
$PUCSORG
 10
0.0
 20
0.0
 30
0.0
  9
$PUCSXDIR
 10
1.0
 20
0.0
 30
0.0
  9
$PUCSYDIR
 10
0.0
 20
1.0
 30
0.0
  9
$USERI1
 70
     0
  9
$USERI2
 70
     0
  9
$USERI3
 70
     0
  9
$USERI4
 70
     0
  9
$USERI5
 70
     0
  9
$USERR1
 40
0.0
  9
$USERR2
 40
0.0
  9
$USERR3
 40
0.0
  9
$USERR4
 40
0.0
  9
$USERR5
 40
0.0
  9
$WORLDVIEW
 70
     1
  9
$SHADEDGE
 70
     3
  9
$SHADEDIF
 70
    70
  9
$TILEMODE
 70
     1
  9
$MAXACTVP
 70
    64
  9
$PLIMCHECK
 70
     0
  9
$PEXTMIN
 10
1.0000000000000000E+20
 20
1.0000000000000000E+20
 30
1.0000000000000000E+20
  9
$PEXTMAX
 10
-1.0000000000000000E+20
 20
-1.0000000000000000E+20
 30
-1.0000000000000000E+20
  9
$PLIMMIN
 10
0.0
 20
0.0
  9
$PLIMMAX
 10
12.0
 20
9.0
  9
$UNITMODE
 70
     0
  9
$VISRETAIN
 70
     1
  9
$PLINEGEN
 70
     0
  9
$PSLTSCALE
 70
     1
  0
ENDSEC
  0
SECTION
  2
TABLES
  0
TABLE
  2
VPORT
 70
     1
  0
VPORT
  2
*ACTIVE
 70
     0
 10
0.0
 20
0.0
 11
1.0
 21
1.0
 12
533.0660416850844285
 22
136.5868989537021037
 13
0.0
 23
0.0
 14
1.0
 24
1.0
 15
0.0
 25
0.0
 16
0.0
 26
0.0
 36
60.4960186965801583
 17
3911.3653564453120453
 27
132.5796051025390057
 37
0.0
 40
50.0116733688878128
 41
2.6138279932546369
 42
50.0
 43
0.0
 44
0.0
 50
0.0
 51
0.0
 71
     0
 72
   100
 73
     1
 74
     1
 75
     0
 76
     0
 77
     0
 78
     0
  0
ENDTAB
  0
TABLE
  2
LTYPE
 70
     2
  0
LTYPE
  2
CONTINUOUS
 70
     0
  3
Solid line
 72
    65
 73
     0
 40
0.0
  0
LTYPE
  2
PHANTOM2
 70
     0
  3
___ _ _ ___ _ _ ___ _ _ ___ _ _
 72
    65
 73
     6
 40
1.25
 49
0.625
 49
-0.125
 49
0.125
 49
-0.125
 49
0.125
 49
-0.125
  0
ENDTAB
  0
TABLE
  2
LAYER
 70
     2
  0
LAYER
  2
0
 70
     0
 62
   255
  6
CONTINUOUS
  0
LAYER
  2
DEFPOINTS
 70
     0
 62
     7
  6
CONTINUOUS
  0
ENDTAB
  0
TABLE
  2
STYLE
 70
     1
  0
STYLE
  2
STANDARD
 70
     0
 40
0.0
 41
0.8
 50
0.0
 71
     0
 42
0.2
  3
txt
  4

  0
ENDTAB
  0
TABLE
  2
VIEW
 70
     0
  0
ENDTAB
  0
TABLE
  2
UCS
 70
     0
  0
ENDTAB
  0
TABLE
  2
APPID
 70
    11
  0
APPID
  2
ACAD
 70
     0
  0
APPID
  2
ACAD_MLEADERVER
 70
     0
  0
APPID
  2
ACAD_EXEMPT_FROM_CAD_STANDARDS
 70
     0
  0
APPID
  2
ACAD_NAV_VCDISPLAY
 70
     0
  0
APPID
  2
ACAECLAYERSTANDARD
 70
     0
  0
APPID
  2
ACCMTRANSPARENCY
 70
     0
  0
APPID
  2
ACAD_DSTYLE_DIMJAG
 70
     0
  0
APPID
  2
ACAD_DSTYLE_DIMTALN
 70
     0
  0
APPID
  2
ACDBATTR
 70
     0
  0
APPID
  2
ACADANNOTATIVE
 70
     0
  0
APPID
  2
DCO15
 70
     0
  0
ENDTAB
  0
TABLE
  2
DIMSTYLE
 70
     1
  0
DIMSTYLE
  2
STANDARD
 70
     0
  3

  4

  5

  6

  7

 40
1.0
 41
0.1875
 42
0.0625
 43
0.38
 44
0.125
 45
0.0
 46
0.0
 47
0.01
 48
0.01
140
0.15625
141
0.09
142
0.0
143
25.3999999999999986
144
1.0
145
0.0
146
1.0
147
0.09
 71
     1
 72
     0
 73
     1
 74
     1
 75
     0
 76
     0
 77
     0
 78
     4
170
     0
171
     2
172
     0
173
     0
174
     0
175
     0
176
     0
177
     0
178
     0
  0
ENDTAB
  0
ENDSEC
  0
SECTION
  2
BLOCKS
  0
BLOCK
  8
0
  2
$MODEL_SPACE
 70
     0
 10
0.0
 20
0.0
 30
0.0
  3
$MODEL_SPACE
  1

  0
ENDBLK
  5
21
  8
0
  0
BLOCK
 67
     1
  8
0
  2
$PAPER_SPACE
 70
     0
 10
0.0
 20
0.0
 30
0.0
  3
$PAPER_SPACE
  1

  0
ENDBLK
  5
1D
 67
     1
  8
0
  0
ENDSEC
  0
SECTION
  2
ENTITIES
  0
ATTDEF
  5
20106
  8
DEFPOINTS
 10
4445.36451963781019
 20
283.8353158549339241
 30
0.0
 40
0.001
  1
K-37273X
  3

  2
MODELNUMBER
 70
     0
1001
ACDBATTR
1070
     0
1070
     1
  0
ATTDEF
  5
20107
  8
DEFPOINTS
 10
4445.3645166483265712
 20
283.8336490145546804
 30
0.0
 40
0.001
  1
AIRFOIL
  3

  2
TRADENAME
 70
     0
1001
ACDBATTR
1070
     0
1070
     1
  0
ATTDEF
  5
20108
  8
DEFPOINTS
 10
4445.36451963781019
 20
283.8319825216005938
 30
0.0
 40
0.001
  1
SUPPLY ELBOW AND BRACKET
  3

  2
PRODUCT
 70
     0
1001
ACDBATTR
1070
     0
1070
     1
  0
LINE
  5
2488B
  8
0
 10
4444.4983367180666392
 20
279.2817863830090914
 30
0.0
 11
4444.4392815999663071
 21
279.2227312649091004
 31
0.0
  0
LINE
  5
2488C
  8
0
 10
4443.3370768754666642
 20
273.6377312649091778
 30
0.0
 11
4443.3370768754666642
 21
276.9394084303091859
 31
0.0
  0
LINE
  5
2488D
  8
0
 10
4443.218180575065162
 20
276.9582739707091719
 30
0.0
 11
4443.1602532634660747
 21
278.3485294496092024
 31
0.0
  0
LINE
  5
2488E
  8
0
 10
4443.8882579778655781
 20
273.6377312649091778
 30
0.0
 11
4443.8882579778655781
 21
276.9394084303091859
 31
0.0
  0
LINE
  5
2488F
  8
0
 10
4444.4589666392657819
 20
279.5820935656092274
 30
0.0
 11
4444.4589666392657819
 21
279.2817863830090914
 31
0.0
  0
LINE
  5
24890
  8
0
 10
4444.5770768754664459
 20
277.8054084303092282
 30
0.0
 11
4444.5770768754664459
 21
273.0585294496091819
 31
0.0
  0
LINE
  5
24891
  8
0
 10
4444.0071542782661709
 20
276.9582739707091719
 30
0.0
 11
4444.0650815898661676
 21
278.3485294496092024
 31
0.0
  0
LINE
  5
24892
  8
0
 10
4444.4581805750658532
 20
277.8242739707092142
 30
0.0
 11
4444.4002532634658564
 21
279.2145294496090742
 31
0.0
  0
LINE
  5
24893
  8
0
 10
4445.1282579778662694
 20
277.8054084303092282
 30
0.0
 11
4445.1282579778662694
 21
273.0585294496091819
 31
0.0
  0
LINE
  5
24894
  8
0
 10
4445.2463682140660239
 20
280.4254684820091938
 30
0.0
 11
4445.2463682140660239
 21
279.2817863830090914
 31
0.0
  0
LINE
  5
24895
  8
0
 10
4445.3644784502657785
 20
280.5609957399091741
 30
0.0
 11
4445.3644784502657785
 21
286.9761214869092214
 31
0.0
  0
LINE
  5
24896
  8
0
 10
4445.2471542782650431
 20
277.8242739707092142
 30
0.0
 11
4445.3050815898659494
 21
279.2145294496090742
 31
0.0
  0
LINE
  5
24897
  8
0
 10
4443.9874863043660298
 20
276.9394084303091859
 30
0.0
 11
4443.2378485489662125
 21
276.9394084303091859
 31
0.0
  0
LINE
  5
24898
  8
0
 10
4445.2069981353661206
 20
279.2817863830090914
 30
0.0
 11
4445.2660532534664526
 21
279.2227312649091004
 31
0.0
  0
LINE
  5
24899
  8
0
 10
4445.227486304366721
 20
277.8054084303092282
 30
0.0
 11
4444.4778485489659943
 21
277.8054084303092282
 31
0.0
  0
LINE
  5
2489A
  8
0
 10
4444.0572028800661428
 20
278.3567312649091718
 30
0.0
 11
4443.168120453065967
 21
278.3567312649091718
 31
0.0
  0
LINE
  5
2489B
  8
0
 10
4443.5255419172663096
 20
278.8880853887091007
 30
0.0
 11
4444.1466094979650734
 21
278.8880855956091978
 31
0.0
  0
LINE
  5
2489C
  8
0
 10
4445.2972028800650151
 20
279.2227312649091004
 30
0.0
 11
4444.4081204530666582
 21
279.2227312649091004
 31
0.0
  0
LINE
  5
2489D
  8
0
 10
4444.4589666392657819
 20
279.2817863830090914
 30
0.0
 11
4445.2463682140660239
 21
279.2817863830090914
 31
0.0
  0
ARC
  5
2489E
  8
0
 10
4443.0936887989300885
 20
278.775546548014006
 30
0.0
 40
0.0984460076711438
 50
170.1524148776393872
 51
179.2242174068560132
  0
ARC
  5
2489F
  8
0
 10
4443.0904996327708432
 20
278.7908983974353987
 30
0.0
 40
0.1140534003214674
 50
275.6485915614754276
 51
283.5364354682129147
  0
ARC
  5
248A0
  8
0
 10
4443.09360777326674
 20
278.7754299117931964
 30
0.0
 40
0.0983666390802705
 50
179.1556473238088927
 51
274.7337616333063011
  0
ARC
  5
248A1
  8
0
 10
4444.4778485489659943
 20
277.8250934697092021
 30
0.0
 40
0.0196850394
 50
182.3859440307998057
 51
270.0
  0
ARC
  5
248A2
  8
0
 10
4443.9874863043660298
 20
276.9590934697092166
 30
0.0
 40
0.0196850394
 50
270.0
 51
357.6140559692000807
  0
ARC
  5
248A3
  8
0
 10
4443.2378485489662125
 20
276.9590934697092166
 30
0.0
 40
0.0196850394
 50
182.3859440307998057
 51
270.0
  0
ARC
  5
248A4
  8
0
 10
4443.168120453065967
 20
278.3488572492091748
 30
0.0
 40
0.0078740157
 50
90.0
 51
182.385944030399088
  0
ARC
  5
248A5
  8
0
 10
4444.0572143864783357
 20
278.3488572439579798
 30
0.0
 40
0.0078740293583758
 50
357.6140983540557841
 51
90.0837270209404863
  0
ARC
  5
248A6
  8
0
 10
4437.5075857061219722
 20
286.560098008552302
 30
0.0
 40
9.710509234091095
 50
306.8032427706294811
 51
308.0889254170342042
  0
ARC
  5
248A7
  8
0
 10
4444.4195953505577563
 20
279.5820907866427092
 30
0.0
 40
0.0393712888054359
 50
0.0040441411294149
 51
132.8914523914044992
  0
ARC
  5
248A8
  8
0
 10
4444.4081204530666582
 20
279.2148572492092171
 30
0.0
 40
0.0078740157
 50
90.0
 51
182.385944030399088
  0
ARC
  5
248A9
  8
0
 10
4445.227486304366721
 20
277.8250934697092021
 30
0.0
 40
0.0196850394
 50
270.0
 51
357.6140559692000807
  0
ARC
  5
248AA
  8
0
 10
4445.2860982165202586
 20
280.4253891524430742
 30
0.0
 40
0.0397300816533598
 50
138.0623632248496904
 51
179.8855967026078133
  0
ARC
  5
248AB
  8
0
 10
4445.2972143864772079
 20
279.2148572439580221
 30
0.0
 40
0.0078740293583755
 50
357.6140983541077958
 51
90.0837270209925833
  0
ARC
  5
248AC
  8
0
 10
4458.8491687968662518
 20
265.7680863394090807
 30
0.0
 40
20.0122998490999997
 50
134.1564847329111103
 51
135.2003769007972096
  0
ARC
  5
248AD
  8
0
 10
4367.5900865898311167
 20
350.5044677354241003
 30
0.0
 40
104.1444683836408984
 50
316.4144454303586258
 51
317.9632886519112276
  0
ARC
  5
248AE
  8
0
 10
6061.0302591299214328
 20
283.4426356384262249
 30
0.0
 40
1615.8410783761739822
 50
179.8701221472738041
 51
180.0727975617957952
  0
ARC
  5
248AF
  8
0
 10
4444.1257961727624206
 20
281.4582824956759737
 30
0.0
 40
1.0669007107944479
 50
319.72953350809928
 51
356.3099471525309241
  0
ARC
  5
248B0
  8
0
 10
4460.4609688486852974
 20
273.9704804365085806
 30
0.0
 40
16.5760510260722711
 50
181.150238003862512
 51
194.4513307594239109
  0
ARC
  5
248B1
  8
0
 10
4466.6754452764280359
 20
274.6678694783702781
 30
0.0
 40
23.3610921054183116
 50
182.5273525966281056
 51
196.3740300375106926
  0
ARC
  5
248B2
  8
0
 10
4407.3300555194746266
 20
273.378726163882618
 30
0.0
 40
37.2483976276773134
 50
354.538904675853928
 51
359.5074648182232977
  0
ARC
  5
248B3
  8
0
 10
4574.4088538808136946
 20
258.0009634112701065
 30
0.0
 40
130.5368840799281998
 50
174.7991431931183115
 51
175.5706820105338011
  0
ARC
  5
248B4
  8
0
 10
4470.1329492063632642
 20
265.8160075771779134
 30
0.0
 40
25.9701798295124284
 50
174.9938756979695995
 51
187.5909668362201046
  0
ARC
  5
248B5
  8
0
 10
4494.7150756654500583
 20
269.8616414824355161
 30
0.0
 40
50.8770263834990928
 50
188.4501230734306034
 51
193.4590602876212131
  0
ARC
  5
248B6
  8
0
 10
4405.2479412666743883
 20
248.5716086681811134
 30
0.0
 40
41.0884613329400565
 50
8.2503379253219489
 51
13.2942528321704305
  0
ARC
  5
248B7
  8
0
 10
4438.7038216460841795
 20
253.3513398905921861
 30
0.0
 40
7.2932889208514267
 50
354.1465657890371972
 51
8.8050062641759155
  0
ARC
  5
248B8
  8
0
 10
4444.3630570720033575
 20
252.8143532775297899
 30
0.0
 40
1.6093701072375319
 50
334.2712887385511067
 51
352.6167659695602765
  0
ARC
  5
248B9
  8
0
 10
4445.2650364452510985
 20
252.3669981059885004
 30
0.0
 40
0.6027204062180638
 50
301.9110547615301812
 51
335.3593785928196098
  0
ARC
  5
248BA
  8
0
 10
4445.2657652899197274
 20
252.4564872528657986
 30
0.0
 40
0.679990565375328
 50
262.810731839991206
 51
297.8697413791969097
  0
ARC
  5
248BB
  8
0
 10
4445.4936809069149604
 20
254.2940601157752099
 30
0.0
 40
2.5316426889492369
 50
240.6621816187632987
 51
262.897721715629018
  0
ARC
  5
248BC
  8
0
 10
4445.4552551559136191
 20
254.5997512771502898
 30
0.0
 40
2.7853369244361499
 50
218.6770952836376978
 51
244.4349314866960867
  0
ARC
  5
248BD
  8
0
 10
4444.9760091632515469
 20
254.1120893765734934
 30
0.0
 40
2.108009134708503
 50
185.0690823360853869
 51
216.4691885087956962
  0
ARC
  5
248BE
  8
0
 10
4446.6757675597064008
 20
254.2633851219632959
 30
0.0
 40
3.8144876315401892
 50
169.0073070799404036
 51
185.0768748486848096
  0
ARC
  5
248BF
  8
0
 10
4455.8394320830457218
 20
252.1806554303782093
 30
0.0
 40
13.2104980108082799
 50
156.4392008155136011
 51
167.7184071006336978
  0
ARC
  5
248C0
  8
0
 10
4393.1886021821001123
 20
279.3052500938454727
 30
0.0
 40
55.0601241880813035
 50
336.6260126068949035
 51
339.5713049392592779
  0
ARC
  5
248C1
  8
0
 10
4425.817127360232007
 20
266.6807092159232866
 30
0.0
 40
19.5288745846752683
 50
336.7834144379669965
 51
343.8305442050810257
  0
ARC
  5
248C2
  8
0
 10
4478.9264256099686463
 20
243.5777753385522999
 30
0.0
 40
38.3882013161068727
 50
156.3416499023329038
 51
160.8081892309386944
  0
ARC
  5
248C3
  8
0
 10
4448.2538703193586116
 20
254.1665429067905961
 30
0.0
 40
5.9400368082813761
 50
160.0098793965929929
 51
181.402689266698502
  0
ARC
  5
248C4
  8
0
 10
4444.9835361868672408
 20
254.122470181209394
 30
0.0
 40
2.669846455667217
 50
182.1751840209261957
 51
217.9010148131546885
  0
ARC
  5
248C5
  8
0
 10
4445.5638477978445735
 20
254.7412937856383905
 30
0.0
 40
3.5103732313495808
 50
220.0529391141014912
 51
241.421709940422403
  0
ARC
  5
248C6
  8
0
 10
4445.5784724120167084
 20
254.5749363688287872
 30
0.0
 40
3.372546503798429
 50
239.851377402688712
 51
260.4866928438601121
  0
ARC
  5
248C7
  8
0
 10
4445.2535414652002146
 20
252.5105170206674927
 30
0.0
 40
1.2829827265575691
 50
259.5605247737167929
 51
295.6448468843971114
  0
ARC
  5
248C8
  8
0
 10
4445.3013582283156211
 20
252.335835376467486
 30
0.0
 40
1.1052913236790121
 50
297.3295150022519238
 51
331.4826695895329749
  0
ARC
  5
248C9
  8
0
 10
4443.9157576049410636
 20
252.9765852317281087
 30
0.0
 40
2.6305357349020011
 50
333.6288279214027739
 51
359.1691143825069048
  0
ARC
  5
248CA
  8
0
 10
4435.9776427249844346
 20
253.1880035716515067
 30
0.0
 40
10.5713202452836299
 50
358.6472546019459173
 51
9.8163568373821732
  0
ARC
  5
248CB
  8
0
 10
4375.1515899215382888
 20
242.7421241716783129
 30
0.0
 40
72.2878028199334892
 50
9.7550576166992649
 51
13.1542770679178105
  0
ARC
  5
248CC
  8
0
 10
4483.8321417787683458
 20
267.9640561619748951
 30
0.0
 40
39.2812928439151818
 50
187.8022711554085902
 51
192.9023403873314919
  0
ARC
  5
248CD
  8
0
 10
4468.6027714285228285
 20
265.7067812500724244
 30
0.0
 40
23.8870702493678806
 50
179.5075355385162936
 51
187.3971009738426119
  0
ARC
  5
248CE
  8
0
 10
4481.1154693568878429
 20
265.3546526222280022
 30
0.0
 40
36.4031540951442594
 50
175.6313952933504936
 51
179.1226001786556026
  0
ARC
  5
248CF
  8
0
 10
4366.5680322049665847
 20
275.5250814440111071
 30
0.0
 40
78.5989373479686009
 50
354.5994950809238162
 51
358.2016776554884245
  0
ARC
  5
248D0
  8
0
 10
4432.4795813913578968
 20
263.7837032016009857
 30
0.0
 40
12.4207188235830692
 50
356.2279408442324211
 51
9.8667777990671368
  0
ARC
  5
248D1
  8
0
 10
4433.7949526132242681
 20
263.9119904855954246
 30
0.0
 40
11.6578610293714195
 50
346.6044311882931197
 51
11.1621741530118506
  0
ARC
  5
248D2
  8
0
 10
4413.8441443134433939
 20
260.5546372303817861
 30
0.0
 40
31.8862681966253589
 50
10.1408307746300395
 51
13.7389473374710303
  0
ARC
  5
248D3
  8
0
 10
4442.9897298194500763
 20
279.1922648760033212
 30
0.0
 40
0.5278723275912557
 50
283.9733439599353915
 51
289.6617077287128836
  0
ARC
  5
248D4
  8
0
 10
4443.6889296759336503
 20
278.6631001976081166
 30
0.0
 40
0.7042055246901266
 50
158.5917881456533962
 51
169.4212060986218091
  0
ARC
  5
248D5
  8
0
 10
4443.9371947361350976
 20
278.5789160366500141
 30
0.0
 40
0.9661468281781797
 50
153.4964108385347004
 51
159.3178907155765103
  0
ARC
  5
248D6
  8
0
 10
4445.5891463230218505
 20
277.6329309888013199
 30
0.0
 40
2.868724319844886
 50
144.434536373911186
 51
151.311316365123588
  0
ARC
  5
248D7
  8
0
 10
4451.2361610850757643
 20
273.6071092545553824
 30
0.0
 40
9.8038514961658567
 50
141.8082587008302085
 51
144.4910965681636128
  0
ARC
  5
248D8
  8
0
 10
5621.8918037550001827
 20
-587.2090394858805666
 30
0.0
 40
1462.877870973914014
 50
143.6194369977893928
 51
143.6594177300376884
  0
ARC
  5
248D9
  8
0
 10
4463.6587516990348377
 20
264.0247615160548094
 30
0.0
 40
25.5395194250554312
 50
139.2718494461838077
 51
139.8546514486500882
  0
ARC
  5
248DA
  8
0
 10
4443.6689371137163107
 20
281.1760016686923223
 30
0.0
 40
0.8010059055409207
 50
322.515534362438018
 51
351.682119717719786
  0
ARC
  5
248DB
  8
0
 10
4442.6426030981238
 20
281.3449310901692115
 30
0.0
 40
1.841076517036238
 50
351.1008417532229942
 51
1.884952667349312
  0
ARC
  5
248DC
  8
0
 10
4505.8655629631293777
 20
281.6047128328385156
 30
0.0
 40
61.38320287363549
 50
177.1055786822010134
 51
180.1859580607232942
  0
ARC
  5
248DD
  8
0
 10
4456.7397915460451259
 20
284.1211265917671085
 30
0.0
 40
12.1930776724033105
 50
170.9708658614893011
 51
177.2585955920879996
  0
ARC
  5
248DE
  8
0
 10
4447.931710895642027
 20
285.5506492979047835
 30
0.0
 40
3.2699293928923971
 50
158.5735047105465867
 51
171.4877403154320916
  0
ARC
  5
248DF
  8
0
 10
4445.7541591935523684
 20
286.4037516913041941
 30
0.0
 40
0.9312312798656179
 50
140.1255326099525007
 51
158.4914522351687083
  0
ARC
  5
248E0
  8
0
 10
4445.4767813443104387
 20
286.6165845473203149
 30
0.0
 40
0.5820889969836607
 50
125.3900739106125997
 51
138.6990858898516876
  0
ARC
  5
248E1
  8
0
 10
4445.1899770652526058
 20
287.0101416406936892
 30
0.0
 40
0.0953322620575073
 50
87.9831437647129064
 51
121.8500980894749972
  0
ARC
  5
248E2
  8
0
 10
4445.1902727621536542
 20
287.0037452320731859
 30
0.0
 40
0.1017156340011442
 50
56.5388828921490969
 51
88.2764103010279655
  0
ARC
  5
248E3
  8
0
 10
4444.8802049277637707
 20
286.5858228945950827
 30
0.0
 40
0.6219757517451256
 50
38.8669590729157903
 51
53.9359011776732871
  0
ARC
  5
248E4
  8
0
 10
4442.6250412439540014
 20
279.8300024349813953
 30
0.0
 40
1.2577495729052359
 50
295.5416205957282045
 51
303.8070246235528202
  0
ARC
  5
248E5
  8
0
 10
4441.4104305669088717
 20
281.6601903493311738
 30
0.0
 40
3.4543007174116229
 50
303.6565456349878218
 51
305.7606376084031012
  0
ARC
  5
248E6
  8
0
 10
4393.3726058465817914
 20
361.1971776700706869
 30
0.0
 40
96.361487000611973
 50
301.2964407386759262
 51
301.3057607642317066
  0
ARC
  5
248E7
  8
0
 10
4443.5550874700165878
 20
278.6625713690626185
 30
0.0
 40
0.2318747093215847
 50
109.9040569165208012
 51
119.0435546836177991
  0
ARC
  5
248E8
  8
0
 10
4443.53015041353774
 20
278.6910857719382761
 30
0.0
 40
0.1970535136600017
 50
91.340100247599068
 51
105.9057938695652012
  0
LINE
  5
248E9
  8
0
 10
4444.1466094979650734
 20
278.8880855956091978
 30
0.0
 11
4443.5255419172663096
 21
278.8880853887091007
 31
0.0
  0
ARC
  5
248EA
  8
0
 10
4444.1461941357092655
 20
278.9082440468582149
 30
0.0
 40
0.020162730037484
 50
271.1804050273026974
 51
351.8489620626386909
  0
ARC
  5
248EB
  8
0
 10
4439.1364734858234442
 20
279.3985164553225786
 30
0.0
 40
5.0537962085853296
 50
354.4003753126538072
 51
359.8119187317437877
  0
ARC
  5
248EC
  8
0
 10
4444.3062678394526301
 20
279.3734764808997966
 30
0.0
 40
0.1163326855448393
 50
132.0605711724994933
 51
175.8344558147111911
  0
ARC
  5
248ED
  8
0
 10
4405.2891691836603059
 20
331.1348130959217997
 30
0.0
 40
64.703638380527849
 50
306.1937853585714038
 51
306.9994943035313781
  0
ARC
  5
248EE
  8
0
 10
4430.7446803485408964
 20
294.3021146979518221
 30
0.0
 40
20.052477910858709
 50
312.2539907631298775
 51
312.8921146799955864
  0
ARC
  5
248EF
  8
0
 10
4421.3369469514727825
 20
302.7201133344270261
 30
0.0
 40
32.6436270041069534
 50
314.9338172743084101
 51
315.5724297055716079
  0
ARC
  5
248F0
  8
0
 10
4457.855520816679018
 20
266.6496420056802208
 30
0.0
 40
18.687902208169529
 50
132.3903670588834984
 51
133.8536522756332943
  0
ARC
  5
248F1
  8
0
 10
4436.1016453322481539
 20
289.6207778431469819
 30
0.0
 40
12.9568410166371599
 50
314.9564194777432817
 51
315.6349251899653154
  0
ARC
  5
248F2
  8
0
 10
4445.7053253612593835
 20
279.8983281429115095
 30
0.0
 40
0.794261866120385
 50
123.6594663838571933
 51
148.1947714490063106
  0
ARC
  5
248F3
  8
0
 10
4444.5352281291079635
 20
281.0311578226122151
 30
0.0
 40
0.8690469357148323
 50
304.7294716198068159
 51
327.1247662142159243
  0
ENDSEC
  0
EOF
