  0
SECTION
  2
HEADER
  9
$ACADVER
  1
AC1009
  9
$INSBASE
 10
246.8840613967786055
 20
-19.4245595693054796
 30
0.0
  9
$EXTMIN
 10
242.2695241126841097
 20
-19.4263427335757086
 30
-0.0015258207003583
  9
$EXTMAX
 10
248.2121632458296858
 20
-14.1795275652675006
 30
0.0000000349246037
  9
$LIMMIN
 10
0.0
 20
0.0
  9
$LIMMAX
 10
11.6929133858000007
 20
8.2677165353999982
  9
$ORTHOMODE
 70
     0
  9
$REGENMODE
 70
     1
  9
$FILLMODE
 70
     1
  9
$QTEXTMODE
 70
     0
  9
$MIRRTEXT
 70
     0
  9
$DRAGMODE
 70
     2
  9
$LTSCALE
 40
0.6431102362
  9
$OSMODE
 70
  4095
  9
$ATTMODE
 70
     1
  9
$TEXTSIZE
 40
0.2
  9
$TRACEWID
 40
0.05
  9
$TEXTSTYLE
  7
STANDARD
  9
$CLAYER
  8
0
  9
$CELTYPE
  6
BYLAYER
  9
$CECOLOR
 62
   256
  9
$DIMSCALE
 40
1.0
  9
$DIMASZ
 40
0.1875
  9
$DIMEXO
 40
0.0625
  9
$DIMDLI
 40
0.4443307087
  9
$DIMRND
 40
0.0
  9
$DIMDLE
 40
0.0
  9
$DIMEXE
 40
0.125
  9
$DIMTP
 40
0.01
  9
$DIMTM
 40
0.01
  9
$DIMTXT
 40
1.0
  9
$DIMCEN
 40
0.1052362205
  9
$DIMTSZ
 40
0.0
  9
$DIMTOL
 70
     1
  9
$DIMLIM
 70
     0
  9
$DIMTIH
 70
     1
  9
$DIMTOH
 70
     1
  9
$DIMSE1
 70
     0
  9
$DIMSE2
 70
     0
  9
$DIMTAD
 70
     0
  9
$DIMZIN
 70
     0
  9
$DIMBLK
  1

  9
$DIMASO
 70
     1
  9
$DIMSHO
 70
     1
  9
$DIMPOST
  1
\X
  9
$DIMAPOST
  1

  9
$DIMALT
 70
     1
  9
$DIMALTD
 70
     2
  9
$DIMALTF
 40
25.3999999999999986
  9
$DIMLFAC
 40
1.0
  9
$DIMTOFL
 70
     0
  9
$DIMTVP
 40
0.0
  9
$DIMTIX
 70
     0
  9
$DIMSOXD
 70
     0
  9
$DIMSAH
 70
     0
  9
$DIMBLK1
  1

  9
$DIMBLK2
  1

  9
$DIMSTYLE
  2
STANDARD
  9
$DIMCLRD
 70
     0
  9
$DIMCLRE
 70
     0
  9
$DIMCLRT
 70
     0
  9
$DIMTFAC
 40
1.0
  9
$DIMGAP
 40
0.09
  9
$LUNITS
 70
     2
  9
$LUPREC
 70
     4
  9
$SKETCHINC
 40
0.1
  9
$FILLETRAD
 40
0.0
  9
$AUNITS
 70
     0
  9
$AUPREC
 70
     0
  9
$MENU
  1
.
  9
$ELEVATION
 40
0.0
  9
$PELEVATION
 40
0.0
  9
$THICKNESS
 40
0.0
  9
$LIMCHECK
 70
     0
  9
$BLIPMODE
 70
     0
  9
$CHAMFERA
 40
0.0
  9
$CHAMFERB
 40
0.0
  9
$SKPOLY
 70
     0
  9
$TDCREATE
 40
2458172.4620254631154239
  9
$TDUPDATE
 40
2460020.6847685188986361
  9
$TDINDWG
 40
0.1013716782
  9
$TDUSRTIMER
 40
0.1013716782
  9
$USRTIMER
 70
     1
  9
$ANGBASE
 50
0.0
  9
$ANGDIR
 70
     0
  9
$PDMODE
 70
     0
  9
$PDSIZE
 40
0.3125
  9
$PLINEWID
 40
0.0
  9
$COORDS
 70
     1
  9
$SPLFRAME
 70
     0
  9
$SPLINETYPE
 70
     6
  9
$SPLINESEGS
 70
     8
  9
$ATTDIA
 70
     1
  9
$ATTREQ
 70
     1
  9
$HANDLING
 70
     1
  9
$HANDSEED
  5
3E6A
  9
$SURFTAB1
 70
     6
  9
$SURFTAB2
 70
     6
  9
$SURFTYPE
 70
     6
  9
$SURFU
 70
     6
  9
$SURFV
 70
     6
  9
$UCSNAME
  2

  9
$UCSORG
 10
0.0
 20
0.0
 30
0.0
  9
$UCSXDIR
 10
1.0
 20
0.0
 30
0.0
  9
$UCSYDIR
 10
0.0
 20
1.0
 30
0.0
  9
$PUCSNAME
  2

  9
$PUCSORG
 10
0.0
 20
0.0
 30
0.0
  9
$PUCSXDIR
 10
1.0
 20
0.0
 30
0.0
  9
$PUCSYDIR
 10
0.0
 20
1.0
 30
0.0
  9
$USERI1
 70
     0
  9
$USERI2
 70
     0
  9
$USERI3
 70
     0
  9
$USERI4
 70
     0
  9
$USERI5
 70
     0
  9
$USERR1
 40
0.0
  9
$USERR2
 40
0.0
  9
$USERR3
 40
0.0
  9
$USERR4
 40
0.0
  9
$USERR5
 40
0.0
  9
$WORLDVIEW
 70
     1
  9
$SHADEDGE
 70
     3
  9
$SHADEDIF
 70
    70
  9
$TILEMODE
 70
     1
  9
$MAXACTVP
 70
    64
  9
$PLIMCHECK
 70
     0
  9
$PEXTMIN
 10
1.0000000000000000E+20
 20
1.0000000000000000E+20
 30
1.0000000000000000E+20
  9
$PEXTMAX
 10
-1.0000000000000000E+20
 20
-1.0000000000000000E+20
 30
-1.0000000000000000E+20
  9
$PLIMMIN
 10
0.0
 20
0.0
  9
$PLIMMAX
 10
12.0
 20
9.0
  9
$UNITMODE
 70
     0
  9
$VISRETAIN
 70
     1
  9
$PLINEGEN
 70
     0
  9
$PSLTSCALE
 70
     1
  0
ENDSEC
  0
SECTION
  2
TABLES
  0
TABLE
  2
VPORT
 70
     1
  0
VPORT
  2
*ACTIVE
 70
     0
 10
0.0
 20
0.0
 11
1.0
 21
1.0
 12
20.5862721460537692
 22
0.6544468185789505
 13
0.0
 23
0.0
 14
1.0
 24
1.0
 15
0.0
 25
0.0
 16
0.0
 26
0.0
 36
23.620452638986869
 17
224.6545715332030966
 27
-17.4573819680005613
 37
0.0
 40
5.2772934195783119
 41
1.9430970149253719
 42
50.0
 43
0.0
 44
0.0
 50
0.0
 51
0.0
 71
     0
 72
   100
 73
     1
 74
     1
 75
     0
 76
     0
 77
     0
 78
     0
  0
ENDTAB
  0
TABLE
  2
LTYPE
 70
     2
  0
LTYPE
  2
CONTINUOUS
 70
     0
  3
Solid line
 72
    65
 73
     0
 40
0.0
  0
LTYPE
  2
PHANTOM2
 70
     0
  3
___ _ _ ___ _ _ ___ _ _ ___ _ _
 72
    65
 73
     6
 40
1.25
 49
0.625
 49
-0.125
 49
0.125
 49
-0.125
 49
0.125
 49
-0.125
  0
ENDTAB
  0
TABLE
  2
LAYER
 70
     2
  0
LAYER
  2
0
 70
     0
 62
   255
  6
CONTINUOUS
  0
LAYER
  2
DEFPOINTS
 70
     0
 62
     7
  6
CONTINUOUS
  0
ENDTAB
  0
TABLE
  2
STYLE
 70
     1
  0
STYLE
  2
STANDARD
 70
     0
 40
0.0
 41
0.8
 50
0.0
 71
     0
 42
0.2
  3
txt
  4

  0
ENDTAB
  0
TABLE
  2
VIEW
 70
     0
  0
ENDTAB
  0
TABLE
  2
UCS
 70
     0
  0
ENDTAB
  0
TABLE
  2
APPID
 70
    10
  0
APPID
  2
ACAD
 70
     0
  0
APPID
  2
ACAD_MLEADERVER
 70
     0
  0
APPID
  2
ACAD_EXEMPT_FROM_CAD_STANDARDS
 70
     0
  0
APPID
  2
ACAD_DSTYLE_DIMJAG
 70
     0
  0
APPID
  2
ACAD_DSTYLE_DIMTALN
 70
     0
  0
APPID
  2
ACAD_NAV_VCDISPLAY
 70
     0
  0
APPID
  2
ACAECLAYERSTANDARD
 70
     0
  0
APPID
  2
ACCMTRANSPARENCY
 70
     0
  0
APPID
  2
ACDBATTR
 70
     0
  0
APPID
  2
ACADANNOTATIVE
 70
     0
  0
ENDTAB
  0
TABLE
  2
DIMSTYLE
 70
     1
  0
DIMSTYLE
  2
STANDARD
 70
     0
  3

  4

  5

  6

  7

 40
1.0
 41
0.1875
 42
0.0625
 43
0.38
 44
0.125
 45
0.0
 46
0.0
 47
0.01
 48
0.01
140
0.15625
141
0.09
142
0.0
143
25.3999999999999986
144
1.0
145
0.0
146
1.0
147
0.09
 71
     1
 72
     0
 73
     1
 74
     1
 75
     0
 76
     0
 77
     0
 78
     4
170
     0
171
     2
172
     0
173
     0
174
     0
175
     0
176
     0
177
     0
178
     0
  0
ENDTAB
  0
ENDSEC
  0
SECTION
  2
BLOCKS
  0
BLOCK
  8
0
  2
$MODEL_SPACE
 70
     0
 10
0.0
 20
0.0
 30
0.0
  3
$MODEL_SPACE
  1

  0
ENDBLK
  5
21
  8
0
  0
BLOCK
 67
     1
  8
0
  2
$PAPER_SPACE
 70
     0
 10
0.0
 20
0.0
 30
0.0
  3
$PAPER_SPACE
  1

  0
ENDBLK
  5
1D
 67
     1
  8
0
  0
ENDSEC
  0
SECTION
  2
ENTITIES
  0
ATTDEF
  5
2E1C
  8
DEFPOINTS
 10
246.8786195722362038
 20
-19.4190539304858305
 30
0.0
 40
0.001
  1
K-37301D
  3

  2
MODELNUMBER
 70
     0
1001
ACDBATTR
1070
     0
1070
     1
  0
ATTDEF
  5
2E1D
  8
DEFPOINTS
 10
246.8786195722362038
 20
-19.4207205971524886
 30
0.0
 40
0.001
  1
CUFF
  3

  2
TRADENAME
 70
     0
1001
ACDBATTR
1070
     0
1070
     1
  0
ATTDEF
  5
2E1E
  8
DEFPOINTS
 10
246.8786195722362038
 20
-19.4223872638191608
 30
0.0
 40
0.001
  1
BATHROOM SINK FAUCET
  3

  2
PRODUCT
 70
     0
1001
ACDBATTR
1070
     0
1070
     1
  0
LINE
  5
3D21
  8
0
 10
242.3207825165904126
 20
-16.2319430530737101
 30
0.0
 11
245.513419716812507
 21
-16.2319430530737101
 31
0.0
  0
LINE
  5
3D22
  8
0
 10
243.4089827364124972
 20
-14.6286003325785501
 30
0.0
 11
245.889617792762607
 21
-14.6286003325785501
 31
0.0
  0
LINE
  5
3D23
  8
0
 10
243.4089811155608913
 20
-15.0026359418194293
 30
0.0
 11
243.6504664859049001
 21
-15.0026359418194293
 31
0.0
  0
LINE
  5
3D24
  8
0
 10
244.2066368116651063
 20
-15.0026359418194293
 30
0.0
 11
245.8931340313529859
 21
-15.0026359418194293
 31
0.0
  0
LINE
  5
3D25
  8
0
 10
247.7888725258125078
 20
-15.76174755391669
 30
0.0
 11
247.7888725258125078
 21
-17.699960141865521
 31
0.0
  0
LINE
  5
3D26
  8
0
 10
247.7888725258125078
 20
-17.8370857671628897
 30
0.0
 11
247.7888725258125078
 21
-19.4245601923737006
 31
0.0
  0
LINE
  5
3D27
  8
0
 10
247.7888725258125078
 20
-15.4087350697054699
 30
0.0
 11
247.7888725258125078
 21
-15.2074893863125702
 31
0.0
  0
LINE
  5
3D28
  8
0
 10
247.7888725258125078
 20
-14.9800587390983893
 30
0.0
 11
247.7888725258125078
 21
-14.2267183944963005
 31
0.0
  0
LINE
  5
3D29
  8
0
 10
247.7171478435182905
 20
-15.43688529897371
 30
0.0
 11
246.0509761827065915
 21
-15.43688529897371
 31
0.0
  0
LINE
  5
3D2A
  8
0
 10
247.7888725258125078
 20
-19.4245601923737006
 30
0.0
 11
245.9792515004124027
 21
-19.4245601923737006
 31
0.0
  0
ARC
  5
3D2B
  8
0
 10
246.8838403440124125
 20
-15.7912160076737198
 30
0.0
 40
0.9055118110000515
 50
1.864930062064303
 51
23.0356841092288107
  0
LINE
  5
3D2C
  8
0
 10
247.7917496851389103
 20
-17.6999539063179796
 30
0.0
 11
247.7236209907028126
 21
-17.7001015587990196
 31
0.0
  0
ARC
  5
3D2D
  8
0
 10
248.1246566522702892
 20
-17.7238832465919884
 30
0.0
 40
0.064210397104731
 50
97.791758411805219
 51
156.1302991873039048
  0
ARC
  5
3D2E
  8
0
 10
247.8604839769483021
 20
-17.7396245347676711
 30
0.0
 40
0.079360957857936
 50
90.4172702753352269
 51
150.0082115377819889
  0
ARC
  5
3D2F
  8
0
 10
248.1160872146921861
 20
-17.7357255800821108
 30
0.0
 40
0.075460020723535
 50
29.6021337801922009
 51
90.1030826056689165
  0
LINE
  5
3D30
  8
0
 10
247.7917496851389103
 20
-17.8370626272884607
 30
0.0
 11
247.7245150793914945
 21
-17.8376033690957492
 31
0.0
  0
ARC
  5
3D31
  8
0
 10
248.1262502024748073
 20
-17.8116661923473387
 30
0.0
 40
0.0659830677256744
 50
204.468669548995706
 51
260.5277347893098181
  0
ARC
  5
3D32
  8
0
 10
247.8604822493749964
 20
-17.7973937197609082
 30
0.0
 40
0.0793586013667995
 50
209.9913358396898104
 51
269.5260437448110906
  0
ARC
  5
3D33
  8
0
 10
248.1153913584439863
 20
-17.8002607634263903
 30
0.0
 40
0.0764888425578363
 50
269.9999999250003953
 51
329.9838645237318815
  0
ARC
  5
3D34
  8
0
 10
248.2034716604622986
 20
-17.7681997886643011
 30
0.0
 40
0.1544586943095932
 50
152.9262799122894023
 51
207.2807527847718916
  0
ARC
  5
3D35
  8
0
 10
247.9195075802921906
 20
-17.7685082668032202
 30
0.0
 40
0.1449888965250472
 50
151.7821762978003903
 51
208.2178237021992118
  0
ARC
  5
3D36
  8
0
 10
248.0621768135775085
 20
-17.7684221713118902
 30
0.0
 40
0.1384968023908041
 50
329.5915539474033267
 51
30.3462181697523015
  0
ARC
  5
3D37
  8
0
 10
247.7696846067453862
 20
-14.2309334675892298
 30
0.0
 40
0.019645434057358
 50
12.3895617605581698
 51
86.0751616630423939
  0
LINE
  5
3D38
  8
0
 10
245.9792515004124027
 20
-15.76174755391669
 30
0.0
 11
245.9792515004124027
 21
-15.7912160076737003
 31
0.0
  0
LINE
  5
3D39
  8
0
 10
245.9792515004124027
 20
-17.9990932878853407
 30
0.0
 11
245.9792515004124027
 21
-19.4245601923737006
 31
0.0
  0
LINE
  5
3D3A
  8
0
 10
245.9792515004124027
 20
-15.4087350697054699
 30
0.0
 11
245.9792515004124027
 21
-15.0855856987534498
 31
0.0
  0
LINE
  5
3D3B
  8
0
 10
245.9792515004124027
 20
-14.5208446712214894
 30
0.0
 11
245.9792515004124027
 21
-14.2267183944963005
 31
0.0
  0
ARC
  5
3D3C
  8
0
 10
246.884283682212498
 20
-15.7912160076737198
 30
0.0
 40
0.9055118110000515
 50
156.9643158907711893
 51
178.1350699379356968
  0
ARC
  5
3D3D
  8
0
 10
245.9984394194794959
 20
-14.2309334675892298
 30
0.0
 40
0.019645434057358
 50
93.9248383369576061
 51
167.6104382394418053
  0
ARC
  5
3D3E
  8
0
 10
246.8840620131124126
 20
-26.9388839663103283
 30
0.0
 40
12.75841825433662
 50
86.0135727224989495
 51
93.9864272775010647
  0
ARC
  5
3D3F
  8
0
 10
247.7485949964573138
 20
-17.968949199100809
 30
0.0
 40
0.1335348998038335
 50
100.3887937637439052
 51
176.3232719938341972
  0
ARC
  5
3D40
  8
0
 10
247.7425262532347006
 20
-17.9637270047738404
 30
0.0
 40
0.2643024493205144
 50
94.1018066999926646
 51
174.0788650061766987
  0
LINE
  5
3D41
  8
0
 10
247.4796339019308107
 20
-17.9364617091998717
 30
0.0
 11
247.4493941216178996
 21
-18.10798479111779
 31
0.0
  0
LINE
  5
3D42
  8
0
 10
247.6153349452308134
 20
-17.9603860096998709
 30
0.0
 11
247.5217056425017006
 21
-18.4782897242746706
 31
0.0
  0
ARC
  5
3D43
  8
0
 10
246.2894033441604051
 20
-18.1435612064164005
 30
0.0
 40
1.2999176486349331
 50
347.0166025989504988
 51
1.6069353414676839
  0
ARC
  5
3D44
  8
0
 10
247.5065209500745027
 20
-18.4308669525249513
 30
0.0
 40
0.049794519422638
 50
284.6424177464501213
 51
354.5318216171457948
  0
ARC
  5
3D45
  8
0
 10
248.2377662293500009
 20
-18.1519451010129309
 30
0.0
 40
0.7895967889347232
 50
175.6747721081351017
 51
204.4727870431954102
  0
ARC
  5
3D46
  8
0
 10
248.7047628801159931
 20
-18.0539415863039494
 30
0.0
 40
1.254933979109212
 50
162.6043857309319947
 51
181.7559404907229066
  0
ARC
  5
3D47
  8
0
 10
247.5228984986985097
 20
-17.6822204278611288
 30
0.0
 40
0.0160511115774834
 50
29.1660759213032783
 51
167.5382723508014919
  0
LINE
  5
3D48
  8
0
 10
242.4114463515728914
 20
-17.5347964128737104
 30
0.0
 11
242.3214990821863921
 21
-17.5347964128737104
 31
0.0
  0
LINE
  5
3D49
  8
0
 10
243.2577672097444008
 20
-17.5347964128737104
 30
0.0
 11
245.5134197169601009
 21
-17.5347964128737104
 31
0.0
  0
ARC
  5
3D4A
  8
0
 10
244.5106645572014941
 20
-14.8156229112470701
 30
0.0
 40
1.117443635799539
 50
170.3652657301707052
 51
189.6342376970441137
  0
ARC
  5
3D4B
  8
0
 10
244.1882722313266072
 20
-16.0277721611239592
 30
0.0
 40
1.1576438519417671
 50
103.7307812763593944
 51
117.6823487356952995
  0
ARC
  5
3D4C
  8
0
 10
243.9768590191631858
 20
-15.2256002862713906
 30
0.0
 40
0.3285567150650623
 50
73.9520505012259122
 51
101.1196944012279033
  0
ARC
  5
3D4D
  8
0
 10
243.9330660700672979
 20
-15.2618739052874908
 30
0.0
 40
0.3768889390276996
 50
43.4590910593974016
 51
69.0724757268834821
  0
ARC
  5
3D4E
  8
0
 10
245.8710009360659114
 20
-14.5219568412151698
 30
0.0
 40
0.1082562774319965
 50
279.9023920644812051
 51
0.5886380839444016
  0
ARC
  5
3D4F
  8
0
 10
245.8815924850524937
 20
-15.1007961942866302
 30
0.0
 40
0.0988364429521303
 50
8.8527513813516396
 51
83.2940313627605917
  0
ARC
  5
3D50
  8
0
 10
243.1803829790640918
 20
-18.9929323380438717
 30
0.0
 40
1.6484610742657591
 50
100.6477754982508941
 51
117.8045739178510019
  0
ARC
  5
3D51
  8
0
 10
242.9266480960399974
 20
-17.7460205632090009
 30
0.0
 40
0.3766144873330726
 50
64.8082057043593949
 51
97.7601234653639892
  0
ARC
  5
3D52
  8
0
 10
242.7680159139966918
 20
-18.0030635107535417
 30
0.0
 40
0.6775916223237304
 50
43.7153194747349119
 51
61.9206723155596706
  0
ARC
  5
3D53
  8
0
 10
247.2242648418950921
 20
-16.8806730288701416
 30
0.0
 40
4.9462096089907606
 50
172.4635444166092952
 51
187.5994806045038956
  0
ARC
  5
3D54
  8
0
 10
245.5307949228493101
 20
-15.7837611944322092
 30
0.0
 40
0.4485185349572168
 50
267.779857318203824
 51
359.0476446987818804
  0
ARC
  5
3D55
  8
0
 10
245.5434268668124957
 20
-17.9705243836312611
 30
0.0
 40
0.4367599953552941
 50
356.2495485702175984
 51
93.9395514966633556
  0
ARC
  5
3D56
  8
0
 10
247.3834973219427127
 20
-17.7707139811332908
 30
0.0
 40
0.181145225316973
 50
0.7761380853594576
 51
32.1207735659451927
  0
ARC
  5
3D57
  8
0
 10
247.6724132414877886
 20
-15.0937744397054807
 30
0.0
 40
0.1887130282000054
 50
308.1063955201780118
 51
51.8936044798206026
  0
ARC
  5
3D58
  8
0
 10
248.6521713347877096
 20
-15.0937740627054797
 30
0.0
 40
0.8707559981999144
 50
172.4960936512576097
 51
187.503906348742305
  0
LINE
  5
3D59
  8
0
 10
246.0540711516412955
 20
-15.4368846759054801
 30
0.0
 11
246.0543009263377883
 21
-15.4303047881054791
 31
0.0
  0
LINE
  5
3D5A
  8
0
 10
246.0543009263377883
 20
-15.4303047881054791
 30
0.0
 11
246.0639227418218127
 21
-15.4087350697054806
 31
0.0
  0
LINE
  5
3D5B
  8
0
 10
247.7113105926634944
 20
-15.4368846759054801
 30
0.0
 11
247.7110808179670016
 21
-15.4303047881054791
 31
0.0
  0
LINE
  5
3D5C
  8
0
 10
247.7110808179670016
 20
-15.4303047881054791
 30
0.0
 11
247.7014590024830056
 21
-15.4087350697054699
 31
0.0
  0
LINE
  5
3D5D
  8
0
 10
246.0543009263377883
 20
-15.4303047881054791
 30
0.0
 11
247.7110808179670016
 21
-15.4303047881054791
 31
0.0
  0
ARC
  5
3D5E
  8
0
 10
244.7967778991661021
 20
-14.8032151849874705
 30
0.0
 40
1.215720742888347
 50
346.5694864524490981
 51
13.43051354755052
  0
LINE
  5
3D60
  8
0
 10
248.1162229770743863
 20
-17.660265681485761
 30
0.0
 11
247.8599060168212134
 21
-17.660265681485761
 31
0.0
  0
LINE
  5
3D61
  8
0
 10
248.1153913583439135
 20
-17.8767496059842195
 30
0.0
 11
247.8598257948005141
 21
-17.8767496059842195
 31
0.0
  0
LINE
  5
3D62
  8
0
 10
247.7888725258125078
 20
-15.4087350697054699
 30
0.0
 11
245.9792515004124027
 21
-15.4087350697054699
 31
0.0
  0
LINE
  5
3D63
  8
0
 10
247.7710292933124094
 20
-14.2113341079737001
 30
0.0
 11
245.9970947329125011
 21
-14.2113341079737001
 31
0.0
  0
ENDSEC
  0
EOF
