  0
SECTION
  2
HEADER
  9
$ACADVER
  1
AC1009
  9
$INSBASE
 10
131.7231300291213074
 20
-97.3455803288340036
 30
0.0
  9
$EXTMIN
 10
125.9601955333966998
 20
-97.3488031449757045
 30
-0.0015258207003583
  9
$EXTMAX
 10
132.7028562922598951
 20
-87.180042525904085
 30
0.0000000349246037
  9
$LIMMIN
 10
0.0
 20
0.0
  9
$LIMMAX
 10
11.6929133858000007
 20
8.2677165353999982
  9
$ORTHOMODE
 70
     0
  9
$REGENMODE
 70
     1
  9
$FILLMODE
 70
     1
  9
$QTEXTMODE
 70
     0
  9
$MIRRTEXT
 70
     0
  9
$DRAGMODE
 70
     2
  9
$LTSCALE
 40
0.6431102362
  9
$OSMODE
 70
  2039
  9
$ATTMODE
 70
     1
  9
$TEXTSIZE
 40
0.2
  9
$TRACEWID
 40
0.05
  9
$TEXTSTYLE
  7
STANDARD
  9
$CLAYER
  8
0
  9
$CELTYPE
  6
BYLAYER
  9
$CECOLOR
 62
   256
  9
$DIMSCALE
 40
1.0
  9
$DIMASZ
 40
0.1875
  9
$DIMEXO
 40
0.0625
  9
$DIMDLI
 40
0.4443307087
  9
$DIMRND
 40
0.0
  9
$DIMDLE
 40
0.0
  9
$DIMEXE
 40
0.125
  9
$DIMTP
 40
0.01
  9
$DIMTM
 40
0.01
  9
$DIMTXT
 40
1.0
  9
$DIMCEN
 40
0.1052362205
  9
$DIMTSZ
 40
0.0
  9
$DIMTOL
 70
     1
  9
$DIMLIM
 70
     0
  9
$DIMTIH
 70
     1
  9
$DIMTOH
 70
     1
  9
$DIMSE1
 70
     0
  9
$DIMSE2
 70
     0
  9
$DIMTAD
 70
     0
  9
$DIMZIN
 70
     0
  9
$DIMBLK
  1

  9
$DIMASO
 70
     1
  9
$DIMSHO
 70
     1
  9
$DIMPOST
  1
\X
  9
$DIMAPOST
  1

  9
$DIMALT
 70
     1
  9
$DIMALTD
 70
     2
  9
$DIMALTF
 40
25.3999999999999986
  9
$DIMLFAC
 40
1.0
  9
$DIMTOFL
 70
     0
  9
$DIMTVP
 40
0.0
  9
$DIMTIX
 70
     0
  9
$DIMSOXD
 70
     0
  9
$DIMSAH
 70
     0
  9
$DIMBLK1
  1

  9
$DIMBLK2
  1

  9
$DIMSTYLE
  2
STANDARD
  9
$DIMCLRD
 70
     0
  9
$DIMCLRE
 70
     0
  9
$DIMCLRT
 70
     0
  9
$DIMTFAC
 40
1.0
  9
$DIMGAP
 40
0.09
  9
$LUNITS
 70
     2
  9
$LUPREC
 70
     4
  9
$SKETCHINC
 40
0.1
  9
$FILLETRAD
 40
0.0
  9
$AUNITS
 70
     0
  9
$AUPREC
 70
     0
  9
$MENU
  1
.
  9
$ELEVATION
 40
0.0
  9
$PELEVATION
 40
0.0
  9
$THICKNESS
 40
0.0
  9
$LIMCHECK
 70
     0
  9
$BLIPMODE
 70
     0
  9
$CHAMFERA
 40
0.0
  9
$CHAMFERB
 40
0.0
  9
$SKPOLY
 70
     0
  9
$TDCREATE
 40
2458172.4620254631154239
  9
$TDUPDATE
 40
2459156.3855092590674758
  9
$TDINDWG
 40
0.1809087153
  9
$TDUSRTIMER
 40
0.1809087153
  9
$USRTIMER
 70
     1
  9
$ANGBASE
 50
0.0
  9
$ANGDIR
 70
     0
  9
$PDMODE
 70
     0
  9
$PDSIZE
 40
0.3125
  9
$PLINEWID
 40
0.0
  9
$COORDS
 70
     1
  9
$SPLFRAME
 70
     0
  9
$SPLINETYPE
 70
     6
  9
$SPLINESEGS
 70
     8
  9
$ATTDIA
 70
     1
  9
$ATTREQ
 70
     1
  9
$HANDLING
 70
     1
  9
$HANDSEED
  5
7CBA
  9
$SURFTAB1
 70
     6
  9
$SURFTAB2
 70
     6
  9
$SURFTYPE
 70
     6
  9
$SURFU
 70
     6
  9
$SURFV
 70
     6
  9
$UCSNAME
  2

  9
$UCSORG
 10
0.0
 20
0.0
 30
0.0
  9
$UCSXDIR
 10
1.0
 20
0.0
 30
0.0
  9
$UCSYDIR
 10
0.0
 20
1.0
 30
0.0
  9
$PUCSNAME
  2

  9
$PUCSORG
 10
0.0
 20
0.0
 30
0.0
  9
$PUCSXDIR
 10
1.0
 20
0.0
 30
0.0
  9
$PUCSYDIR
 10
0.0
 20
1.0
 30
0.0
  9
$USERI1
 70
     0
  9
$USERI2
 70
     0
  9
$USERI3
 70
     0
  9
$USERI4
 70
     0
  9
$USERI5
 70
     0
  9
$USERR1
 40
0.0
  9
$USERR2
 40
0.0
  9
$USERR3
 40
0.0
  9
$USERR4
 40
0.0
  9
$USERR5
 40
0.0
  9
$WORLDVIEW
 70
     1
  9
$SHADEDGE
 70
     3
  9
$SHADEDIF
 70
    70
  9
$TILEMODE
 70
     1
  9
$MAXACTVP
 70
    64
  9
$PLIMCHECK
 70
     0
  9
$PEXTMIN
 10
1.0000000000000000E+20
 20
1.0000000000000000E+20
 30
1.0000000000000000E+20
  9
$PEXTMAX
 10
-1.0000000000000000E+20
 20
-1.0000000000000000E+20
 30
-1.0000000000000000E+20
  9
$PLIMMIN
 10
0.0
 20
0.0
  9
$PLIMMAX
 10
12.0
 20
9.0
  9
$UNITMODE
 70
     0
  9
$VISRETAIN
 70
     1
  9
$PLINEGEN
 70
     0
  9
$PSLTSCALE
 70
     1
  0
ENDSEC
  0
SECTION
  2
TABLES
  0
TABLE
  2
VPORT
 70
     1
  0
VPORT
  2
*ACTIVE
 70
     0
 10
0.0
 20
0.0
 11
1.0
 21
1.0
 12
4.7203673127556707
 22
-97.5766970058177208
 13
0.0
 23
0.0
 14
1.0
 24
1.0
 15
0.0
 25
0.0
 16
0.0
 26
0.0
 36
30.6214257250603907
 17
124.6111586000725993
 27
5.3122741703778242
 37
0.0
 40
10.2533827601457102
 41
2.6486111111111108
 42
50.0
 43
0.0
 44
0.0
 50
0.0
 51
0.0
 71
     0
 72
   100
 73
     1
 74
     1
 75
     0
 76
     0
 77
     0
 78
     0
  0
ENDTAB
  0
TABLE
  2
LTYPE
 70
     2
  0
LTYPE
  2
CONTINUOUS
 70
     0
  3
Solid line
 72
    65
 73
     0
 40
0.0
  0
LTYPE
  2
PHANTOM2
 70
     0
  3
___ _ _ ___ _ _ ___ _ _ ___ _ _
 72
    65
 73
     6
 40
1.25
 49
0.625
 49
-0.125
 49
0.125
 49
-0.125
 49
0.125
 49
-0.125
  0
ENDTAB
  0
TABLE
  2
LAYER
 70
     2
  0
LAYER
  2
0
 70
     0
 62
   255
  6
CONTINUOUS
  0
LAYER
  2
DEFPOINTS
 70
     0
 62
     7
  6
CONTINUOUS
  0
ENDTAB
  0
TABLE
  2
STYLE
 70
     1
  0
STYLE
  2
STANDARD
 70
     0
 40
0.0
 41
0.8
 50
0.0
 71
     0
 42
0.2
  3
txt
  4

  0
ENDTAB
  0
TABLE
  2
VIEW
 70
     0
  0
ENDTAB
  0
TABLE
  2
UCS
 70
     0
  0
ENDTAB
  0
TABLE
  2
APPID
 70
     9
  0
APPID
  2
ACAD
 70
     0
  0
APPID
  2
ACAD_MLEADERVER
 70
     0
  0
APPID
  2
ACAD_EXEMPT_FROM_CAD_STANDARDS
 70
     0
  0
APPID
  2
ACAD_DSTYLE_DIMJAG
 70
     0
  0
APPID
  2
ACAD_DSTYLE_DIMTALN
 70
     0
  0
APPID
  2
ACAD_NAV_VCDISPLAY
 70
     0
  0
APPID
  2
ACAECLAYERSTANDARD
 70
     0
  0
APPID
  2
ACCMTRANSPARENCY
 70
     0
  0
APPID
  2
ACDBATTR
 70
     0
  0
ENDTAB
  0
TABLE
  2
DIMSTYLE
 70
     1
  0
DIMSTYLE
  2
STANDARD
 70
     0
  3

  4

  5

  6

  7

 40
1.0
 41
0.1875
 42
0.0625
 43
0.38
 44
0.125
 45
0.0
 46
0.0
 47
0.01
 48
0.01
140
0.15625
141
0.09
142
0.0
143
25.3999999999999986
144
1.0
145
0.0
146
1.0
147
0.09
 71
     1
 72
     0
 73
     1
 74
     1
 75
     0
 76
     0
 77
     0
 78
     4
170
     0
171
     2
172
     0
173
     0
174
     0
175
     0
176
     0
177
     0
178
     0
  0
ENDTAB
  0
ENDSEC
  0
SECTION
  2
BLOCKS
  0
BLOCK
  8
0
  2
$MODEL_SPACE
 70
     0
 10
0.0
 20
0.0
 30
0.0
  3
$MODEL_SPACE
  1

  0
ENDBLK
  5
21
  8
0
  0
BLOCK
 67
     1
  8
0
  2
$PAPER_SPACE
 70
     0
 10
0.0
 20
0.0
 30
0.0
  3
$PAPER_SPACE
  1

  0
ENDBLK
  5
1D
 67
     1
  8
0
  0
BLOCK
  8
0
  2
_FILLED
 70
     0
 10
0.0
 20
0.0
 30
0.0
  3
_FILLED
  1

  0
SOLID
  5
6001
  8
0
  6
BYBLOCK
 62
     0
 10
0.0
 20
0.0
 30
0.0
 11
-1.0
 21
0.1666666667
 31
0.0
 12
-1.0
 22
-0.1666666667
 32
0.0
 13
-1.0
 23
-0.1666666667
 33
0.0
  0
ENDBLK
  5
6002
  8
0
  6
BYBLOCK
 62
     0
  0
ENDSEC
  0
SECTION
  2
ENTITIES
  0
ATTDEF
  5
67EF
  8
DEFPOINTS
 10
131.7234974173036903
 20
-97.3418309399590385
 30
0.0
 40
0.001
  1
K-37303IN-4ND
  3

  2
MODELNUMBER
 70
     0
1001
ACDBATTR
1070
     0
1070
     1
  0
ATTDEF
  5
67F0
  8
DEFPOINTS
 10
131.7234974173036903
 20
-97.3434976066257036
 30
0.0
 40
0.001
  1
CUFF
  3

  2
TRADENAME
 70
     0
1001
ACDBATTR
1070
     0
1070
     1
  0
ATTDEF
  5
67F1
  8
DEFPOINTS
 10
131.7234974173036903
 20
-97.3451642732923688
 30
0.0
 40
0.001
  1
BATHROOM SINK FAUCET
  3

  2
PRODUCT
 70
     0
1001
ACDBATTR
1070
     0
1070
     1
  0
LINE
  5
7A34
  8
0
 10
126.0126207177512043
 20
-89.2335077177079938
 30
0.0
 11
130.3524873864022027
 21
-89.2327862702225048
 31
0.0
  0
LINE
  5
7A35
  8
0
 10
128.2480504060023065
 20
-87.6294435497273412
 30
0.0
 11
130.7286854623523027
 21
-87.6294435497273412
 31
0.0
  0
LINE
  5
7A36
  8
0
 10
128.2480487851507007
 20
-88.0034791589682328
 30
0.0
 11
128.4895341554945958
 21
-88.0034791589682328
 31
0.0
  0
LINE
  5
7A37
  8
0
 10
129.045704481254802
 20
-88.0034791589682328
 30
0.0
 11
130.7322017009427952
 21
-88.0034791589682328
 31
0.0
  0
LINE
  5
7A38
  8
0
 10
132.6279401954022035
 20
-88.76259077106549
 30
0.0
 11
132.6279405418212889
 21
-97.3455803288340036
 31
0.0
  0
LINE
  5
7A39
  8
0
 10
132.6279401954022035
 20
-88.4022954453225083
 30
0.0
 11
132.6279401954022035
 21
-88.211350563422485
 31
0.0
  0
LINE
  5
7A3A
  8
0
 10
132.6279401954022035
 20
-87.9660389349531897
 30
0.0
 11
132.6279401954022035
 21
-87.2275616116450863
 31
0.0
  0
LINE
  5
7A3B
  8
0
 10
132.5562155131080999
 20
-88.4377285161225046
 30
0.0
 11
130.8900438522964009
 21
-88.4377285161225046
 31
0.0
  0
LINE
  5
7A3C
  8
0
 10
132.6279401954022035
 20
-88.4022954453225083
 30
0.0
 11
130.8183191700022121
 21
-88.4022954453225083
 31
0.0
  0
LINE
  5
7A3D
  8
0
 10
132.5536166750021891
 20
-88.4101679971224854
 30
0.0
 11
130.892642690402198
 21
-88.4101679971224854
 31
0.0
  0
LINE
  5
7A3E
  8
0
 10
132.6279405418212889
 20
-97.3455803288340036
 30
0.0
 11
130.8183195164212975
 21
-97.3455803288340036
 31
0.0
  0
LINE
  5
7A3F
  8
0
 10
132.5536166750021891
 20
-88.4101679971224854
 30
0.0
 11
132.5533869003022005
 21
-88.4035881092225253
 31
0.0
  0
LINE
  5
7A40
  8
0
 10
132.5533869003022005
 20
-88.4035881092225253
 30
0.0
 11
132.5528241569421084
 21
-88.4022954453225083
 31
0.0
  0
LINE
  5
7A41
  8
0
 10
132.5533869003022005
 20
-88.4035881092225253
 30
0.0
 11
130.8928724651021867
 21
-88.4035881092225253
 31
0.0
  0
ARC
  5
7A42
  8
0
 10
131.7229080136021935
 20
-88.7920592248225091
 30
0.0
 40
0.9055118110000515
 50
1.864930062064506
 51
23.0356841092286295
  0
ARC
  5
7A43
  8
0
 10
132.6087522763351956
 20
-87.2317766847380227
 30
0.0
 40
0.019645434057358
 50
12.3895617605583706
 51
86.0751616630423939
  0
LINE
  5
7A44
  8
0
 10
130.8183191700022121
 20
-88.76259077106549
 30
0.0
 11
130.8183191700022121
 21
-88.7920592248225091
 31
0.0
  0
LINE
  5
7A45
  8
0
 10
130.8183191700022121
 20
-90.999936505034114
 30
0.0
 11
130.8183195164212975
 21
-97.3455803288340036
 31
0.0
  0
LINE
  5
7A46
  8
0
 10
130.8183191700022121
 20
-88.4022954453225083
 30
0.0
 11
130.8183191700022121
 21
-88.0864289159022462
 31
0.0
  0
LINE
  5
7A47
  8
0
 10
130.8183191700022121
 20
-87.5216878883702805
 30
0.0
 11
130.8183191700022121
 21
-87.2275616116450863
 31
0.0
  0
LINE
  5
7A48
  8
0
 10
131.0491214585881892
 20
-88.4101679971224854
 30
0.0
 11
131.0484118773881903
 21
-88.4377285161225046
 31
0.0
  0
LINE
  5
7A49
  8
0
 10
130.9840410528111931
 20
-88.4377285161225046
 30
0.0
 11
130.9836518672883017
 21
-88.4180420128224966
 31
0.0
  0
ARC
  5
7A4A
  8
0
 10
130.9742290766394035
 20
-88.4194458663661464
 30
0.0
 40
0.0095267931846709
 50
8.4738761619805345
 51
76.8735347772806961
  0
LINE
  5
7A4B
  8
0
 10
130.892642690402198
 20
-88.4101679971224854
 30
0.0
 11
130.8928724651021867
 21
-88.4035881092225253
 31
0.0
  0
LINE
  5
7A4C
  8
0
 10
130.8928724651021867
 20
-88.4035881092225253
 30
0.0
 11
130.8934352084623072
 21
-88.4022954453225083
 31
0.0
  0
ARC
  5
7A4D
  8
0
 10
131.7233513518023074
 20
-88.7920592248225091
 30
0.0
 40
0.9055118110000515
 50
156.9643158907713882
 51
178.1350699379354978
  0
ARC
  5
7A4E
  8
0
 10
130.8375070890691916
 20
-87.2317766847380227
 30
0.0
 40
0.019645434057358
 50
93.9248383369576061
 51
167.6104382394416064
  0
ARC
  5
7A4F
  8
0
 10
131.7231296827021936
 20
-99.9397271834580323
 30
0.0
 40
12.7584182543355293
 50
86.0135727224989637
 51
93.9864272775010363
  0
LINE
  5
7A50
  8
0
 10
126.1055418122318059
 20
-90.5363610775079906
 30
0.0
 11
126.0133372833471981
 21
-90.5363610775079906
 31
0.0
  0
LINE
  5
7A51
  8
0
 10
126.9518626704033011
 20
-90.5363610775079906
 30
0.0
 11
130.3524873865499103
 21
-90.5356396300225015
 31
0.0
  0
ARC
  5
7A52
  8
0
 10
129.3497322267911898
 20
-87.8164661283958736
 30
0.0
 40
1.117443635799539
 50
170.3652657301709041
 51
189.6342376970441137
  0
ARC
  5
7A53
  8
0
 10
129.0273399009163029
 20
-89.0286153782727467
 30
0.0
 40
1.1576438519417671
 50
103.7307812763592949
 51
117.6823487356952995
  0
ARC
  5
7A54
  8
0
 10
128.8159266887529952
 20
-88.2264435034201853
 30
0.0
 40
0.3285567150650623
 50
73.952050501225969
 51
101.1196944012280028
  0
ARC
  5
7A55
  8
0
 10
128.7721337396571073
 20
-88.2627171224362854
 30
0.0
 40
0.3768889390276996
 50
43.4590910593975366
 51
69.0724757268835532
  0
ARC
  5
7A56
  8
0
 10
130.7100686056556924
 20
-87.5228000583639556
 30
0.0
 40
0.1082562774319965
 50
279.9023920644812051
 51
0.5886380839441983
  0
ARC
  5
7A57
  8
0
 10
130.720660154642303
 20
-88.1016394114354142
 30
0.0
 40
0.0988364429521303
 50
8.8527513813516396
 51
83.2940313627605349
  0
ARC
  5
7A58
  8
0
 10
126.8744784397230063
 20
-91.9944970026781448
 30
0.0
 40
1.6484610742657591
 50
100.6477754982508941
 51
117.8045739178509024
  0
ARC
  5
7A59
  8
0
 10
126.4621113746557057
 20
-91.0046281753878077
 30
0.0
 40
0.6775916223237304
 50
43.7153194747349119
 51
61.9206723155597487
  0
ARC
  5
7A5A
  8
0
 10
130.9161030430558981
 20
-89.882237693504436
 30
0.0
 40
4.9462096089907606
 50
172.4635444166090963
 51
187.5994806045038104
  0
ARC
  5
7A5B
  8
0
 10
130.3698625924390058
 20
-88.7846044115810145
 30
0.0
 40
0.4485185349572168
 50
267.779857318203824
 51
359.0476446987818804
  0
ARC
  5
7A5C
  8
0
 10
130.3824945364023051
 20
-90.9713676007800558
 30
0.0
 40
0.4367599953552941
 50
356.2495485702174278
 51
93.939551496663384
  0
ARC
  5
7A5D
  8
0
 10
132.5095838961273955
 20
-88.0873348153584175
 30
0.0
 40
0.1892224409748242
 50
308.7179883682701984
 51
51.2820116377259083
  0
ARC
  5
7A5E
  8
0
 10
133.4896191298551003
 20
-88.0873348153725146
 30
0.0
 40
0.8705575752609258
 50
171.8100373158085858
 51
188.1899626841913005
  0
ARC
  5
7A5F
  8
0
 10
126.6205540129786016
 20
-90.7488216161103907
 30
0.0
 40
0.377814126043423
 50
64.8620041729118384
 51
97.7063249968156811
  0
LINE
  5
7A61
  8
0
 10
131.5158854667172932
 20
-88.4101679971224854
 30
0.0
 11
131.5155960570911873
 21
-88.4377285161225046
 31
0.0
  0
LINE
  5
7A62
  8
0
 10
131.2575169934713131
 20
-88.410167020634006
 30
0.0
 11
131.256866759119788
 21
-88.4377285161225046
 31
0.0
  0
LINE
  5
7A63
  8
0
 10
131.4987849610712942
 20
-88.410167020634006
 30
0.0
 11
131.5011527232713036
 21
-88.418041036334003
 31
0.0
  0
LINE
  5
7A64
  8
0
 10
131.5011527232713036
 20
-88.418041036334003
 30
0.0
 11
131.5011527232713036
 21
-88.437728403733999
 31
0.0
  0
LINE
  5
7A65
  8
0
 10
132.3971385996543972
 20
-88.4101679971224854
 30
0.0
 11
132.3978481808543961
 21
-88.4377285161225046
 31
0.0
  0
LINE
  5
7A66
  8
0
 10
132.462219005431507
 20
-88.4377285161225046
 30
0.0
 11
132.4626081909543984
 21
-88.4180420128224966
 31
0.0
  0
ARC
  5
7A67
  8
0
 10
132.4720309816032113
 20
-88.4194458663661464
 30
0.0
 40
0.0095267931846709
 50
103.1264652227193039
 51
171.5261238380194868
  0
LINE
  5
7A68
  8
0
 10
131.9303745915252932
 20
-88.4101679971224854
 30
0.0
 11
131.9306640011515128
 21
-88.4377285161225046
 31
0.0
  0
LINE
  5
7A69
  8
0
 10
132.1887430647713018
 20
-88.410167020634006
 30
0.0
 11
132.1893932991227985
 21
-88.4377285161225046
 31
0.0
  0
LINE
  5
7A6A
  8
0
 10
131.9474750971712922
 20
-88.410167020634006
 30
0.0
 11
131.9451073349713965
 21
-88.418041036334003
 31
0.0
  0
LINE
  5
7A6B
  8
0
 10
131.9451073349713965
 20
-88.418041036334003
 30
0.0
 11
131.9451073349713965
 21
-88.437728403733999
 31
0.0
  0
ENDSEC
  0
EOF
