  0
SECTION
  2
HEADER
  9
$ACADVER
  1
AC1009
  9
$INSBASE
 10
1125.4382401625659895
 20
165.0747946637202119
 30
0.0
  9
$EXTMIN
 10
1124.3929409759739428
 20
165.0745543582958135
 30
-0.0000000349181948
  9
$EXTMAX
 10
1126.4445020211589963
 20
170.0895363708229979
 30
0.0000000814935746
  9
$LIMMIN
 10
0.0
 20
0.0
  9
$LIMMAX
 10
11.6929133858000007
 20
8.2677165353999982
  9
$ORTHOMODE
 70
     0
  9
$REGENMODE
 70
     1
  9
$FILLMODE
 70
     1
  9
$QTEXTMODE
 70
     0
  9
$MIRRTEXT
 70
     0
  9
$DRAGMODE
 70
     2
  9
$LTSCALE
 40
0.6431102362
  9
$OSMODE
 70
  4095
  9
$ATTMODE
 70
     1
  9
$TEXTSIZE
 40
0.2
  9
$TRACEWID
 40
0.05
  9
$TEXTSTYLE
  7
STANDARD
  9
$CLAYER
  8
0
  9
$CELTYPE
  6
BYLAYER
  9
$CECOLOR
 62
   256
  9
$DIMSCALE
 40
1.0
  9
$DIMASZ
 40
0.1875
  9
$DIMEXO
 40
0.0625
  9
$DIMDLI
 40
0.4443307087
  9
$DIMRND
 40
0.0
  9
$DIMDLE
 40
0.0
  9
$DIMEXE
 40
0.125
  9
$DIMTP
 40
0.01
  9
$DIMTM
 40
0.01
  9
$DIMTXT
 40
1.0
  9
$DIMCEN
 40
0.1052362205
  9
$DIMTSZ
 40
0.0
  9
$DIMTOL
 70
     1
  9
$DIMLIM
 70
     0
  9
$DIMTIH
 70
     0
  9
$DIMTOH
 70
     1
  9
$DIMSE1
 70
     0
  9
$DIMSE2
 70
     0
  9
$DIMTAD
 70
     0
  9
$DIMZIN
 70
     0
  9
$DIMBLK
  1

  9
$DIMASO
 70
     1
  9
$DIMSHO
 70
     1
  9
$DIMPOST
  1
\X
  9
$DIMAPOST
  1

  9
$DIMALT
 70
     1
  9
$DIMALTD
 70
     2
  9
$DIMALTF
 40
25.3999999999999986
  9
$DIMLFAC
 40
1.0
  9
$DIMTOFL
 70
     0
  9
$DIMTVP
 40
0.0
  9
$DIMTIX
 70
     0
  9
$DIMSOXD
 70
     0
  9
$DIMSAH
 70
     0
  9
$DIMBLK1
  1

  9
$DIMBLK2
  1

  9
$DIMSTYLE
  2
STANDARD
  9
$DIMCLRD
 70
     0
  9
$DIMCLRE
 70
     0
  9
$DIMCLRT
 70
     0
  9
$DIMTFAC
 40
1.0
  9
$DIMGAP
 40
0.09
  9
$LUNITS
 70
     2
  9
$LUPREC
 70
     4
  9
$SKETCHINC
 40
0.1
  9
$FILLETRAD
 40
0.0
  9
$AUNITS
 70
     0
  9
$AUPREC
 70
     0
  9
$MENU
  1
.
  9
$ELEVATION
 40
0.0
  9
$PELEVATION
 40
0.0
  9
$THICKNESS
 40
0.0
  9
$LIMCHECK
 70
     0
  9
$BLIPMODE
 70
     0
  9
$CHAMFERA
 40
0.0
  9
$CHAMFERB
 40
0.0
  9
$SKPOLY
 70
     0
  9
$TDCREATE
 40
2458172.5207638889551163
  9
$TDUPDATE
 40
2460058.9955439809709787
  9
$TDINDWG
 40
0.4839011806
  9
$TDUSRTIMER
 40
0.4839011806
  9
$USRTIMER
 70
     1
  9
$ANGBASE
 50
0.0
  9
$ANGDIR
 70
     0
  9
$PDMODE
 70
     0
  9
$PDSIZE
 40
0.3125
  9
$PLINEWID
 40
0.0
  9
$COORDS
 70
     1
  9
$SPLFRAME
 70
     0
  9
$SPLINETYPE
 70
     6
  9
$SPLINESEGS
 70
     8
  9
$ATTDIA
 70
     1
  9
$ATTREQ
 70
     1
  9
$HANDLING
 70
     1
  9
$HANDSEED
  5
E097
  9
$SURFTAB1
 70
     6
  9
$SURFTAB2
 70
     6
  9
$SURFTYPE
 70
     6
  9
$SURFU
 70
     6
  9
$SURFV
 70
     6
  9
$UCSNAME
  2

  9
$UCSORG
 10
0.0
 20
0.0
 30
0.0
  9
$UCSXDIR
 10
1.0
 20
0.0
 30
0.0
  9
$UCSYDIR
 10
0.0
 20
1.0
 30
0.0
  9
$PUCSNAME
  2

  9
$PUCSORG
 10
0.0
 20
0.0
 30
0.0
  9
$PUCSXDIR
 10
1.0
 20
0.0
 30
0.0
  9
$PUCSYDIR
 10
0.0
 20
1.0
 30
0.0
  9
$USERI1
 70
     0
  9
$USERI2
 70
     0
  9
$USERI3
 70
     0
  9
$USERI4
 70
     0
  9
$USERI5
 70
     0
  9
$USERR1
 40
0.0
  9
$USERR2
 40
0.0
  9
$USERR3
 40
0.0
  9
$USERR4
 40
0.0
  9
$USERR5
 40
0.0
  9
$WORLDVIEW
 70
     1
  9
$SHADEDGE
 70
     3
  9
$SHADEDIF
 70
    70
  9
$TILEMODE
 70
     1
  9
$MAXACTVP
 70
    64
  9
$PLIMCHECK
 70
     0
  9
$PEXTMIN
 10
1.0000000000000000E+20
 20
1.0000000000000000E+20
 30
1.0000000000000000E+20
  9
$PEXTMAX
 10
-1.0000000000000000E+20
 20
-1.0000000000000000E+20
 30
-1.0000000000000000E+20
  9
$PLIMMIN
 10
0.0
 20
0.0
  9
$PLIMMAX
 10
12.0
 20
9.0
  9
$UNITMODE
 70
     0
  9
$VISRETAIN
 70
     1
  9
$PLINEGEN
 70
     0
  9
$PSLTSCALE
 70
     1
  0
ENDSEC
  0
SECTION
  2
TABLES
  0
TABLE
  2
VPORT
 70
     1
  0
VPORT
  2
*ACTIVE
 70
     0
 10
0.0
 20
0.0
 11
1.0
 21
1.0
 12
658.6765197907367337
 22
78.4488982446296461
 13
0.0
 23
0.0
 14
1.0
 24
1.0
 15
0.0
 25
0.0
 16
0.0
 26
0.0
 36
24.1179433675886514
 17
466.74220170783002
 27
89.133147119929788
 37
0.0
 40
5.0492920376983639
 41
1.8299086757990859
 42
50.0
 43
0.0
 44
0.0
 50
0.0
 51
0.0
 71
     0
 72
   100
 73
     1
 74
     1
 75
     0
 76
     0
 77
     0
 78
     0
  0
ENDTAB
  0
TABLE
  2
LTYPE
 70
     2
  0
LTYPE
  2
CONTINUOUS
 70
     0
  3
Solid line
 72
    65
 73
     0
 40
0.0
  0
LTYPE
  2
PHANTOM2
 70
     0
  3
___ _ _ ___ _ _ ___ _ _ ___ _ _
 72
    65
 73
     6
 40
1.25
 49
0.625
 49
-0.125
 49
0.125
 49
-0.125
 49
0.125
 49
-0.125
  0
ENDTAB
  0
TABLE
  2
LAYER
 70
     2
  0
LAYER
  2
0
 70
     0
 62
   255
  6
CONTINUOUS
  0
LAYER
  2
DEFPOINTS
 70
     0
 62
     7
  6
CONTINUOUS
  0
ENDTAB
  0
TABLE
  2
STYLE
 70
     1
  0
STYLE
  2
STANDARD
 70
     0
 40
0.0
 41
0.8
 50
0.0
 71
     0
 42
0.2
  3
txt
  4

  0
ENDTAB
  0
TABLE
  2
VIEW
 70
     0
  0
ENDTAB
  0
TABLE
  2
UCS
 70
     0
  0
ENDTAB
  0
TABLE
  2
APPID
 70
    11
  0
APPID
  2
ACAD
 70
     0
  0
APPID
  2
ACAD_MLEADERVER
 70
     0
  0
APPID
  2
ACAD_EXEMPT_FROM_CAD_STANDARDS
 70
     0
  0
APPID
  2
ACAD_DSTYLE_DIMJAG
 70
     0
  0
APPID
  2
ACAD_DSTYLE_DIMTALN
 70
     0
  0
APPID
  2
ACAD_NAV_VCDISPLAY
 70
     0
  0
APPID
  2
ACAECLAYERSTANDARD
 70
     0
  0
APPID
  2
ACCMTRANSPARENCY
 70
     0
  0
APPID
  2
DCO15
 70
     0
  0
APPID
  2
ACDBATTR
 70
     0
  0
APPID
  2
ACADANNOTATIVE
 70
     0
  0
ENDTAB
  0
TABLE
  2
DIMSTYLE
 70
     1
  0
DIMSTYLE
  2
STANDARD
 70
     0
  3

  4

  5

  6

  7

 40
1.0
 41
0.1875
 42
0.0625
 43
0.38
 44
0.125
 45
0.0
 46
0.0
 47
0.01
 48
0.01
140
0.15625
141
0.09
142
0.0
143
25.3999999999999986
144
1.0
145
0.0
146
1.0
147
0.09
 71
     1
 72
     0
 73
     1
 74
     1
 75
     0
 76
     0
 77
     0
 78
     4
170
     0
171
     2
172
     0
173
     0
174
     0
175
     0
176
     0
177
     0
178
     0
  0
ENDTAB
  0
ENDSEC
  0
SECTION
  2
BLOCKS
  0
BLOCK
  8
0
  2
$MODEL_SPACE
 70
     0
 10
0.0
 20
0.0
 30
0.0
  3
$MODEL_SPACE
  1

  0
ENDBLK
  5
21
  8
0
  0
BLOCK
 67
     1
  8
0
  2
$PAPER_SPACE
 70
     0
 10
0.0
 20
0.0
 30
0.0
  3
$PAPER_SPACE
  1

  0
ENDBLK
  5
1D
 67
     1
  8
0
  0
ENDSEC
  0
SECTION
  2
ENTITIES
  0
ATTDEF
  5
829
  8
DEFPOINTS
 10
1125.4340110186769834
 20
165.0798454955832142
 30
0.0
 40
0.001
  1
K-37308D
  3

  2
MODELNUMBER
 70
     0
1001
ACDBATTR
1070
     0
1070
     1
  0
ATTDEF
  5
82A
  8
DEFPOINTS
 10
1125.4340110186769834
 20
165.0781788289166059
 30
0.0
 40
0.001
  1
CUFF
  3

  2
TRADENAME
 70
     0
1001
ACDBATTR
1070
     0
1070
     1
  0
ATTDEF
  5
82B
  8
DEFPOINTS
 10
1125.4340110186769834
 20
165.0765121622499123
 30
0.0
 40
0.001
  1
BATHROOM SINK FAUCET
  3

  2
PRODUCT
 70
     0
1001
ACDBATTR
1070
     0
1070
     1
  0
ARC
  5
DF33
  8
0
 10
1125.4692291201110947
 20
159.473000261727492
 30
0.0
 40
10.6047992216811
 50
90.1674278756868262
 51
93.7939200959370538
  0
ARC
  5
DF34
  8
0
 10
1124.7689388152739411
 20
170.034807844892498
 30
0.0
 40
0.0198013112897329
 50
94.078266820526153
 51
179.7594134227680058
  0
LINE
  5
DF35
  8
0
 10
1124.7675305639479575
 20
170.0545590159208871
 30
0.0
 11
1126.1089502974020888
 21
170.0545589803624011
 31
0.0
  0
LINE
  5
DF36
  8
0
 10
1124.7491376785510511
 20
168.8766555326311902
 30
0.0
 11
1124.7491376785510511
 21
170.0348909909070017
 31
0.0
  0
ARC
  5
DF37
  8
0
 10
1124.769037678551058
 20
168.8766555326311902
 30
0.0
 40
0.0199
 50
180.0
 51
270.0000092907810085
  0
LINE
  5
DF38
  8
0
 10
1124.7690376817779452
 20
168.8567555326312117
 30
0.0
 11
1126.1074426498068988
 21
168.8567557496600102
 31
0.0
  0
LINE
  5
DF39
  8
0
 10
1124.7690376762229789
 20
168.8134486834748031
 30
0.0
 11
1126.1074426442519325
 21
168.8134488400538089
 31
0.0
  0
ARC
  5
DF3A
  8
0
 10
1124.769037678551058
 20
168.7935486834747962
 30
0.0
 40
0.0199
 50
90.000006702988145
 51
180.0
  0
LINE
  5
DF3B
  8
0
 10
1124.8476881534579661
 20
168.8567555453848001
 30
0.0
 11
1124.8476881527990372
 21
168.8134486822642089
 31
0.0
  0
LINE
  5
DF3C
  8
0
 10
1124.7491376785510511
 20
168.7935486834747962
 30
0.0
 11
1124.7491376785510511
 21
165.1928852271643109
 31
0.0
  0
LINE
  5
DF3D
  8
0
 10
1124.4933881940660285
 20
165.1928852271643109
 30
0.0
 11
1126.3830921310659505
 21
165.1928852271643109
 31
0.0
  0
ARC
  5
DF3E
  8
0
 10
1125.4403210464390668
 20
169.4801899194216048
 30
0.0
 40
0.149424787514562
 50
90.7979246251148453
 51
121.7545717062320989
  0
ARC
  5
DF3F
  8
0
 10
1125.4355173481380916
 20
169.4918422524351911
 30
0.0
 40
0.1370038953936565
 50
122.6109950059893947
 51
147.1218034455031898
  0
ARC
  5
DF40
  8
0
 10
1125.4324901662719185
 20
169.4945595276568895
 30
0.0
 40
0.1329880354998229
 50
147.3969865303855045
 51
172.2699222664415117
  0
ARC
  5
DF41
  8
0
 10
1126.6345262079380518
 20
169.4086372248951875
 30
0.0
 40
1.3378492151659069
 50
175.5496761928669969
 51
178.5328068147994998
  0
ARC
  5
DF42
  8
0
 10
1125.4415671512549579
 20
169.4058145630694128
 30
0.0
 40
0.1502705962439991
 50
237.8855663929215893
 51
268.7313686657715834
  0
ARC
  5
DF43
  8
0
 10
1125.4355173481380916
 20
169.3939422602933007
 30
0.0
 40
0.1370038953936565
 50
212.8781965544968102
 51
237.3890049940104916
  0
ARC
  5
DF44
  8
0
 10
1125.4324901662719185
 20
169.3912249850716023
 30
0.0
 40
0.1329880354998229
 50
187.7300777335584883
 51
212.6030134696144955
  0
ARC
  5
DF45
  8
0
 10
1126.1458659245199669
 20
169.4518903780727896
 30
0.0
 40
0.8487980134166948
 50
180.607404885475006
 51
185.3101121068613963
  0
ARC
  5
DF46
  8
0
 10
1125.4419138270939129
 20
167.7077952867198007
 30
0.0
 40
0.46917300388074
 50
90.448635411624565
 51
122.392242438697707
  0
ARC
  5
DF47
  8
0
 10
1125.4255928643390234
 20
167.7391385069801117
 30
0.0
 40
0.4339738661441097
 50
122.7895808584620028
 51
156.1964154753626985
  0
ARC
  5
DF48
  8
0
 10
1137.1728069473440428
 20
167.0825746582106035
 30
0.0
 40
12.1977871233858899
 50
176.6515543948341929
 51
177.6788410677906995
  0
ARC
  5
DF49
  8
0
 10
1125.4545921488740987
 20
167.7333948889450141
 30
0.0
 40
0.4628693786527235
 50
156.9947424032783942
 51
172.3484974431997045
  0
ARC
  5
DF4A
  8
0
 10
1125.4431301707509192
 20
167.4495223769781092
 30
0.0
 40
0.4733121466115624
 50
237.7511534407246074
 51
269.4080400907822082
  0
ARC
  5
DF4B
  8
0
 10
1125.4255928643390234
 20
167.4140507246858078
 30
0.0
 40
0.4339738661441097
 50
203.8035845246373015
 51
237.2104191415380114
  0
ARC
  5
DF4C
  8
0
 10
1132.6101547964240126
 20
167.8446855229495895
 30
0.0
 40
7.6298382007958372
 50
182.0136259227965922
 51
183.6559786145811017
  0
ARC
  5
DF4D
  8
0
 10
1125.4545921488740987
 20
167.4197943427207917
 30
0.0
 40
0.4628693786527235
 50
187.6515025568002955
 51
203.0052575967216058
  0
LINE
  5
DF4E
  8
0
 10
1126.4224921310660648
 20
165.0747946637202119
 30
0.0
 11
1124.4539881940659143
 21
165.0747946637202119
 31
0.0
  0
LINE
  5
DF4F
  8
0
 10
1124.4539881940659143
 20
165.0747946637202119
 30
0.0
 11
1124.4539881940659143
 21
165.1534852271643103
 31
0.0
  0
ARC
  5
DF50
  8
0
 10
1124.4933881940660285
 20
165.1534852271643103
 30
0.0
 40
0.0394
 50
90.0
 51
179.9999999999984084
  0
ARC
  5
DF52
  8
0
 10
1125.2622033382829159
 20
167.0938582730231872
 30
0.0
 40
0.0971515266939924
 50
198.299090582875408
 51
218.4511943602221038
  0
ARC
  5
DF53
  8
0
 10
1125.304210046731896
 20
167.1272135350920962
 30
0.0
 40
0.150790477676234
 50
218.4511943602221038
 51
240.7713608940536858
  0
ARC
  5
DF54
  8
0
 10
1125.4102030648680284
 20
167.3166433096781986
 30
0.0
 40
0.3678576548198886
 50
240.7713608940536858
 51
250.341198557400304
  0
ARC
  5
DF55
  8
0
 10
1125.4042403638459291
 20
167.2999523247395075
 30
0.0
 40
0.3501335813125701
 50
250.341198557400304
 51
263.0102163235604849
  0
ARC
  5
DF56
  8
0
 10
1125.4982777853849711
 20
168.066956278415006
 30
0.0
 40
1.122880694929588
 50
263.0102163235604849
 51
265.3480360419277986
  0
ARC
  5
DF57
  8
0
 10
1125.4728377542498947
 20
168.6545927879884061
 30
0.0
 40
1.708079417049247
 50
267.7980047914409738
 51
268.8393797513098775
  0
ARC
  5
DF58
  8
0
 10
1125.2536464302870627
 20
167.0099849673729864
 30
0.0
 40
0.0056172354655462
 50
85.0110129859097441
 51
143.2110308648541945
  0
ARC
  5
DF59
  8
0
 10
1125.2507568082949092
 20
167.012145813265704
 30
0.0
 40
0.0020090267367453
 50
143.2110308648528871
 51
239.0497518721552979
  0
ARC
  5
DF5A
  8
0
 10
1125.2568197245750525
 20
167.0222560759252985
 30
0.0
 40
0.0137978504636828
 50
239.0497518721552979
 51
305.7461705207709883
  0
ARC
  5
DF5B
  8
0
 10
1125.3260360429760567
 20
166.9874139241227056
 30
0.0
 40
0.0098862130995679
 50
217.2031746662744922
 51
322.7852326167393926
  0
ARC
  5
DF5C
  8
0
 10
1125.3260348308929224
 20
166.9754327405618142
 30
0.0
 40
0.0099009428432357
 50
37.315292750370503
 51
142.6731145326448882
  0
ARC
  5
DF5D
  8
0
 10
1125.4150267243230701
 20
166.972916803773586
 30
0.0
 40
0.0098862130995679
 50
217.2031746662744922
 51
322.7852326167393926
  0
ARC
  5
DF5E
  8
0
 10
1125.4150255122399358
 20
166.9609356202126946
 30
0.0
 40
0.0099009428432357
 50
37.315292750370503
 51
142.6731145326448882
  0
ARC
  5
DF5F
  8
0
 10
1125.4728377542498947
 20
168.6545927879884061
 30
0.0
 40
1.708079417049247
 50
267.7980047914409738
 51
268.8393797513098775
  0
LINE
  5
DF60
  8
0
 10
1125.1214040545110038
 20
167.0865308585470927
 30
0.0
 11
1125.1356323437200899
 21
167.0911634177525968
 31
0.0
  0
LINE
  5
DF61
  8
0
 10
1125.1236400215659614
 20
167.0890478693200976
 30
0.0
 11
1125.1341751473580644
 21
167.0924779790655919
 31
0.0
  0
ARC
  5
DF62
  8
0
 10
1125.2083609032149525
 20
167.1842372460423007
 30
0.0
 40
0.1307976746495964
 50
196.0340558772855104
 51
228.3315182134548991
  0
ARC
  5
DF63
  8
0
 10
1125.2173407879099614
 20
167.1817788165859895
 30
0.0
 40
0.131828912589182
 50
201.6620331570638882
 51
224.7019496424335046
  0
LINE
  5
DF64
  8
0
 10
1125.1214040545110038
 20
167.0865308585470927
 30
0.0
 11
1125.1236400215659614
 21
167.0890478693200976
 31
0.0
  0
ARC
  5
DF65
  8
0
 10
1125.4072512050199748
 20
159.473000261727293
 30
0.0
 40
10.6047992216813896
 50
86.2060799040629746
 51
89.8325721243131738
  0
ARC
  5
DF66
  8
0
 10
1126.107541509856901
 20
170.034807844892498
 30
0.0
 40
0.0198013112897329
 50
0.2405865772319438
 51
85.9217331794738612
  0
LINE
  5
DF67
  8
0
 10
1126.1273426465800185
 20
168.8766557496599887
 30
0.0
 11
1126.1273426465800185
 21
170.0348909909070017
 31
0.0
  0
ARC
  5
DF68
  8
0
 10
1126.1074426465800116
 20
168.8766557496599887
 30
0.0
 40
0.0199
 50
270.0000092907810085
 51
0.0
  0
LINE
  5
DF69
  8
0
 10
1126.0287921716731034
 20
168.8567555453848001
 30
0.0
 11
1126.0287921723320324
 21
168.8134486822642089
 31
0.0
  0
LINE
  5
DF6A
  8
0
 10
1126.1273426465800185
 20
168.793548840053802
 30
0.0
 11
1126.1273426465800185
 21
165.1928852271643109
 31
0.0
  0
ARC
  5
DF6B
  8
0
 10
1126.1074426465800116
 20
168.793548840053802
 30
0.0
 40
0.0199
 50
0.0
 51
90.000006702988145
  0
ARC
  5
DF6C
  8
0
 10
1125.4361592786920028
 20
169.4801899194216048
 30
0.0
 40
0.149424787514562
 50
58.2454282937678371
 51
89.2020753748851547
  0
ARC
  5
DF6D
  8
0
 10
1125.4409629769938874
 20
169.4918422524351911
 30
0.0
 40
0.1370038953936565
 50
32.8781965544967676
 51
57.3890049940105698
  0
ARC
  5
DF6E
  8
0
 10
1125.4439901588600605
 20
169.4945595276568895
 30
0.0
 40
0.1329880354998229
 50
7.7300777335585451
 51
32.6030134696215015
  0
ARC
  5
DF6F
  8
0
 10
1124.2419541171930177
 20
169.4086372248951875
 30
0.0
 40
1.3378492151659069
 50
1.467193185200486
 51
4.450323807133004
  0
ARC
  5
DF70
  8
0
 10
1125.4349131738761116
 20
169.4058145630694128
 30
0.0
 40
0.1502705962439991
 50
271.2686313342284166
 51
302.1144336070784107
  0
ARC
  5
DF71
  8
0
 10
1125.4409629769938874
 20
169.3939422602933007
 30
0.0
 40
0.1370038953936565
 50
302.6109950059894231
 51
327.1218034455031898
  0
ARC
  5
DF72
  8
0
 10
1125.4439901588600605
 20
169.3912249850716023
 30
0.0
 40
0.1329880354998229
 50
327.3969865303785127
 51
352.2699222664414265
  0
ARC
  5
DF73
  8
0
 10
1124.7306144006111026
 20
169.4518903780727896
 30
0.0
 40
0.8487980134166948
 50
354.6898878931385752
 51
359.3925951145250224
  0
ARC
  5
DF74
  8
0
 10
1125.4345664980369293
 20
167.7077952867198007
 30
0.0
 40
0.46917300388074
 50
57.6077575613023285
 51
89.551364588375435
  0
ARC
  5
DF75
  8
0
 10
1125.4508874607920461
 20
167.7391385069801117
 30
0.0
 40
0.4339738661441097
 50
23.8035845246372908
 51
57.2104191415379475
  0
ARC
  5
DF76
  8
0
 10
1113.7036733777870268
 20
167.0825746582106035
 30
0.0
 40
12.1977871233858899
 50
2.3211589322093129
 51
3.3484456051657441
  0
ARC
  5
DF77
  8
0
 10
1125.4218881762581077
 20
167.7333948889450141
 30
0.0
 40
0.4628693786527235
 50
7.6515025568003079
 51
23.0052575967216306
  0
ARC
  5
DF78
  8
0
 10
1125.433350154379923
 20
167.4495223769781092
 30
0.0
 40
0.4733121466115624
 50
270.5919599092176782
 51
302.248846559275421
  0
ARC
  5
DF79
  8
0
 10
1125.4508874607920461
 20
167.4140507246858078
 30
0.0
 40
0.4339738661441097
 50
302.7895808584621022
 51
336.1964154753626985
  0
ARC
  5
DF7A
  8
0
 10
1118.2663255287070569
 20
167.8446855229495895
 30
0.0
 40
7.6298382007958372
 50
356.3440213854188983
 51
357.9863740772033225
  0
ARC
  5
DF7B
  8
0
 10
1125.4218881762581077
 20
167.4197943427207917
 30
0.0
 40
0.4628693786527235
 50
336.9947424032783942
 51
352.3484974431997898
  0
LINE
  5
DF7C
  8
0
 10
1126.4224921310660648
 20
165.0747946637202119
 30
0.0
 11
1126.4224921310660648
 21
165.1534852271643103
 31
0.0
  0
ARC
  5
DF7D
  8
0
 10
1126.3830921310659505
 20
165.1534852271643103
 30
0.0
 40
0.0394
 50
0.0000000000016284
 51
90.0
  0
ARC
  5
DF7E
  8
0
 10
1125.6142769868479263
 20
167.0938582730231872
 30
0.0
 40
0.0971515266939924
 50
321.5488056397779246
 51
341.700909417124592
  0
ARC
  5
DF7F
  8
0
 10
1125.5722702783989462
 20
167.1272135350920962
 30
0.0
 40
0.150790477676234
 50
299.2286391059462858
 51
321.5488056397779246
  0
ARC
  5
DF80
  8
0
 10
1125.4662772602639507
 20
167.3166433096781986
 30
0.0
 40
0.3678576548198886
 50
289.6588014425997244
 51
299.2286391059462858
  0
ARC
  5
DF81
  8
0
 10
1125.4722399612849131
 20
167.2999523247395075
 30
0.0
 40
0.3501335813125701
 50
276.9897836764394015
 51
289.6588014425997244
  0
ARC
  5
DF82
  8
0
 10
1125.3782025397460984
 20
168.066956278415006
 30
0.0
 40
1.122880694929588
 50
274.6519639580720877
 51
276.9897836764394015
  0
ARC
  5
DF83
  8
0
 10
1125.4036425708809475
 20
168.6545927879884061
 30
0.0
 40
1.708079417049247
 50
271.1606202486901225
 51
272.2019952085590262
  0
ARC
  5
DF84
  8
0
 10
1125.6228338948440069
 20
167.0099849673729864
 30
0.0
 40
0.0056172354655462
 50
36.7889691351458126
 51
94.9889870140902559
  0
ARC
  5
DF85
  8
0
 10
1125.625723516835933
 20
167.012145813265704
 30
0.0
 40
0.0020090267367453
 50
300.9502481278448158
 51
36.7889691351471129
  0
ARC
  5
DF86
  8
0
 10
1125.619660600556017
 20
167.0222560759252985
 30
0.0
 40
0.0137978504636828
 50
234.253829479228898
 51
300.9502481278448158
  0
ARC
  5
DF87
  8
0
 10
1125.5504442821550128
 20
166.9874139241227056
 30
0.0
 40
0.0098862130995679
 50
217.2147673832606074
 51
322.7968253337255078
  0
ARC
  5
DF88
  8
0
 10
1125.5504454942370103
 20
166.9754327405618142
 30
0.0
 40
0.0099009428432357
 50
37.3268854673551331
 51
142.684707249629497
  0
ARC
  5
DF89
  8
0
 10
1125.4614536008079995
 20
166.972916803773586
 30
0.0
 40
0.0098862130995679
 50
217.2147673832606074
 51
322.7968253337255078
  0
ARC
  5
DF8A
  8
0
 10
1125.4614548128909064
 20
166.9609356202126946
 30
0.0
 40
0.0099009428432357
 50
37.3268854673551331
 51
142.684707249629497
  0
ARC
  5
DF8B
  8
0
 10
1125.4036425708809475
 20
168.6545927879884061
 30
0.0
 40
1.708079417049247
 50
271.1606202486901225
 51
272.2019952085590262
  0
LINE
  5
DF8C
  8
0
 10
1125.7550762706200658
 20
167.0865308585470927
 30
0.0
 11
1125.7408479814109796
 21
167.0911634177525968
 31
0.0
  0
LINE
  5
DF8D
  8
0
 10
1125.7528403035660176
 20
167.0890478693200976
 30
0.0
 11
1125.7423051777730052
 21
167.0924779790655919
 31
0.0
  0
ARC
  5
DF8E
  8
0
 10
1125.6681194219158897
 20
167.1842372460423007
 30
0.0
 40
0.1307976746495964
 50
311.6684817865451009
 51
343.965944122714518
  0
ARC
  5
DF8F
  8
0
 10
1125.6591395372211082
 20
167.1817788165859895
 30
0.0
 40
0.131828912589182
 50
315.2980503575665239
 51
338.3379668429359981
  0
LINE
  5
DF90
  8
0
 10
1125.7550762706200658
 20
167.0865308585470927
 30
0.0
 11
1125.7528403035660176
 21
167.0890478693200976
 31
0.0
  0
ENDSEC
  0
EOF
