  0
SECTION
  2
HEADER
  9
$ACADVER
  1
AC1009
  9
$INSBASE
 10
4491.1845988919758383
 20
271.0950565366247247
 30
0.0
  9
$EXTMIN
 10
4487.461661022415683
 20
267.5899112331737797
 30
-0.0000000349181948
  9
$EXTMAX
 10
4494.9934813281470269
 20
274.5844350913869789
 30
0.0000000814935746
  9
$LIMMIN
 10
0.0
 20
0.0
  9
$LIMMAX
 10
11.6929133858000007
 20
8.2677165353999982
  9
$ORTHOMODE
 70
     0
  9
$REGENMODE
 70
     1
  9
$FILLMODE
 70
     1
  9
$QTEXTMODE
 70
     0
  9
$MIRRTEXT
 70
     0
  9
$DRAGMODE
 70
     2
  9
$LTSCALE
 40
0.6431102362
  9
$OSMODE
 70
   695
  9
$ATTMODE
 70
     1
  9
$TEXTSIZE
 40
0.2
  9
$TRACEWID
 40
0.05
  9
$TEXTSTYLE
  7
STANDARD
  9
$CLAYER
  8
0
  9
$CELTYPE
  6
BYLAYER
  9
$CECOLOR
 62
   256
  9
$DIMSCALE
 40
1.0
  9
$DIMASZ
 40
0.1875
  9
$DIMEXO
 40
0.0625
  9
$DIMDLI
 40
0.4443307087
  9
$DIMRND
 40
0.0
  9
$DIMDLE
 40
0.0
  9
$DIMEXE
 40
0.125
  9
$DIMTP
 40
0.01
  9
$DIMTM
 40
0.01
  9
$DIMTXT
 40
2.0
  9
$DIMCEN
 40
0.1052362205
  9
$DIMTSZ
 40
0.0
  9
$DIMTOL
 70
     1
  9
$DIMLIM
 70
     0
  9
$DIMTIH
 70
     1
  9
$DIMTOH
 70
     1
  9
$DIMSE1
 70
     0
  9
$DIMSE2
 70
     0
  9
$DIMTAD
 70
     0
  9
$DIMZIN
 70
     0
  9
$DIMBLK
  1

  9
$DIMASO
 70
     1
  9
$DIMSHO
 70
     1
  9
$DIMPOST
  1
\X
  9
$DIMAPOST
  1

  9
$DIMALT
 70
     1
  9
$DIMALTD
 70
     2
  9
$DIMALTF
 40
25.3999999999999986
  9
$DIMLFAC
 40
1.0
  9
$DIMTOFL
 70
     0
  9
$DIMTVP
 40
0.0
  9
$DIMTIX
 70
     0
  9
$DIMSOXD
 70
     0
  9
$DIMSAH
 70
     0
  9
$DIMBLK1
  1

  9
$DIMBLK2
  1

  9
$DIMSTYLE
  2
STANDARD
  9
$DIMCLRD
 70
     0
  9
$DIMCLRE
 70
     0
  9
$DIMCLRT
 70
     0
  9
$DIMTFAC
 40
1.0
  9
$DIMGAP
 40
0.09
  9
$LUNITS
 70
     2
  9
$LUPREC
 70
     4
  9
$SKETCHINC
 40
0.1
  9
$FILLETRAD
 40
0.0
  9
$AUNITS
 70
     0
  9
$AUPREC
 70
     0
  9
$MENU
  1
.
  9
$ELEVATION
 40
0.0
  9
$PELEVATION
 40
0.0
  9
$THICKNESS
 40
0.0
  9
$LIMCHECK
 70
     0
  9
$BLIPMODE
 70
     0
  9
$CHAMFERA
 40
0.0
  9
$CHAMFERB
 40
0.0
  9
$SKPOLY
 70
     0
  9
$TDCREATE
 40
2458060.468368056230247
  9
$TDUPDATE
 40
2459360.9713310189545155
  9
$TDINDWG
 40
0.5300880787
  9
$TDUSRTIMER
 40
0.5300880787
  9
$USRTIMER
 70
     1
  9
$ANGBASE
 50
0.0
  9
$ANGDIR
 70
     0
  9
$PDMODE
 70
     0
  9
$PDSIZE
 40
0.3125
  9
$PLINEWID
 40
0.0
  9
$COORDS
 70
     1
  9
$SPLFRAME
 70
     0
  9
$SPLINETYPE
 70
     6
  9
$SPLINESEGS
 70
     8
  9
$ATTDIA
 70
     1
  9
$ATTREQ
 70
     1
  9
$HANDLING
 70
     1
  9
$HANDSEED
  5
23C3A
  9
$SURFTAB1
 70
     6
  9
$SURFTAB2
 70
     6
  9
$SURFTYPE
 70
     6
  9
$SURFU
 70
     6
  9
$SURFV
 70
     6
  9
$UCSNAME
  2

  9
$UCSORG
 10
0.0
 20
0.0
 30
0.0
  9
$UCSXDIR
 10
1.0
 20
0.0
 30
0.0
  9
$UCSYDIR
 10
0.0
 20
1.0
 30
0.0
  9
$PUCSNAME
  2

  9
$PUCSORG
 10
0.0
 20
0.0
 30
0.0
  9
$PUCSXDIR
 10
1.0
 20
0.0
 30
0.0
  9
$PUCSYDIR
 10
0.0
 20
1.0
 30
0.0
  9
$USERI1
 70
     0
  9
$USERI2
 70
     0
  9
$USERI3
 70
     0
  9
$USERI4
 70
     0
  9
$USERI5
 70
     0
  9
$USERR1
 40
0.0
  9
$USERR2
 40
0.0
  9
$USERR3
 40
0.0
  9
$USERR4
 40
0.0
  9
$USERR5
 40
0.0
  9
$WORLDVIEW
 70
     1
  9
$SHADEDGE
 70
     3
  9
$SHADEDIF
 70
    70
  9
$TILEMODE
 70
     1
  9
$MAXACTVP
 70
    64
  9
$PLIMCHECK
 70
     0
  9
$PEXTMIN
 10
1.0000000000000000E+20
 20
1.0000000000000000E+20
 30
1.0000000000000000E+20
  9
$PEXTMAX
 10
-1.0000000000000000E+20
 20
-1.0000000000000000E+20
 30
-1.0000000000000000E+20
  9
$PLIMMIN
 10
0.0
 20
0.0
  9
$PLIMMAX
 10
12.0
 20
9.0
  9
$UNITMODE
 70
     0
  9
$VISRETAIN
 70
     1
  9
$PLINEGEN
 70
     0
  9
$PSLTSCALE
 70
     1
  0
ENDSEC
  0
SECTION
  2
TABLES
  0
TABLE
  2
VPORT
 70
     1
  0
VPORT
  2
*ACTIVE
 70
     0
 10
0.0
 20
0.0
 11
1.0
 21
1.0
 12
579.8622147215645555
 22
138.5075680589202989
 13
0.0
 23
0.0
 14
1.0
 24
1.0
 15
0.0
 25
0.0
 16
0.0
 26
0.0
 36
60.4960186965801583
 17
3911.3653564453120453
 27
132.5796051025390057
 37
0.0
 40
7.4805910711861676
 41
2.3198804185351261
 42
50.0
 43
0.0
 44
0.0
 50
0.0
 51
0.0
 71
     0
 72
   100
 73
     1
 74
     1
 75
     0
 76
     0
 77
     0
 78
     0
  0
ENDTAB
  0
TABLE
  2
LTYPE
 70
     2
  0
LTYPE
  2
CONTINUOUS
 70
     0
  3
Solid line
 72
    65
 73
     0
 40
0.0
  0
LTYPE
  2
PHANTOM2
 70
     0
  3
___ _ _ ___ _ _ ___ _ _ ___ _ _
 72
    65
 73
     6
 40
1.25
 49
0.625
 49
-0.125
 49
0.125
 49
-0.125
 49
0.125
 49
-0.125
  0
ENDTAB
  0
TABLE
  2
LAYER
 70
     2
  0
LAYER
  2
0
 70
     0
 62
   255
  6
CONTINUOUS
  0
LAYER
  2
DEFPOINTS
 70
     0
 62
     7
  6
CONTINUOUS
  0
ENDTAB
  0
TABLE
  2
STYLE
 70
     1
  0
STYLE
  2
STANDARD
 70
     0
 40
0.0
 41
0.8
 50
0.0
 71
     0
 42
0.2
  3
txt
  4

  0
ENDTAB
  0
TABLE
  2
VIEW
 70
     0
  0
ENDTAB
  0
TABLE
  2
UCS
 70
     0
  0
ENDTAB
  0
TABLE
  2
APPID
 70
    11
  0
APPID
  2
ACAD
 70
     0
  0
APPID
  2
ACAD_MLEADERVER
 70
     0
  0
APPID
  2
ACAD_EXEMPT_FROM_CAD_STANDARDS
 70
     0
  0
APPID
  2
ACAD_NAV_VCDISPLAY
 70
     0
  0
APPID
  2
ACAECLAYERSTANDARD
 70
     0
  0
APPID
  2
ACCMTRANSPARENCY
 70
     0
  0
APPID
  2
ACAD_DSTYLE_DIMJAG
 70
     0
  0
APPID
  2
ACAD_DSTYLE_DIMTALN
 70
     0
  0
APPID
  2
ACDBATTR
 70
     0
  0
APPID
  2
ACADANNOTATIVE
 70
     0
  0
APPID
  2
DCO15
 70
     0
  0
ENDTAB
  0
TABLE
  2
DIMSTYLE
 70
     1
  0
DIMSTYLE
  2
STANDARD
 70
     0
  3

  4

  5

  6

  7

 40
1.0
 41
0.1875
 42
0.0625
 43
0.38
 44
0.125
 45
0.0
 46
0.0
 47
0.01
 48
0.01
140
0.15625
141
0.09
142
0.0
143
25.3999999999999986
144
1.0
145
0.0
146
1.0
147
0.09
 71
     1
 72
     0
 73
     1
 74
     1
 75
     0
 76
     0
 77
     0
 78
     4
170
     0
171
     2
172
     0
173
     0
174
     0
175
     0
176
     0
177
     0
178
     0
  0
ENDTAB
  0
ENDSEC
  0
SECTION
  2
BLOCKS
  0
BLOCK
  8
0
  2
$MODEL_SPACE
 70
     0
 10
0.0
 20
0.0
 30
0.0
  3
$MODEL_SPACE
  1

  0
ENDBLK
  5
21
  8
0
  0
BLOCK
 67
     1
  8
0
  2
$PAPER_SPACE
 70
     0
 10
0.0
 20
0.0
 30
0.0
  3
$PAPER_SPACE
  1

  0
ENDBLK
  5
1D
 67
     1
  8
0
  0
ENDSEC
  0
SECTION
  2
ENTITIES
  0
ATTDEF
  5
20106
  8
DEFPOINTS
 10
4491.1850920889601184
 20
271.0939780515777784
 30
0.0
 40
0.001
  1
K-37310T-4
  3

  2
MODELNUMBER
 70
     0
1001
ACDBATTR
1070
     0
1070
     1
  0
ATTDEF
  5
20107
  8
DEFPOINTS
 10
4491.1849662793028983
 20
271.0923112111985915
 30
0.0
 40
0.001
  1
CUFF
  3

  2
TRADENAME
 70
     0
1001
ACDBATTR
1070
     0
1070
     1
  0
ATTDEF
  5
20108
  8
DEFPOINTS
 10
4491.1850920889601184
 20
271.0906447182443912
 30
0.0
 40
0.001
  1
VALVE TRIM
  3

  2
PRODUCT
 70
     0
1001
ACDBATTR
1070
     0
1070
     1
  0
LINE
  5
23A4F
  8
0
 10
4491.0436297369760723
 20
271.0330130371247037
 30
0.0
 11
4491.0436297545757043
 21
268.4590701844247178
 31
0.0
  0
LINE
  5
23A50
  8
0
 10
4491.4104305889768511
 20
271.1586478148246897
 30
0.0
 11
4491.4273412399070367
 21
271.1654742104855131
 31
0.0
  0
LINE
  5
23A51
  8
0
 10
4491.32556804687556
 20
268.4590696338246971
 30
0.0
 11
4491.32556804687556
 21
271.0330117427246819
 31
0.0
  0
CIRCLE
  5
23A52
  8
0
 10
4491.1845988919758383
 20
271.0950565366247247
 30
0.0
 40
3.4842519685000002
  0
ARC
  5
23A53
  8
0
 10
4491.1845988919758383
 20
272.0989935445246033
 30
0.0
 40
0.9712678781000001
 50
282.741739051086995
 51
257.2645784759203025
  0
ARC
  5
23A54
  8
0
 10
4490.88634849104983
 20
271.0178749609771103
 30
0.0
 40
0.1580080746969886
 50
5.4976952590028612
 51
68.399388984602453
  0
ARC
  5
23A55
  8
0
 10
4491.4901786958571392
 20
271.0133021063460887
 30
0.0
 40
0.1657864153793489
 50
118.7526423299236029
 51
173.1722016531136887
  0
CIRCLE
  5
23A56
  8
0
 10
4491.1845988919758383
 20
272.0989935445246033
 30
0.0
 40
0.964563214363765
  0
ARC
  5
23A57
  8
0
 10
4491.0527636068145512
 20
268.4584467425444814
 30
0.0
 40
0.009155104396407
 50
176.0952652659377975
 51
264.8552315702095825
  0
ARC
  5
23A58
  8
0
 10
4491.3161304805362306
 20
268.4587126253344991
 30
0.0
 40
0.0094443164656462
 50
276.677542089843314
 51
2.1663774696581868
  0
ARC
  5
23A59
  8
0
 10
4491.1845624121588116
 20
270.0493365171735149
 30
0.0
 40
1.605494811399091
 50
265.2617593111212955
 51
274.7399058540127044
  0
ARC
  5
23A5A
  8
0
 10
4491.1182707686966751
 20
4832.0370407157679438
 30
0.0
 40
4563.5877126764917193
 50
269.999167251363474
 51
270.0024979137597256
  0
ARC
  5
23A5C
  8
0
 10
4489.9149138521815985
 20
269.5399394552658237
 30
0.0
 40
0.8661417326941279
 50
349.987336414725803
 51
10.01269192191209
  0
ARC
  5
23A5D
  8
0
 10
4490.8841749064467876
 20
269.3688110038202126
 30
0.0
 40
0.1181102361701556
 50
169.9870116951072987
 51
208.8790681952760906
  0
ARC
  5
23A5E
  8
0
 10
4490.8841749060520669
 20
269.7110679067282035
 30
0.0
 40
0.1181102357813087
 50
151.1208230717220999
 51
190.0127805444016076
  0
ARC
  5
23A5F
  8
0
 10
4491.1944414116760527
 20
269.5399394552302965
 30
0.0
 40
0.5118110236
 50
284.8447778094466116
 51
75.15522219055336
  0
ARC
  5
23A60
  8
0
 10
4491.1944414116760527
 20
269.5399394552302965
 30
0.0
 40
0.5118110236
 50
107.1373183212542983
 51
252.8626824622548952
  0
ARC
  5
23A61
  8
0
 10
4491.1944414116760527
 20
269.5399394552302965
 30
0.0
 40
0.4822834646
 50
285.7765890598790861
 51
74.2234109401208855
  0
ARC
  5
23A62
  8
0
 10
4491.1944414116760527
 20
269.5399394552302965
 30
0.0
 40
0.4822834646
 50
108.2222242455252967
 51
251.7777765380081121
  0
ARC
  5
23A63
  8
0
 10
4491.1944414116760527
 20
269.5399394552302965
 30
0.0
 40
0.4724409449000001
 50
108.6156412311919013
 51
151.1209046440924055
  0
ARC
  5
23A64
  8
0
 10
4491.1944414116760527
 20
269.5399394552302965
 30
0.0
 40
0.4724409449000001
 50
208.8790681911114007
 51
251.3843595523719046
  0
ARC
  5
23A65
  8
0
 10
4491.1944414118252098
 20
269.5399394552729859
 30
0.0
 40
0.4724409447504403
 50
328.8790984716268895
 51
31.1208213928088391
  0
ARC
  5
23A66
  8
0
 10
4491.1944414116760527
 20
269.5399394552302965
 30
0.0
 40
0.4625981784000001
 50
157.8049556375117959
 51
202.195044366021591
  0
ARC
  5
23A67
  8
0
 10
4491.1944414116760527
 20
269.5399394552302965
 30
0.0
 40
0.4625981784000001
 50
37.8049556152337018
 51
73.5333692068533935
  0
ARC
  5
23A68
  8
0
 10
4491.1944414116760527
 20
269.5399394552302965
 30
0.0
 40
0.4625981784000001
 50
286.4666307931465781
 51
322.1950443924824867
  0
ARC
  5
23A69
  8
0
 10
4491.1944414116760527
 20
269.5399394552302965
 30
0.0
 40
0.433070572
 50
165.8316826065556029
 51
194.1683173902848978
  0
ARC
  5
23A6A
  8
0
 10
4491.1944414116760527
 20
269.5399394552302965
 30
0.0
 40
0.433070572
 50
287.624865161128298
 51
314.1683174392784963
  0
ARC
  5
23A6B
  8
0
 10
4491.1944414116760527
 20
269.5399394552302965
 30
0.0
 40
0.433070572
 50
45.8316825944199024
 51
72.3751348388717162
  0
ARC
  5
23A6C
  8
0
 10
4491.8342051911768067
 20
268.431836084330314
 30
0.0
 40
0.8661417323
 50
109.9873071434125933
 51
125.9617267813492987
  0
ARC
  5
23A6D
  8
0
 10
4491.4977762502330734
 20
269.7230739045439805
 30
0.0
 40
0.1181102366539192
 50
31.1204902181776113
 51
70.0127799473041534
  0
ARC
  5
23A6E
  8
0
 10
4491.4977762510561661
 20
269.3568050050295142
 30
0.0
 40
0.1181102354452525
 50
289.9872261615678894
 51
328.8791894373458149
  0
ARC
  5
23A6F
  8
0
 10
4491.8342051911768067
 20
270.6480428262303235
 30
0.0
 40
0.8661417323
 50
234.0382732186506871
 51
250.0126919947823865
  0
ENDSEC
  0
EOF
