  0
SECTION
  2
HEADER
  9
$ACADVER
  1
AC1009
  9
$INSBASE
 10
3585.7297552081749927
 20
229.988509060120208
 30
0.0
  9
$EXTMIN
 10
3582.8728134826001224
 20
226.3101986077701895
 30
0.0
  9
$EXTMAX
 10
3585.7424845854038722
 20
233.6638221103702051
 30
0.0
  9
$LIMMIN
 10
0.0
 20
0.0
  9
$LIMMAX
 10
11.6929133858000007
 20
8.2677165353999982
  9
$ORTHOMODE
 70
     0
  9
$REGENMODE
 70
     1
  9
$FILLMODE
 70
     1
  9
$QTEXTMODE
 70
     0
  9
$MIRRTEXT
 70
     0
  9
$DRAGMODE
 70
     2
  9
$LTSCALE
 40
0.6431102362
  9
$OSMODE
 70
  4095
  9
$ATTMODE
 70
     1
  9
$TEXTSIZE
 40
0.2
  9
$TRACEWID
 40
0.05
  9
$TEXTSTYLE
  7
STANDARD
  9
$CLAYER
  8
0
  9
$CELTYPE
  6
BYLAYER
  9
$CECOLOR
 62
   256
  9
$DIMSCALE
 40
1.0
  9
$DIMASZ
 40
0.1875
  9
$DIMEXO
 40
0.0625
  9
$DIMDLI
 40
0.4443307087
  9
$DIMRND
 40
0.0
  9
$DIMDLE
 40
0.0
  9
$DIMEXE
 40
0.125
  9
$DIMTP
 40
0.01
  9
$DIMTM
 40
0.01
  9
$DIMTXT
 40
2.0
  9
$DIMCEN
 40
0.1052362205
  9
$DIMTSZ
 40
0.0
  9
$DIMTOL
 70
     1
  9
$DIMLIM
 70
     0
  9
$DIMTIH
 70
     1
  9
$DIMTOH
 70
     1
  9
$DIMSE1
 70
     0
  9
$DIMSE2
 70
     0
  9
$DIMTAD
 70
     0
  9
$DIMZIN
 70
     0
  9
$DIMBLK
  1

  9
$DIMASO
 70
     1
  9
$DIMSHO
 70
     1
  9
$DIMPOST
  1
\X
  9
$DIMAPOST
  1

  9
$DIMALT
 70
     1
  9
$DIMALTD
 70
     2
  9
$DIMALTF
 40
25.3999999999999986
  9
$DIMLFAC
 40
1.0
  9
$DIMTOFL
 70
     0
  9
$DIMTVP
 40
0.0
  9
$DIMTIX
 70
     0
  9
$DIMSOXD
 70
     0
  9
$DIMSAH
 70
     0
  9
$DIMBLK1
  1

  9
$DIMBLK2
  1

  9
$DIMSTYLE
  2
STANDARD
  9
$DIMCLRD
 70
     0
  9
$DIMCLRE
 70
     0
  9
$DIMCLRT
 70
     0
  9
$DIMTFAC
 40
1.0
  9
$DIMGAP
 40
0.09
  9
$LUNITS
 70
     2
  9
$LUPREC
 70
     4
  9
$SKETCHINC
 40
0.1
  9
$FILLETRAD
 40
0.0
  9
$AUNITS
 70
     0
  9
$AUPREC
 70
     0
  9
$MENU
  1
.
  9
$ELEVATION
 40
0.0
  9
$PELEVATION
 40
0.0
  9
$THICKNESS
 40
0.0
  9
$LIMCHECK
 70
     0
  9
$BLIPMODE
 70
     0
  9
$CHAMFERA
 40
0.0
  9
$CHAMFERB
 40
0.0
  9
$SKPOLY
 70
     0
  9
$TDCREATE
 40
2458060.468368056230247
  9
$TDUPDATE
 40
2459067.4546412038616836
  9
$TDINDWG
 40
0.5421251157
  9
$TDUSRTIMER
 40
0.5421251157
  9
$USRTIMER
 70
     1
  9
$ANGBASE
 50
0.0
  9
$ANGDIR
 70
     0
  9
$PDMODE
 70
     0
  9
$PDSIZE
 40
0.3125
  9
$PLINEWID
 40
0.0
  9
$COORDS
 70
     1
  9
$SPLFRAME
 70
     0
  9
$SPLINETYPE
 70
     6
  9
$SPLINESEGS
 70
     8
  9
$ATTDIA
 70
     1
  9
$ATTREQ
 70
     1
  9
$HANDLING
 70
     1
  9
$HANDSEED
  5
AD87
  9
$SURFTAB1
 70
     6
  9
$SURFTAB2
 70
     6
  9
$SURFTYPE
 70
     6
  9
$SURFU
 70
     6
  9
$SURFV
 70
     6
  9
$UCSNAME
  2

  9
$UCSORG
 10
0.0
 20
0.0
 30
0.0
  9
$UCSXDIR
 10
1.0
 20
0.0
 30
0.0
  9
$UCSYDIR
 10
0.0
 20
1.0
 30
0.0
  9
$PUCSNAME
  2

  9
$PUCSORG
 10
0.0
 20
0.0
 30
0.0
  9
$PUCSXDIR
 10
1.0
 20
0.0
 30
0.0
  9
$PUCSYDIR
 10
0.0
 20
1.0
 30
0.0
  9
$USERI1
 70
     0
  9
$USERI2
 70
     0
  9
$USERI3
 70
     0
  9
$USERI4
 70
     0
  9
$USERI5
 70
     0
  9
$USERR1
 40
0.0
  9
$USERR2
 40
0.0
  9
$USERR3
 40
0.0
  9
$USERR4
 40
0.0
  9
$USERR5
 40
0.0
  9
$WORLDVIEW
 70
     1
  9
$SHADEDGE
 70
     3
  9
$SHADEDIF
 70
    70
  9
$TILEMODE
 70
     1
  9
$MAXACTVP
 70
    64
  9
$PLIMCHECK
 70
     0
  9
$PEXTMIN
 10
1.0000000000000000E+20
 20
1.0000000000000000E+20
 30
1.0000000000000000E+20
  9
$PEXTMAX
 10
-1.0000000000000000E+20
 20
-1.0000000000000000E+20
 30
-1.0000000000000000E+20
  9
$PLIMMIN
 10
0.0
 20
0.0
  9
$PLIMMAX
 10
12.0
 20
9.0
  9
$UNITMODE
 70
     0
  9
$VISRETAIN
 70
     1
  9
$PLINEGEN
 70
     0
  9
$PSLTSCALE
 70
     1
  0
ENDSEC
  0
SECTION
  2
TABLES
  0
TABLE
  2
VPORT
 70
     1
  0
VPORT
  2
*ACTIVE
 70
     0
 10
0.0
 20
0.0
 11
1.0
 21
1.0
 12
280.6145337996269973
 22
34.7254987831824167
 13
0.0
 23
0.0
 14
1.0
 24
1.0
 15
0.0
 25
0.0
 16
0.0
 26
0.0
 36
96.5995694866707311
 17
3303.693115234375
 27
195.2615115758877096
 37
0.0
 40
7.3996795996935134
 41
2.005224660397074
 42
50.0
 43
0.0
 44
0.0
 50
0.0
 51
0.0
 71
     0
 72
   100
 73
     1
 74
     1
 75
     0
 76
     0
 77
     0
 78
     0
  0
ENDTAB
  0
TABLE
  2
LTYPE
 70
     2
  0
LTYPE
  2
CONTINUOUS
 70
     0
  3
Solid line
 72
    65
 73
     0
 40
0.0
  0
LTYPE
  2
PHANTOM2
 70
     0
  3
___ _ _ ___ _ _ ___ _ _ ___ _ _
 72
    65
 73
     6
 40
1.25
 49
0.625
 49
-0.125
 49
0.125
 49
-0.125
 49
0.125
 49
-0.125
  0
ENDTAB
  0
TABLE
  2
LAYER
 70
     2
  0
LAYER
  2
0
 70
     0
 62
   255
  6
CONTINUOUS
  0
LAYER
  2
DEFPOINTS
 70
     0
 62
     7
  6
CONTINUOUS
  0
ENDTAB
  0
TABLE
  2
STYLE
 70
     1
  0
STYLE
  2
STANDARD
 70
     0
 40
0.0
 41
0.8
 50
0.0
 71
     0
 42
0.2
  3
txt
  4

  0
ENDTAB
  0
TABLE
  2
VIEW
 70
     0
  0
ENDTAB
  0
TABLE
  2
UCS
 70
     0
  0
ENDTAB
  0
TABLE
  2
APPID
 70
     9
  0
APPID
  2
ACAD
 70
     0
  0
APPID
  2
ACAD_MLEADERVER
 70
     0
  0
APPID
  2
ACAD_EXEMPT_FROM_CAD_STANDARDS
 70
     0
  0
APPID
  2
ACAD_NAV_VCDISPLAY
 70
     0
  0
APPID
  2
ACAECLAYERSTANDARD
 70
     0
  0
APPID
  2
ACCMTRANSPARENCY
 70
     0
  0
APPID
  2
ACAD_DSTYLE_DIMJAG
 70
     0
  0
APPID
  2
ACAD_DSTYLE_DIMTALN
 70
     0
  0
APPID
  2
ACDBATTR
 70
     0
  0
ENDTAB
  0
TABLE
  2
DIMSTYLE
 70
     1
  0
DIMSTYLE
  2
STANDARD
 70
     0
  3

  4

  5

  6

  7

 40
1.0
 41
0.1875
 42
0.0625
 43
0.38
 44
0.125
 45
0.0
 46
0.0
 47
0.01
 48
0.01
140
0.15625
141
0.09
142
0.0
143
25.3999999999999986
144
1.0
145
0.0
146
1.0
147
0.09
 71
     1
 72
     0
 73
     1
 74
     1
 75
     0
 76
     0
 77
     0
 78
     4
170
     0
171
     2
172
     0
173
     0
174
     0
175
     0
176
     0
177
     0
178
     0
  0
ENDTAB
  0
ENDSEC
  0
SECTION
  2
BLOCKS
  0
BLOCK
  8
0
  2
$MODEL_SPACE
 70
     0
 10
0.0
 20
0.0
 30
0.0
  3
$MODEL_SPACE
  1

  0
ENDBLK
  5
21
  8
0
  0
BLOCK
 67
     1
  8
0
  2
$PAPER_SPACE
 70
     0
 10
0.0
 20
0.0
 30
0.0
  3
$PAPER_SPACE
  1

  0
ENDBLK
  5
1D
 67
     1
  8
0
  0
ENDSEC
  0
SECTION
  2
ENTITIES
  0
ATTDEF
  5
A614
  8
DEFPOINTS
 10
3585.7318179187350324
 20
229.988372051988307
 30
0.0
 40
0.001
  1
K-37311IN-4FP
  3

  2
MODELNUMBER
 70
     0
1001
ACDBATTR
1070
     0
1070
     1
  0
ATTDEF
  5
A615
  8
DEFPOINTS
 10
3585.7318179187350324
 20
229.9867053853216134
 30
0.0
 40
0.001
  1
CUFF
  3

  2
TRADENAME
 70
     0
1001
ACDBATTR
1070
     0
1070
     1
  0
ATTDEF
  5
A616
  8
DEFPOINTS
 10
3585.7318179187350324
 20
229.9850387186550051
 30
0.0
 40
0.001
  1
VALVE TRIM
  3

  2
PRODUCT
 70
     0
1001
ACDBATTR
1070
     0
1070
     1
  0
LINE
  5
ABCC
  8
0
 10
3585.2605736281720965
 20
232.0011496022702033
 30
0.0
 11
3584.8951095388738395
 21
232.0011496022702033
 31
0.0
  0
ARC
  5
ABCD
  8
0
 10
3584.8951095388738395
 20
231.989338578670214
 30
0.0
 40
0.0118110236
 50
90.0
 51
180.0
  0
LINE
  5
ABCE
  8
0
 10
3584.8832985152748734
 20
231.989338578670214
 30
0.0
 11
3584.8832985152748734
 21
230.0838267676701889
 31
0.0
  0
ARC
  5
ABCF
  8
0
 10
3584.8951095388738395
 20
230.0838267676701889
 30
0.0
 40
0.0118110236
 50
180.0
 51
270.0
  0
LINE
  5
ABD0
  8
0
 10
3584.8951095388738395
 20
230.0720157440701996
 30
0.0
 11
3585.2524532565630579
 21
230.0720157440701996
 31
0.0
  0
LINE
  5
ABD1
  8
0
 10
3584.8832985152748734
 20
230.0917007833683954
 30
0.0
 11
3584.8425542312747893
 21
230.0924119775702081
 31
0.0
  0
ARC
  5
ABD2
  8
0
 10
3584.843928436663191
 20
230.1711401427610042
 30
0.0
 40
0.0787401577009052
 50
182.607759409889411
 51
268.9999998888301889
  0
LINE
  5
ABD3
  8
0
 10
3584.7652698209108166
 20
230.1675576013689977
 30
0.0
 11
3584.7652698209108166
 21
231.9056077449712916
 31
0.0
  0
ARC
  5
ABD4
  8
0
 10
3584.8439284364771993
 20
231.9020252038895933
 30
0.0
 40
0.0787401574874085
 50
90.9999999722488582
 51
177.3922408098721917
  0
LINE
  5
ABD5
  8
0
 10
3584.8425542312829748
 20
231.9807533688702961
 30
0.0
 11
3584.8832985151748289
 21
231.9814645629714107
 31
0.0
  0
ARC
  5
ABD6
  8
0
 10
3584.6866112053071447
 20
231.9091902861215999
 30
0.0
 40
0.0787401575842568
 50
273.4267758982173859
 51
357.3922347156623118
  0
ARC
  5
ABD7
  8
0
 10
3584.7430871782589747
 20
230.966036776286586
 30
0.0
 40
0.8661027281035124
 50
93.4267758982173433
 51
115.5429715777282951
  0
ARC
  5
ABD8
  8
0
 10
3584.686327586223797
 20
230.1638511558236075
 30
0.0
 40
0.079029198224836
 50
2.688193577425487
 51
89.9174699299867228
  0
LINE
  5
ABD9
  8
0
 10
3584.6864481214752232
 20
230.091700420770195
 30
0.0
 11
3584.6864481214897751
 21
231.0637147988169886
 31
0.0
  0
ARC
  5
ABDA
  8
0
 10
3584.6667636714851142
 20
231.0637147988173012
 30
0.0
 40
0.0196844500053963
 50
359.9999999990669153
 51
25.0003801593101898
  0
LINE
  5
ABDB
  8
0
 10
3584.6846037866112056
 20
231.0720339252318922
 30
0.0
 11
3584.25664389308713
 21
231.9897809805640065
 31
0.0
  0
ARC
  5
ABDC
  8
0
 10
3584.2387986288908905
 20
231.9814594530575107
 30
0.0
 40
0.0196901313923777
 50
25.0003801593131385
 51
89.9690128104420666
  0
LINE
  5
ABDD
  8
0
 10
3584.2388092778742248
 20
232.0011495815701892
 30
0.0
 11
3582.9253710674552167
 21
232.0011497664708884
 31
0.0
  0
ARC
  5
ABDE
  8
0
 10
3582.9254236276560732
 20
231.9814568676544013
 30
0.0
 40
0.0196929689577589
 50
90.1529216475119455
 51
176.0051922045007871
  0
ARC
  5
ABDF
  8
0
 10
3596.4702116592170569
 20
231.0365780988674089
 30
0.0
 40
13.5973981766168599
 50
176.009528694290907
 51
183.9904310879853995
  0
ARC
  5
ABE0
  8
0
 10
3582.9254224538099152
 20
230.0917088019380117
 30
0.0
 40
0.0196924571049984
 50
183.9947675777744109
 51
269.9879273868540963
  0
LINE
  5
ABE1
  8
0
 10
3582.9254183044740785
 20
230.0720163452702138
 30
0.0
 11
3583.2108519356379475
 21
230.0719562024482912
 31
0.0
  0
ARC
  5
ABE2
  8
0
 10
3583.1976531087138937
 20
229.9465501872604989
 30
0.0
 40
0.1260986822987181
 50
6.0365656166310853
 51
83.9918102450180868
  0
LINE
  5
ABE3
  8
0
 10
3583.323052571774042
 20
229.9598111201702011
 30
0.0
 11
3583.3230525718740864
 21
227.3968589073701878
 31
0.0
  0
ARC
  5
ABE4
  8
0
 10
3583.346559176160099
 20
227.3963504692601987
 30
0.0
 40
0.0235121022958681
 50
178.7609092390497096
 51
187.5974114914214965
  0
ARC
  5
ABE5
  8
0
 10
3583.3263645944612108
 20
227.3936568653575989
 30
0.0
 40
0.0031386727371464
 50
187.5974114914214965
 51
230.3105590942928131
  0
ARC
  5
ABE6
  8
0
 10
3583.3473786690110501
 20
227.4249964145629974
 30
0.0
 40
0.0408563245946858
 50
235.7086412265163915
 51
248.3021978719791889
  0
ARC
  5
ABE7
  8
0
 10
3583.510062277428915
 20
230.2044037113375907
 30
0.0
 40
2.8229728762673578
 50
266.3891664943623141
 51
273.610739809801089
  0
ARC
  5
ABE8
  8
0
 10
3583.6677371655309798
 20
227.4580865149382873
 30
0.0
 40
0.0738435413126311
 50
285.8054324147694842
 51
289.0124539071211984
  0
ARC
  5
ABE9
  8
0
 10
3583.6880496394819602
 20
227.3966558681023002
 30
0.0
 40
0.0091824309367857
 50
294.0613233675309743
 51
349.3350931203058281
  0
LINE
  5
ABEA
  8
0
 10
3583.6970734561491554
 20
227.3949565239121
 30
0.0
 11
3583.697071728373885
 21
227.6381513532701888
 31
0.0
  0
ARC
  5
ABEB
  8
0
 10
3584.7175407423528668
 20
228.178688140908605
 30
0.0
 40
1.1547887370779599
 50
196.2002906464850014
 51
207.9099211053041927
  0
ARC
  5
ABEC
  8
0
 10
3583.8945647799050676
 20
227.962241342123491
 30
0.0
 40
0.3048806439316031
 50
130.3746329407233873
 51
200.292115223052491
  0
LINE
  5
ABED
  8
0
 10
3583.6970683808031026
 20
228.1945070937651963
 30
0.0
 11
3583.6970708849421499
 21
229.9598139272061132
 31
0.0
  0
ARC
  5
ABEE
  8
0
 10
3583.8229457741999795
 20
229.9461409803269873
 30
0.0
 40
0.1266150145710909
 50
96.1986223612684768
 51
173.8018872054265103
  0
LINE
  5
ABEF
  8
0
 10
3583.8092744607752138
 20
230.0720157478702106
 30
0.0
 11
3584.6667630484739675
 21
230.0720154839702047
 31
0.0
  0
ARC
  5
ABF0
  8
0
 10
3584.6667555187977996
 20
230.0917078083056992
 30
0.0
 40
0.0196926040612065
 50
270.0219078999878093
 51
359.978505909463081
  0
LINE
  5
ABF1
  8
0
 10
3582.9057784894739598
 20
231.9828285706335862
 30
0.0
 11
3582.9057784894739598
 21
230.0903254606830899
 31
0.0
  0
LINE
  5
ABF2
  8
0
 10
3585.611641237574986
 20
226.3101986077701895
 30
0.0
 11
3585.3158975816331804
 21
226.3153608325395112
 31
0.0
  0
LINE
  5
ABF3
  8
0
 10
3585.7297552081749927
 20
226.3131960098702109
 30
0.0
 11
3585.7297552081749927
 21
233.6638221103702051
 31
0.0
  0
LINE
  5
ABF4
  8
0
 10
3585.7297552081749927
 20
233.6638221103702051
 30
0.0
 11
3585.3158988172949648
 21
233.6565982202328087
 31
0.0
  0
ARC
  5
ABF5
  8
0
 10
3585.315885125774912
 20
226.3547491792701862
 30
0.0
 40
0.0393883487
 50
180.26705319119759
 51
270.0181187618244962
  0
ARC
  5
ABF6
  8
0
 10
3585.3158849607739285
 20
233.6172098741701859
 30
0.0
 40
0.0393883485
 50
89.9798437815119883
 51
179.6806556462778133
  0
LINE
  5
ABF7
  8
0
 10
3585.7297552081749927
 20
226.3131960098702109
 30
0.0
 11
3585.611641237574986
 21
226.3146552063780064
 31
0.0
  0
LINE
  5
ABF8
  8
0
 10
3585.611641237574986
 20
226.3101986077701895
 30
0.0
 11
3585.611641237574986
 21
226.3146552063780064
 31
0.0
  0
ARC
  5
ABF9
  8
0
 10
3736.8936602694971043
 20
229.1940070588036065
 30
0.0
 40
151.6437488444236976
 50
179.6682588401957048
 51
181.072893023568497
  0
ARC
  5
ABFA
  8
0
 10
3845.845772861775913
 20
230.2420813927103893
 30
0.0
 40
260.5911364198379943
 50
179.2578465776350072
 51
179.6132333927220088
  0
ARC
  5
ABFB
  8
0
 10
3361.2926116268408805
 20
231.9793218729820126
 30
0.0
 40
223.9679630649876003
 50
359.5120645343832848
 51
0.0055839984851172
  0
LINE
  5
ABFC
  8
0
 10
3585.2765727244209302
 20
226.3523043657611993
 30
0.0
 11
3585.2761011911748028
 21
229.9859863545493965
 31
0.0
  0
LINE
  5
ABFD
  8
0
 10
3585.2761011911748028
 20
229.9859863545493965
 30
0.0
 11
3585.2768995388200892
 21
233.6228293823793081
 31
0.0
  0
ENDSEC
  0
EOF
