  0
SECTION
  2
HEADER
  9
$ACADVER
  1
AC1009
  9
$INSBASE
 10
4602.0859023093671567
 20
479.7614061177009148
 30
0.0
  9
$EXTMIN
 10
4593.1495830683015811
 20
479.7456663405251902
 30
-0.0000000000112498
  9
$EXTMAX
 10
4603.2523747733794153
 20
490.09595162675339
 30
0.0000000000002956
  9
$LIMMIN
 10
0.0
 20
0.0
  9
$LIMMAX
 10
11.6929133858000007
 20
8.2677165353999982
  9
$ORTHOMODE
 70
     0
  9
$REGENMODE
 70
     1
  9
$FILLMODE
 70
     1
  9
$QTEXTMODE
 70
     0
  9
$MIRRTEXT
 70
     0
  9
$DRAGMODE
 70
     2
  9
$LTSCALE
 40
0.6431102362
  9
$OSMODE
 70
     7
  9
$ATTMODE
 70
     1
  9
$TEXTSIZE
 40
0.2
  9
$TRACEWID
 40
0.05
  9
$TEXTSTYLE
  7
STANDARD
  9
$CLAYER
  8
0
  9
$CELTYPE
  6
BYLAYER
  9
$CECOLOR
 62
   256
  9
$DIMSCALE
 40
1.0
  9
$DIMASZ
 40
0.1875
  9
$DIMEXO
 40
0.0625
  9
$DIMDLI
 40
0.4443307087
  9
$DIMRND
 40
0.0
  9
$DIMDLE
 40
0.0
  9
$DIMEXE
 40
0.125
  9
$DIMTP
 40
0.01
  9
$DIMTM
 40
0.01
  9
$DIMTXT
 40
2.0
  9
$DIMCEN
 40
0.1052362205
  9
$DIMTSZ
 40
0.0
  9
$DIMTOL
 70
     1
  9
$DIMLIM
 70
     0
  9
$DIMTIH
 70
     1
  9
$DIMTOH
 70
     1
  9
$DIMSE1
 70
     0
  9
$DIMSE2
 70
     0
  9
$DIMTAD
 70
     0
  9
$DIMZIN
 70
     0
  9
$DIMBLK
  1

  9
$DIMASO
 70
     1
  9
$DIMSHO
 70
     1
  9
$DIMPOST
  1
\X
  9
$DIMAPOST
  1

  9
$DIMALT
 70
     1
  9
$DIMALTD
 70
     2
  9
$DIMALTF
 40
25.3999999999999986
  9
$DIMLFAC
 40
1.0
  9
$DIMTOFL
 70
     0
  9
$DIMTVP
 40
0.0
  9
$DIMTIX
 70
     0
  9
$DIMSOXD
 70
     0
  9
$DIMSAH
 70
     0
  9
$DIMBLK1
  1

  9
$DIMBLK2
  1

  9
$DIMSTYLE
  2
STANDARD
  9
$DIMCLRD
 70
     0
  9
$DIMCLRE
 70
     0
  9
$DIMCLRT
 70
     0
  9
$DIMTFAC
 40
1.0
  9
$DIMGAP
 40
0.09
  9
$LUNITS
 70
     2
  9
$LUPREC
 70
     4
  9
$SKETCHINC
 40
0.1
  9
$FILLETRAD
 40
0.0
  9
$AUNITS
 70
     0
  9
$AUPREC
 70
     0
  9
$MENU
  1
.
  9
$ELEVATION
 40
0.0
  9
$PELEVATION
 40
0.0
  9
$THICKNESS
 40
0.0
  9
$LIMCHECK
 70
     0
  9
$BLIPMODE
 70
     0
  9
$CHAMFERA
 40
0.0
  9
$CHAMFERB
 40
0.0
  9
$SKPOLY
 70
     0
  9
$TDCREATE
 40
2458060.468368056230247
  9
$TDUPDATE
 40
2459317.8527199071832001
  9
$TDINDWG
 40
1.4875316434999999
  9
$TDUSRTIMER
 40
1.4875316434999999
  9
$USRTIMER
 70
     1
  9
$ANGBASE
 50
0.0
  9
$ANGDIR
 70
     0
  9
$PDMODE
 70
     0
  9
$PDSIZE
 40
0.3125
  9
$PLINEWID
 40
0.0
  9
$COORDS
 70
     1
  9
$SPLFRAME
 70
     0
  9
$SPLINETYPE
 70
     6
  9
$SPLINESEGS
 70
     8
  9
$ATTDIA
 70
     1
  9
$ATTREQ
 70
     1
  9
$HANDLING
 70
     1
  9
$HANDSEED
  5
1CCF9
  9
$SURFTAB1
 70
     6
  9
$SURFTAB2
 70
     6
  9
$SURFTYPE
 70
     6
  9
$SURFU
 70
     6
  9
$SURFV
 70
     6
  9
$UCSNAME
  2

  9
$UCSORG
 10
0.0
 20
0.0
 30
0.0
  9
$UCSXDIR
 10
1.0
 20
0.0
 30
0.0
  9
$UCSYDIR
 10
0.0
 20
1.0
 30
0.0
  9
$PUCSNAME
  2

  9
$PUCSORG
 10
0.0
 20
0.0
 30
0.0
  9
$PUCSXDIR
 10
1.0
 20
0.0
 30
0.0
  9
$PUCSYDIR
 10
0.0
 20
1.0
 30
0.0
  9
$USERI1
 70
     0
  9
$USERI2
 70
     0
  9
$USERI3
 70
     0
  9
$USERI4
 70
     0
  9
$USERI5
 70
     0
  9
$USERR1
 40
0.0
  9
$USERR2
 40
0.0
  9
$USERR3
 40
0.0
  9
$USERR4
 40
0.0
  9
$USERR5
 40
0.0
  9
$WORLDVIEW
 70
     1
  9
$SHADEDGE
 70
     3
  9
$SHADEDIF
 70
    70
  9
$TILEMODE
 70
     1
  9
$MAXACTVP
 70
    64
  9
$PLIMCHECK
 70
     0
  9
$PEXTMIN
 10
1.0000000000000000E+20
 20
1.0000000000000000E+20
 30
1.0000000000000000E+20
  9
$PEXTMAX
 10
-1.0000000000000000E+20
 20
-1.0000000000000000E+20
 30
-1.0000000000000000E+20
  9
$PLIMMIN
 10
0.0
 20
0.0
  9
$PLIMMAX
 10
12.0
 20
9.0
  9
$UNITMODE
 70
     0
  9
$VISRETAIN
 70
     1
  9
$PLINEGEN
 70
     0
  9
$PSLTSCALE
 70
     1
  0
ENDSEC
  0
SECTION
  2
TABLES
  0
TABLE
  2
VPORT
 70
     1
  0
VPORT
  2
*ACTIVE
 70
     0
 10
0.0
 20
0.0
 11
1.0
 21
1.0
 12
686.8356224755279982
 22
352.3412038811002844
 13
0.0
 23
0.0
 14
1.0
 24
1.0
 15
0.0
 25
0.0
 16
0.0
 26
0.0
 36
60.4960186965801583
 17
3911.3653564453120453
 27
132.5796051025390057
 37
0.0
 40
10.4368875087085904
 41
2.448010269576379
 42
50.0
 43
0.0
 44
0.0
 50
0.0
 51
0.0
 71
     0
 72
   100
 73
     1
 74
     1
 75
     0
 76
     0
 77
     0
 78
     0
  0
ENDTAB
  0
TABLE
  2
LTYPE
 70
     2
  0
LTYPE
  2
CONTINUOUS
 70
     0
  3
Solid line
 72
    65
 73
     0
 40
0.0
  0
LTYPE
  2
PHANTOM2
 70
     0
  3
___ _ _ ___ _ _ ___ _ _ ___ _ _
 72
    65
 73
     6
 40
1.25
 49
0.625
 49
-0.125
 49
0.125
 49
-0.125
 49
0.125
 49
-0.125
  0
ENDTAB
  0
TABLE
  2
LAYER
 70
     2
  0
LAYER
  2
0
 70
     0
 62
   255
  6
CONTINUOUS
  0
LAYER
  2
DEFPOINTS
 70
     0
 62
     7
  6
CONTINUOUS
  0
ENDTAB
  0
TABLE
  2
STYLE
 70
     1
  0
STYLE
  2
STANDARD
 70
     0
 40
0.0
 41
0.8
 50
0.0
 71
     0
 42
0.2
  3
txt
  4

  0
ENDTAB
  0
TABLE
  2
VIEW
 70
     0
  0
ENDTAB
  0
TABLE
  2
UCS
 70
     0
  0
ENDTAB
  0
TABLE
  2
APPID
 70
    11
  0
APPID
  2
ACAD
 70
     0
  0
APPID
  2
ACAD_MLEADERVER
 70
     0
  0
APPID
  2
ACAD_EXEMPT_FROM_CAD_STANDARDS
 70
     0
  0
APPID
  2
ACAD_NAV_VCDISPLAY
 70
     0
  0
APPID
  2
ACAECLAYERSTANDARD
 70
     0
  0
APPID
  2
ACCMTRANSPARENCY
 70
     0
  0
APPID
  2
ACAD_DSTYLE_DIMJAG
 70
     0
  0
APPID
  2
ACAD_DSTYLE_DIMTALN
 70
     0
  0
APPID
  2
ACDBATTR
 70
     0
  0
APPID
  2
ACADANNOTATIVE
 70
     0
  0
APPID
  2
DCO15
 70
     0
  0
ENDTAB
  0
TABLE
  2
DIMSTYLE
 70
     1
  0
DIMSTYLE
  2
STANDARD
 70
     0
  3

  4

  5

  6

  7

 40
1.0
 41
0.1875
 42
0.0625
 43
0.38
 44
0.125
 45
0.0
 46
0.0
 47
0.01
 48
0.01
140
0.15625
141
0.09
142
0.0
143
25.3999999999999986
144
1.0
145
0.0
146
1.0
147
0.09
 71
     1
 72
     0
 73
     1
 74
     1
 75
     0
 76
     0
 77
     0
 78
     4
170
     0
171
     2
172
     0
173
     0
174
     0
175
     0
176
     0
177
     0
178
     0
  0
ENDTAB
  0
ENDSEC
  0
SECTION
  2
BLOCKS
  0
BLOCK
  8
0
  2
$MODEL_SPACE
 70
     0
 10
0.0
 20
0.0
 30
0.0
  3
$MODEL_SPACE
  1

  0
ENDBLK
  5
21
  8
0
  0
BLOCK
 67
     1
  8
0
  2
$PAPER_SPACE
 70
     0
 10
0.0
 20
0.0
 30
0.0
  3
$PAPER_SPACE
  1

  0
ENDBLK
  5
1D
 67
     1
  8
0
  0
ENDSEC
  0
SECTION
  2
ENTITIES
  0
ATTDEF
  5
159BF
  8
DEFPOINTS
 10
4602.0858995976923325
 20
479.7647421134648198
 30
0.0
 40
0.001
  1
K-37312IN-4
  3

  2
MODELNUMBER
 70
     0
1001
ACDBATTR
1070
     0
1070
     1
  0
ATTDEF
  5
159C0
  8
DEFPOINTS
 10
4602.0858995976923325
 20
479.7630752730855761
 30
0.0
 40
0.001
  1
CUFF
  3

  2
TRADENAME
 70
     0
1001
ACDBATTR
1070
     0
1070
     1
  0
ATTDEF
  5
159C1
  8
DEFPOINTS
 10
4602.0858995976923325
 20
479.7614087801313758
 30
0.0
 40
0.001
  1
BATH AND SHOWER FAUCET
  3

  2
PRODUCT
 70
     0
1001
ACDBATTR
1070
     0
1070
     1
  0
LINE
  5
1C9EF
  8
0
 10
4603.0898393172674332
 20
479.7614061177009148
 30
0.0
 11
4601.0819653014659707
 21
479.7614061177009148
 31
0.0
  0
LINE
  5
1C9F0
  8
0
 10
4601.0937678252648766
 20
480.2338470626008871
 30
0.0
 11
4603.0780367938114068
 21
480.2338470626008871
 31
0.0
  0
LINE
  5
1C9F1
  8
0
 10
4602.7355086085663061
 20
482.0896423382008038
 30
0.0
 11
4602.9932487660671541
 21
482.0896423382008038
 31
0.0
  0
LINE
  5
1C9F2
  8
0
 10
4602.6331606987014311
 20
480.3519572988009259
 30
0.0
 11
4601.5386439200256063
 21
480.3519572988009259
 31
0.0
  0
LINE
  5
1C9F3
  8
0
 10
4602.5386582148667003
 20
480.4700675350009078
 30
0.0
 11
4601.6331464038657941
 21
480.4700675350009078
 31
0.0
  0
LINE
  5
1C9F4
  8
0
 10
4602.5386582148667003
 20
480.5094376138009125
 30
0.0
 11
4601.6331464038657941
 21
480.5094376138009125
 31
0.0
  0
LINE
  5
1C9F5
  8
0
 10
4600.2551937304406238
 20
490.0566817083009141
 30
0.0
 11
4596.1803904986081761
 21
490.0566817083009141
 31
0.0
  0
ARC
  5
1C9F6
  8
0
 10
4596.1803904986081761
 20
487.5763667473722194
 30
0.0
 40
2.4803149609286801
 50
90.0000000055757994
 51
164.9999999955184933
  0
LINE
  5
1C9F7
  8
0
 10
4593.7845902205672246
 20
488.2183194973007971
 30
0.0
 11
4593.3566217207671798
 21
486.621119312100916
 31
0.0
  0
LINE
  5
1C9F8
  8
0
 10
4593.3566217207671798
 20
486.621119312100916
 30
0.0
 11
4594.6115647234673816
 21
486.284858348000796
 31
0.0
  0
LINE
  5
1C9F9
  8
0
 10
4593.4707074482794269
 20
486.590550133547822
 30
0.0
 11
4593.4629632563674022
 21
486.5616484159008905
 31
0.0
  0
LINE
  5
1C9FA
  8
0
 10
4593.3648348989672741
 20
486.5757141586008743
 30
0.0
 11
4594.581749325767305
 21
486.2496429207009214
 31
0.0
  0
LINE
  5
1C9FB
  8
0
 10
4593.3407257479666441
 20
486.5617947338008094
 30
0.0
 11
4593.326491337967127
 21
486.5086711926009002
 31
0.0
  0
LINE
  5
1C9FC
  8
0
 10
4593.2173988543672749
 20
486.1015325011009054
 30
0.0
 11
4593.2031644444659833
 21
486.0484089600008133
 31
0.0
  0
LINE
  5
1C9FD
  8
0
 10
4593.2170838692682082
 20
486.0242998090009223
 30
0.0
 11
4594.4339982960664202
 21
485.6982285710528799
 31
0.0
  0
LINE
  5
1C9FE
  8
0
 10
4593.3320603645661322
 20
486.4714079654007719
 30
0.0
 11
4593.3707193122672834
 21
486.4095407165008851
 31
0.0
  0
LINE
  5
1C9FF
  8
0
 10
4593.2408533865673235
 20
486.1310188892009023
 30
0.0
 11
4593.305266641767048
 21
486.1652680246008913
 31
0.0
  0
ARC
  5
1CA00
  8
0
 10
4593.2631036344509994
 20
486.0892487601087737
 30
0.0
 40
0.0473267072091151
 50
118.0434803047051986
 51
164.9565195704336134
  0
ARC
  5
1CA01
  8
0
 10
4593.2221787322287128
 20
486.0433140968215753
 30
0.0
 40
0.0196850392414942
 50
164.9999996385259919
 51
255.0000002909505952
  0
LINE
  5
1CA02
  8
0
 10
4593.3818573655662476
 20
486.335014262100799
 30
0.0
 11
4593.3521757059670563
 21
486.2242408007007839
 31
0.0
  0
ARC
  5
1CA03
  8
0
 10
4593.2609071240813137
 20
486.2486961434871091
 30
0.0
 40
0.0944881888396447
 50
298.0000000042866191
 51
345.0000000142420049
  0
ARC
  5
1CA04
  8
0
 10
4593.290588784461761
 20
486.3594696050000721
 30
0.0
 40
0.0944881881142464
 50
344.9999998254294269
 51
32.0000002691942171
  0
ARC
  5
1CA05
  8
0
 10
4593.3722147097596462
 20
486.4964568343781934
 30
0.0
 40
0.0473267078398811
 50
165.0434807167908957
 51
211.9565192274438914
  0
ARC
  5
1CA06
  8
0
 10
4593.3597400357866718
 20
486.5566998708382016
 30
0.0
 40
0.0196850392414854
 50
74.9999996384956233
 51
165.0000002909677903
  0
ARC
  5
1CA07
  8
0
 10
4593.45155468367102
 20
486.5647053337712009
 30
0.0
 40
0.0118110235724592
 50
254.9999999446557979
 51
344.9999998607211182
  0
LINE
  5
1CA08
  8
0
 10
4593.7292337794669947
 20
486.2419350325009191
 30
0.0
 11
4593.6995521199669383
 21
486.131161571100904
 31
0.0
  0
LINE
  5
1CA09
  8
0
 10
4593.3320603645661322
 20
486.4714079654007719
 30
0.0
 11
4593.3649746665669227
 21
486.4377874571009102
 31
0.0
  0
ARC
  5
1CA0A
  8
0
 10
4593.5822574013072881
 20
486.6612480250577164
 30
0.0
 40
0.3116831921161751
 50
225.8030538162834091
 51
237.8850779565393054
  0
ARC
  5
1CA0B
  8
0
 10
4596.2389953987758417
 20
491.6866064926213085
 30
0.0
 40
5.9952773659277421
 50
241.9152974638413127
 51
245.252311239880612
  0
LINE
  5
1CA0C
  8
0
 10
4593.286168345565784
 20
486.1436780006009144
 30
0.0
 11
4593.2408533865673235
 21
486.1310188892009023
 31
0.0
  0
ARC
  5
1CA0D
  8
0
 10
4593.362626902615375
 20
485.8414292627361988
 30
0.0
 40
0.3117694829304827
 50
92.1173210729577647
 51
104.1960570506375063
  0
ARC
  5
1CA0E
  8
0
 10
4593.1518212088440123
 20
480.1786853505503245
 30
0.0
 40
5.9776234664972634
 50
84.7426010075395055
 51
88.0894703366227247
  0
LINE
  5
1CA0F
  8
0
 10
4594.6115647234673816
 20
486.284858348000796
 30
0.0
 11
4595.0395332231673819
 21
487.8820585332007909
 31
0.0
  0
LINE
  5
1CA10
  8
0
 10
4596.18039049836716
 20
488.7574691098008088
 30
0.0
 11
4600.2551936479658252
 21
488.7574691098008088
 31
0.0
  0
ARC
  5
1CA11
  8
0
 10
4596.1803904984235487
 20
487.5763667474312228
 30
0.0
 40
1.1811023623696919
 50
90.000000002813934
 51
164.9999999913216868
  0
LINE
  5
1CA12
  8
0
 10
4594.4974789959806003
 20
486.3154275264616899
 30
0.0
 11
4594.489734804080399
 21
486.2865258088111204
 31
0.0
  0
LINE
  5
1CA13
  8
0
 10
4594.5956687505931768
 20
486.2255337696163906
 30
0.0
 11
4594.5814343406536864
 21
486.1724102283999969
 31
0.0
  0
LINE
  5
1CA14
  8
0
 10
4594.4723418570138165
 20
485.7652715369109728
 30
0.0
 11
4594.4581074470388558
 21
485.7121479958311738
 31
0.0
  0
LINE
  5
1CA15
  8
0
 10
4594.5579798085400398
 20
486.1429238403206909
 30
0.0
 11
4594.4935665532948406
 21
486.1086747049690757
 31
0.0
  0
LINE
  5
1CA16
  8
0
 10
4594.4667728303493277
 20
485.8025347641722078
 30
0.0
 11
4594.4281138827127506
 21
485.8644020130910235
 31
0.0
  0
ARC
  5
1CA17
  8
0
 10
4594.4266184858934139
 20
485.7774858952058139
 30
0.0
 40
0.0473267072091151
 50
345.0434804224485106
 51
31.9565196881486315
  0
ARC
  5
1CA18
  8
0
 10
4594.4390931592115521
 20
485.71724285877292
 30
0.0
 40
0.0196850392414942
 50
254.9999997018879867
 51
345.0000003543593721
  0
LINE
  5
1CA19
  8
0
 10
4594.4466574889811454
 20
486.0497019288604861
 30
0.0
 11
4594.4169758295065549
 21
485.938928467426706
 31
0.0
  0
ARC
  5
1CA1A
  8
0
 10
4594.5082444113777456
 20
485.9144731245837079
 30
0.0
 40
0.0944881888396447
 50
164.9999999786402896
 51
211.9999999886165938
  0
ARC
  5
1CA1B
  8
0
 10
4594.5379260702311512
 20
486.025246586506114
 30
0.0
 40
0.0944881881142464
 50
117.9999997236636062
 51
165.000000167455994
  0
ARC
  5
1CA1C
  8
0
 10
4594.5357295600251746
 20
486.1846939697906009
 30
0.0
 40
0.0473267078398769
 50
298.0434807654606857
 51
344.956519276086226
  0
ARC
  5
1CA1D
  8
0
 10
4594.5766544628249903
 20
486.2306286327745966
 30
0.0
 40
0.0196850392414854
 50
344.9999997019010038
 51
75.0000003543933644
  0
ARC
  5
1CA1E
  8
0
 10
4594.5011433767922426
 20
486.2834688909948113
 30
0.0
 40
0.0118110235724592
 50
165.0000001321477043
 51
255.0000000481828124
  0
LINE
  5
1CA1F
  8
0
 10
4594.0992810750785793
 20
486.1427811584554775
 30
0.0
 11
4594.0695994155194057
 21
486.0320076970714922
 31
0.0
  0
LINE
  5
1CA20
  8
0
 10
4594.5579798085400398
 20
486.1429238403206909
 30
0.0
 11
4594.5126649327094128
 21
486.1302647770505132
 31
0.0
  0
ARC
  5
1CA21
  8
0
 10
4594.4362130151876045
 20
486.4324784429683746
 30
0.0
 40
0.3117338537282688
 50
272.1176376619839061
 51
284.1964548421112795
  0
ARC
  5
1CA22
  8
0
 10
4594.6481071237512879
 20
492.1129846207442142
 30
0.0
 40
5.9953765030085187
 50
264.7477025491145923
 51
268.0847262135787901
  0
LINE
  5
1CA23
  8
0
 10
4594.4338584803881531
 20
485.8361553557379011
 30
0.0
 11
4594.4667728303493277
 21
485.8025347641722078
 31
0.0
  0
ARC
  5
1CA24
  8
0
 10
4594.216519058686572
 20
485.6126295490366829
 30
0.0
 40
0.3117694829304827
 50
45.8039429422327089
 51
57.8826789199304415
  0
ARC
  5
1CA25
  8
0
 10
4591.5677101880401096
 20
480.6031466194016275
 30
0.0
 40
5.9776234664972634
 50
61.9105296562340612
 51
65.2573989853642757
  0
LINE
  5
1CA26
  8
0
 10
4602.7355086085663061
 20
487.5763667475300736
 30
0.0
 11
4602.7355086085663061
 21
480.2338470626008871
 31
0.0
  0
LINE
  5
1CA27
  8
0
 10
4601.4362960101670978
 20
487.5763667476007868
 30
0.0
 11
4601.4362960101670978
 21
482.1373883343007947
 31
0.0
  0
LINE
  5
1CA28
  8
0
 10
4601.4362960101670978
 20
480.7906561434315904
 30
0.0
 11
4601.4362960101670978
 21
480.2338470626008871
 31
0.0
  0
ARC
  5
1CA29
  8
0
 10
4600.2551936477957497
 20
487.5763667475300736
 30
0.0
 40
2.4803149607707189
 50
0.0000000016349578
 51
89.9999980908904291
  0
ARC
  5
1CA2A
  8
0
 10
4600.2551936479658252
 20
487.5763667476007868
 30
0.0
 40
1.1811023621999901
 50
0.0
 51
90.0
  0
LINE
  5
1CA2B
  8
0
 10
4601.0819653014659707
 20
479.7614061177009148
 30
0.0
 11
4601.0819653014659707
 21
480.2220360390007841
 31
0.0
  0
LINE
  5
1CA2C
  8
0
 10
4603.0898393172674332
 20
479.7614061177009148
 30
0.0
 11
4603.0898393172674332
 21
480.2220360390007841
 31
0.0
  0
ARC
  5
1CA2D
  8
0
 10
4601.0937763304646069
 20
480.2220360366646901
 30
0.0
 40
0.0118110289984233
 50
89.9587409194785721
 51
179.9999886674985987
  0
ARC
  5
1CA2E
  8
0
 10
4603.0780282884388726
 20
480.2220360368353909
 30
0.0
 40
0.0118110288279285
 50
0.0000105048219024
 51
89.9587400917598075
  0
LINE
  5
1CA2F
  8
0
 10
4601.4992881361658874
 20
480.2338470626008871
 30
0.0
 11
4601.4992881361658874
 21
480.3125872201007951
 31
0.0
  0
ARC
  5
1CA30
  8
0
 10
4601.5386582192995775
 20
480.3125872182645821
 30
0.0
 40
0.0393700831329403
 50
90.020809913599777
 51
179.9999973277820118
  0
LINE
  5
1CA31
  8
0
 10
4601.6331464038657941
 20
480.4700675350009078
 30
0.0
 11
4601.6393362990684182
 21
480.3519572988009259
 31
0.0
  0
LINE
  5
1CA32
  8
0
 10
4601.6734023093667929
 20
480.5094376138009125
 30
0.0
 11
4601.6734023093667929
 21
480.4700675350009078
 31
0.0
  0
LINE
  5
1CA33
  8
0
 10
4601.6331464038657941
 20
480.5094376138009125
 30
0.0
 11
4601.6331464038657941
 21
480.6355640242009031
 31
0.0
  0
LINE
  5
1CA34
  8
0
 10
4601.6331464038657941
 20
480.6355640242009031
 30
0.0
 11
4602.2734399458668122
 21
481.2758575663008855
 31
0.0
  0
ARC
  5
1CA35
  8
0
 10
4602.0859023090997653
 20
480.8637683223223007
 30
0.0
 40
0.4527559057670759
 50
0.0000000099367653
 51
65.5301994579245815
  0
LINE
  5
1CA36
  8
0
 10
4602.5386582148667003
 20
480.8637683224008015
 30
0.0
 11
4602.5386582148667003
 21
480.5094376138009125
 31
0.0
  0
LINE
  5
1CA37
  8
0
 10
4602.498402309366611
 20
480.5094376138009125
 30
0.0
 11
4602.498402309366611
 21
480.4700675350009078
 31
0.0
  0
LINE
  5
1CA38
  8
0
 10
4602.5386582148667003
 20
480.4700675350009078
 30
0.0
 11
4602.5324683196668047
 21
480.3519572988009259
 31
0.0
  0
ARC
  5
1CA39
  8
0
 10
4602.633146399432917
 20
480.3125872182645821
 30
0.0
 40
0.0393700831329512
 50
0.0000026722244887
 51
89.9791900954673878
  0
LINE
  5
1CA3A
  8
0
 10
4602.672516482566607
 20
480.3125872201007951
 30
0.0
 11
4602.672516482566607
 21
480.2338470626008871
 31
0.0
  0
LINE
  5
1CA3B
  8
0
 10
4602.1620845472671135
 20
481.3872129649008116
 30
0.0
 11
4602.2177622465660534
 21
481.3315352656009054
 31
0.0
  0
LINE
  5
1CA3C
  8
0
 10
4602.2177622465660534
 20
481.3315352656009054
 30
0.0
 11
4602.2177509342682242
 21
481.2758462539009088
 31
0.0
  0
LINE
  5
1CA3D
  8
0
 10
4602.2177509342682242
 20
481.2758462539009088
 30
0.0
 11
4601.6331577161672612
 21
480.691253035900786
 31
0.0
  0
LINE
  5
1CA3E
  8
0
 10
4601.6331577161672612
 20
480.691253035900786
 30
0.0
 11
4601.5774687045668543
 21
480.6912417235008093
 31
0.0
  0
LINE
  5
1CA3F
  8
0
 10
4601.5774687045668543
 20
480.6912417235008093
 30
0.0
 11
4601.5217910052670049
 21
480.746919422800886
 31
0.0
  0
LINE
  5
1CA40
  8
0
 10
4601.5217910052670049
 20
480.746919422800886
 30
0.0
 11
4602.1620845472671135
 21
481.3872129649008116
 31
0.0
  0
LINE
  5
1CA41
  8
0
 10
4602.2177622465660534
 20
481.3315352656009054
 30
0.0
 11
4601.5774687045668543
 21
480.6912417235008093
 31
0.0
  0
LINE
  5
1CA42
  8
0
 10
4601.7027435279669589
 20
480.7608388477008248
 30
0.0
 11
4601.7305823776659963
 21
480.7329999980008779
 31
0.0
  0
LINE
  5
1CA43
  8
0
 10
4602.1481651224667075
 20
481.2062604421008132
 30
0.0
 11
4602.176003972068429
 21
481.178421592500797
 31
0.0
  0
LINE
  5
1CA44
  8
0
 10
4602.1620845472671135
 20
481.3872129649008116
 30
0.0
 11
4602.1709091089660433
 21
481.420146677600826
 31
0.0
  0
LINE
  5
1CA45
  8
0
 10
4602.1709091089660433
 20
481.420146677600826
 30
0.0
 11
4602.0001463124672227
 21
481.5909094742008847
 31
0.0
  0
LINE
  5
1CA46
  8
0
 10
4602.0001463124672227
 20
481.5909094742008847
 30
0.0
 11
4601.9672125996657996
 21
481.5820849124007736
 31
0.0
  0
LINE
  5
1CA47
  8
0
 10
4601.9672125996657996
 20
481.5820849124007736
 30
0.0
 11
4601.3269190576684196
 21
480.9417913704008924
 31
0.0
  0
LINE
  5
1CA48
  8
0
 10
4601.3269190576684196
 20
480.9417913704008924
 30
0.0
 11
4601.3180944959667613
 21
480.908857657700878
 31
0.0
  0
LINE
  5
1CA49
  8
0
 10
4601.3180944959667613
 20
480.908857657700878
 30
0.0
 11
4601.4888572924674008
 21
480.7380948611008193
 31
0.0
  0
LINE
  5
1CA4A
  8
0
 10
4601.4888572924674008
 20
480.7380948611008193
 30
0.0
 11
4601.5217910052670049
 21
480.746919422800886
 31
0.0
  0
LINE
  5
1CA4B
  8
0
 10
4601.4888572924674008
 20
480.7380948611008193
 30
0.0
 11
4601.493881229966064
 21
480.743118798500916
 31
0.0
  0
LINE
  5
1CA4C
  8
0
 10
4601.493881229966064
 20
480.743118798500916
 30
0.0
 11
4601.3231184333662895
 21
480.9138815951008041
 31
0.0
  0
LINE
  5
1CA4D
  8
0
 10
4601.3231184333662895
 20
480.9138815951008041
 30
0.0
 11
4601.3180944959667613
 21
480.908857657700878
 31
0.0
  0
LINE
  5
1CA4E
  8
0
 10
4601.4406119017667152
 20
481.0313750635008887
 30
0.0
 11
4601.6113746982682642
 21
480.8606122669008869
 31
0.0
  0
LINE
  5
1CA4F
  8
0
 10
4601.6113746982682642
 20
480.8606122669008869
 30
0.0
 11
4601.7123897323672281
 21
480.9616273010008172
 31
0.0
  0
LINE
  5
1CA50
  8
0
 10
4601.7123897323672281
 20
480.9616273010008172
 30
0.0
 11
4601.5416269358665886
 21
481.1323900975008883
 31
0.0
  0
LINE
  5
1CA51
  8
0
 10
4601.5416269358665886
 20
481.1323900975008883
 30
0.0
 11
4601.4406119017667152
 21
481.0313750635008887
 31
0.0
  0
LINE
  5
1CA52
  8
0
 10
4601.7766138725673954
 20
481.3673770343007732
 30
0.0
 11
4601.9473766691671699
 21
481.1966142377008282
 31
0.0
  0
LINE
  5
1CA53
  8
0
 10
4601.9473766691671699
 20
481.1966142377008282
 30
0.0
 11
4602.0483917031660894
 21
481.2976292718008153
 31
0.0
  0
LINE
  5
1CA54
  8
0
 10
4602.0483917031660894
 20
481.2976292718008153
 30
0.0
 11
4601.8776289066672689
 21
481.4683920684008172
 31
0.0
  0
LINE
  5
1CA55
  8
0
 10
4601.8776289066672689
 20
481.4683920684008172
 30
0.0
 11
4601.7766138725673954
 21
481.3673770343007732
 31
0.0
  0
LINE
  5
1CA56
  8
0
 10
4602.0001463124672227
 20
481.5909094742008847
 30
0.0
 11
4601.995122375066785
 21
481.5858855367009141
 31
0.0
  0
LINE
  5
1CA57
  8
0
 10
4601.995122375066785
 20
481.5858855367009141
 30
0.0
 11
4602.165885171568334
 21
481.4151227402008999
 31
0.0
  0
LINE
  5
1CA58
  8
0
 10
4602.165885171568334
 20
481.4151227402008999
 30
0.0
 11
4602.1709091089660433
 21
481.420146677600826
 31
0.0
  0
ARC
  5
1CA59
  8
0
 10
4602.0836927924137854
 20
481.383293697962074
 30
0.0
 40
0.2229440684571497
 50
135.6309667511442001
 51
157.5608033565987114
  0
ARC
  5
1CA5A
  8
0
 10
4602.0802208414916095
 20
481.3798215053030276
 30
0.0
 40
0.2229442397188311
 50
112.4392051559341041
 51
134.3690258525973888
  0
ARC
  5
1CA5B
  8
0
 10
4601.9632903490028184
 20
481.5036976818079779
 30
0.0
 40
0.2229493890627452
 50
292.4394615719144781
 51
314.3687687812372928
  0
ARC
  5
1CA5C
  8
0
 10
4601.9598167420281243
 20
481.5002241072853053
 30
0.0
 40
0.2229494120474672
 50
315.6312320644686906
 51
337.5605372751066966
  0
ARC
  5
1CA5D
  8
0
 10
4602.2466344078338807
 20
480.6662682052241848
 30
0.0
 40
0.845165755334411
 50
135.1868873820384067
 51
146.5289650574011944
  0
ARC
  5
1CA5E
  8
0
 10
4602.2427361191930686
 20
480.6623691275271995
 30
0.0
 40
0.8451663134638332
 50
123.4710387243593033
 51
134.8131088894303105
  0
ARC
  5
1CA5F
  8
0
 10
4601.2462619462739895
 20
481.6666420141527851
 30
0.0
 40
0.8451750462057233
 50
303.4710975000145936
 51
314.8130500871789081
  0
ARC
  5
1CA60
  8
0
 10
4601.2423619140135997
 20
481.6627420586697212
 30
0.0
 40
0.8451751004757294
 50
315.1869502447704008
 51
326.5289020981458066
  0
ARC
  5
1CA61
  8
0
 10
4601.5291823177531114
 20
480.828783225543873
 30
0.0
 40
0.2229440668641076
 50
135.6309665598317906
 51
157.5608034326970994
  0
ARC
  5
1CA62
  8
0
 10
4601.5257103702251698
 20
480.8253110293389909
 30
0.0
 40
0.2229442430497733
 50
112.4392053677516969
 51
134.3690256383463009
  0
ARC
  5
1CA63
  8
0
 10
4601.4087798743748863
 20
480.9491872103992023
 30
0.0
 40
0.2229493913559056
 50
292.4394617256576794
 51
314.36876839461911
  0
ARC
  5
1CA64
  8
0
 10
4601.4053062682341988
 20
480.9457136343502839
 30
0.0
 40
0.2229494126434047
 50
315.6312317954495938
 51
337.5605372368606822
  0
LINE
  5
1CA65
  8
0
 10
4601.3269190576684196
 20
480.9417913704008924
 30
0.0
 11
4601.2712413583667512
 21
480.9974690697009123
 31
0.0
  0
LINE
  5
1CA66
  8
0
 10
4601.2712413583667512
 20
480.9974690697009123
 30
0.0
 11
4601.9115343007670162
 21
481.6377620121007794
 31
0.0
  0
LINE
  5
1CA67
  8
0
 10
4601.9115343007670162
 20
481.6377620121007794
 30
0.0
 11
4601.9672125996657996
 21
481.5820849124007736
 31
0.0
  0
LINE
  5
1CA68
  8
0
 10
4601.8594484126670068
 20
481.5856761240008268
 30
0.0
 11
4601.854439680167161
 21
481.5856761240008268
 31
0.0
  0
LINE
  5
1CA69
  8
0
 10
4601.854439680167161
 20
481.5856761240008268
 30
0.0
 11
4601.8520352487666969
 21
481.5852265824008214
 31
0.0
  0
LINE
  5
1CA6A
  8
0
 10
4601.8520352487666969
 20
481.5852265824008214
 30
0.0
 11
4601.8417256815673682
 21
481.5819840951007791
 31
0.0
  0
LINE
  5
1CA6B
  8
0
 10
4601.8419664754674159
 20
481.5817433012009019
 30
0.0
 11
4601.8380336526670362
 21
481.5856761240008268
 31
0.0
  0
LINE
  5
1CA6C
  8
0
 10
4601.8380336526670362
 20
481.5856761240008268
 30
0.0
 11
4601.8324447285667702
 21
481.5856761240008268
 31
0.0
  0
LINE
  5
1CA6D
  8
0
 10
4601.8324447285667702
 20
481.5856761240008268
 30
0.0
 11
4601.7935538555666426
 21
481.6245669970007839
 31
0.0
  0
LINE
  5
1CA6E
  8
0
 10
4595.0774678018669874
 20
487.1810151020007993
 30
0.0
 11
4595.7279888681669036
 21
487.8315361683007723
 31
0.0
  0
LINE
  5
1CA6F
  8
0
 10
4595.791637063068265
 20
487.7679051426007959
 30
0.0
 11
4595.1410988275665659
 21
487.1173669071009158
 31
0.0
  0
LINE
  5
1CA70
  8
0
 10
4595.0774592156667495
 20
487.164035953000905
 30
0.0
 11
4595.124128263167222
 21
487.1173669055008872
 31
0.0
  0
LINE
  5
1CA71
  8
0
 10
4595.1425130394673033
 20
487.1018105563009044
 30
0.0
 11
4595.4829902716883225
 21
486.7613333240798852
 31
0.0
  0
LINE
  5
1CA72
  8
0
 10
4595.5371148633430494
 20
486.7072087324244762
 30
0.0
 11
4595.5409634102643395
 21
486.7033601855044935
 31
0.0
  0
LINE
  5
1CA73
  8
0
 10
4595.6783030984915968
 20
486.5660204972755878
 30
0.0
 11
4595.681681960167225
 21
486.5626416356009258
 31
0.0
  0
LINE
  5
1CA74
  8
0
 10
4595.8195011939378674
 20
486.4248224018302835
 30
0.0
 11
4595.8216848020074394
 21
486.4226387937615073
 31
0.0
  0
LINE
  5
1CA75
  8
0
 10
4595.9607089053652089
 20
486.2836146904026009
 30
0.0
 11
4595.9616962450036226
 21
486.2826273507629935
 31
0.0
  0
LINE
  5
1CA76
  8
0
 10
4596.1019260058210421
 20
486.1423975899469951
 30
0.0
 11
4596.1024104949674438
 21
486.1419131008008776
 31
0.0
  0
LINE
  5
1CA77
  8
0
 10
4597.3730760636817649
 20
484.8712475320850217
 30
0.0
 11
4597.7276954314666
 21
484.5166281643009256
 31
0.0
  0
LINE
  5
1CA78
  8
0
 10
4597.7446659942670522
 20
484.5166281643009256
 30
0.0
 11
4598.392375805867232
 21
485.1643379759008781
 31
0.0
  0
LINE
  5
1CA79
  8
0
 10
4598.3994413058671853
 20
485.1601009029009219
 30
0.0
 11
4597.7489030671658838
 21
484.5095626642009279
 31
0.0
  0
LINE
  5
1CA7A
  8
0
 10
4597.7489030671658838
 20
484.5095626642009279
 30
0.0
 11
4597.7771873384681385
 21
484.4812783930008777
 31
0.0
  0
LINE
  5
1CA7B
  8
0
 10
4597.7701162705670868
 20
484.4742073252008936
 30
0.0
 11
4598.4347966449668093
 21
485.1388876995009127
 31
0.0
  0
LINE
  5
1CA7C
  8
0
 10
4597.7701162705670868
 20
484.4742073252008936
 30
0.0
 11
4601.1288734812669645
 21
481.1154501145009021
 31
0.0
  0
LINE
  5
1CA7D
  8
0
 10
4601.1288734812669645
 20
481.1154501145009021
 30
0.0
 11
4601.7935538555666426
 21
481.7801304889009089
 31
0.0
  0
LINE
  5
1CA7E
  8
0
 10
4601.1430156168671601
 20
481.1013079789008771
 30
0.0
 11
4601.1783709559658746
 21
481.0659526399008996
 31
0.0
  0
LINE
  5
1CA7F
  8
0
 10
4601.2066542535667395
 20
481.0659516663009185
 30
0.0
 11
4601.8430523038659885
 21
481.7023497165009189
 31
0.0
  0
LINE
  5
1CA80
  8
0
 10
4601.3233278460666043
 20
481.0495555574008222
 30
0.0
 11
4601.3233278460666043
 21
481.076559241600819
 31
0.0
  0
LINE
  5
1CA81
  8
0
 10
4601.3233278460666043
 20
481.076559241600819
 30
0.0
 11
4601.2844369730673861
 21
481.1154501145009021
 31
0.0
  0
LINE
  5
1CA82
  8
0
 10
4601.3233278460666043
 20
481.076559241600819
 30
0.0
 11
4601.8324447285667702
 21
481.5856761240008268
 31
0.0
  0
LINE
  5
1CA83
  8
0
 10
4601.8380336526670362
 20
481.5856761240008268
 30
0.0
 11
4601.7991835705670383
 21
481.5468260387007717
 31
0.0
  0
ARC
  5
1CA84
  8
0
 10
4601.8415661825929419
 20
481.5814063029503131
 30
0.0
 40
0.0005232611260715
 50
1.22873501761869
 51
40.0933288360767222
  0
ARC
  5
1CA85
  8
0
 10
4601.8402676788118697
 20
481.581394554997928
 30
0.0
 40
0.0018217893832889
 50
338.1778505463361171
 51
0.7223902847752656
  0
ARC
  5
1CA86
  8
0
 10
4601.8243326396950579
 20
481.5877752626988126
 30
0.0
 40
0.0189868382445242
 50
319.2458637983370977
 51
338.1778505463361171
  0
ARC
  5
1CA87
  8
0
 10
4601.2845891305878467
 20
482.0094022980031809
 30
0.0
 40
0.7038686438767697
 50
317.5380819695790819
 51
321.930021391575508
  0
ARC
  5
1CA88
  8
0
 10
4598.6979190560296047
 20
484.3151761388102159
 30
0.0
 40
4.168996297769648
 50
317.3173852571526936
 51
318.1597206978369741
  0
ARC
  5
1CA89
  8
0
 10
4590.4545774035668728
 20
491.8643885300473926
 30
0.0
 40
15.3346726358001302
 50
316.5586521955660828
 51
317.7144666740977073
  0
ARC
  5
1CA8A
  8
0
 10
4610.6518720637122897
 20
472.7371278120240845
 30
0.0
 40
12.4822792849970305
 50
136.5586521955661112
 51
137.0805175584966946
  0
ARC
  5
1CA8B
  8
0
 10
4601.1925130915997215
 20
481.0800947754672166
 30
0.0
 40
0.0199999999663307
 50
224.9999998639383989
 51
314.9960555344779891
  0
ARC
  5
1CA8C
  8
0
 10
4601.1571577524091481
 20
481.1154501145246059
 30
0.0
 40
0.0199999999427143
 50
134.9999999320486097
 51
225.0000001641116967
  0
ARC
  5
1CA8D
  8
0
 10
4601.2702948374426342
 20
481.1013079789581752
 30
0.0
 40
0.0199999999427062
 50
44.99999983585829
 51
135.0000000680111896
  0
ARC
  5
1CA8E
  8
0
 10
4601.8076959911104495
 20
481.6387091326246264
 30
0.0
 40
0.0199999999427115
 50
134.9999999320463075
 51
225.0000001641163863
  0
ARC
  5
1CA8F
  8
0
 10
4601.7935538555420862
 20
481.7518462176582261
 30
0.0
 40
0.0199999999427049
 50
44.9999998358651894
 51
135.0000000680134917
  0
ARC
  5
1CA90
  8
0
 10
4601.8289091945789551
 20
481.7164908785173907
 30
0.0
 40
0.0200000000870508
 50
315.0039446087805004
 51
44.9999999928308583
  0
LINE
  5
1CA91
  8
0
 10
4601.8076959911659287
 20
481.7659883532008962
 30
0.0
 11
4601.8430513302673717
 21
481.7306330142009188
 31
0.0
  0
LINE
  5
1CA92
  8
0
 10
4601.7935538555666426
 20
481.7801304889009089
 30
0.0
 11
4598.6787484844298888
 21
484.8949358600369237
 31
0.0
  0
LINE
  5
1CA93
  8
0
 10
4598.5656113994673433
 20
485.0080729450008903
 30
0.0
 11
4598.4347966449668093
 21
485.1388876995009127
 31
0.0
  0
LINE
  5
1CA94
  8
0
 10
4598.3994413058671853
 20
485.1601009029009219
 30
0.0
 11
4598.427725577165802
 21
485.1318166317008718
 31
0.0
  0
LINE
  5
1CA95
  8
0
 10
4598.6771125628665686
 20
484.8932999384007871
 30
0.0
 11
4598.699961687866562
 21
484.9161490634008942
 31
0.0
  0
LINE
  5
1CA96
  8
0
 10
4598.699961687866562
 20
484.9161490634008942
 30
0.0
 11
4598.5868241878670233
 21
485.0292857334009113
 31
0.0
  0
LINE
  5
1CA97
  8
0
 10
4598.5868241878670233
 20
485.0292857334009113
 30
0.0
 11
4598.5639754778658244
 21
485.0064370234009061
 31
0.0
  0
LINE
  5
1CA98
  8
0
 10
4598.6163923396670725
 20
484.9881432071009044
 30
0.0
 11
4598.6588187465658848
 21
484.9457168002007847
 31
0.0
  0
LINE
  5
1CA99
  8
0
 10
4598.5949648925670772
 20
484.9667157600007954
 30
0.0
 11
4598.6373912993667545
 21
484.9242893531009031
 31
0.0
  0
ARC
  5
1CA9A
  8
0
 10
4598.564640849852367
 20
485.0059796183110734
 30
0.0
 40
0.0008074275788318
 50
145.4937078330073916
 51
193.3065157675750072
  0
ARC
  5
1CA9B
  8
0
 10
4598.5733019266353949
 20
485.0080280501231869
 30
0.0
 40
0.0097074457766363
 50
193.3065157675812884
 51
210.7191418703087038
  0
ARC
  5
1CA9C
  8
0
 10
4598.7414631462979742
 20
485.1182061239766767
 30
0.0
 40
0.2107393383391318
 50
213.1168014928728098
 51
225.9597685192549079
  0
ARC
  5
1CA9D
  8
0
 10
4598.5857570923926687
 20
485.0273138068143908
 30
0.0
 40
0.0006467011416039
 50
143.370431831161909
 51
184.9452431526343048
  0
ARC
  5
1CA9E
  8
0
 10
4598.594436802742166
 20
485.029290941675697
 30
0.0
 40
0.0095430428313717
 50
192.299537659058501
 51
211.3361456028200109
  0
ARC
  5
1CA9F
  8
0
 10
4598.7667689555955803
 20
485.1438768972136018
 30
0.0
 40
0.2164858167515811
 50
213.5197952721674142
 51
226.0026007161897041
  0
LINE
  5
1CAA0
  8
0
 10
4598.6999612727486237
 20
484.9161486482553869
 30
0.0
 11
4598.6771125626955836
 21
484.8932999383085871
 31
0.0
  0
ARC
  5
1CAA1
  8
0
 10
4598.6766551576065467
 20
484.8939653102950729
 30
0.0
 40
0.0008074275788318
 50
256.6934840987199777
 51
304.5062920333278953
  0
ARC
  5
1CAA2
  8
0
 10
4598.6787035894385554
 20
484.9026263870729281
 30
0.0
 40
0.0097074457766363
 50
239.280857995994495
 51
256.6934840987192956
  0
ARC
  5
1CAA3
  8
0
 10
4598.7888816636850606
 20
485.0707876064785182
 30
0.0
 40
0.2107393383391318
 50
224.040231347059887
 51
236.8831983734486073
  0
ARC
  5
1CAA4
  8
0
 10
4598.6979893461593747
 20
484.9150815527858072
 30
0.0
 40
0.0006467011416039
 50
265.054756713693223
 51
306.6295680351695978
  0
ARC
  5
1CAA5
  8
0
 10
4598.699966481040974
 20
484.9237612631301886
 30
0.0
 40
0.0095430428313717
 50
238.6638542634698013
 51
257.7004622072544748
  0
ARC
  5
1CAA6
  8
0
 10
4598.8145524369811028
 20
485.0960934157176894
 30
0.0
 40
0.2164858167515811
 50
223.9973991501094872
 51
236.4802045941520987
  0
ARC
  5
1CAA7
  8
0
 10
4598.383884183799637
 20
485.1728232572509114
 30
0.0
 40
0.0120044843672268
 50
315.0213994458384832
 51
44.978600554163819
  0
ARC
  5
1CAA8
  8
0
 10
4597.7361807128672808
 20
484.5251197864889718
 30
0.0
 40
0.0120044844879862
 50
225.0213996844420876
 51
314.9786003155695084
  0
ARC
  5
1CAA9
  8
0
 10
4595.0859445067571869
 20
487.1725212387378861
 30
0.0
 40
0.0120000099553017
 50
134.9420701776419946
 51
224.9999819263634038
  0
ARC
  5
1CAAA
  8
0
 10
4595.1326135445560794
 20
487.1259762946187948
 30
0.0
 40
0.0120880759934209
 50
225.4159614648116872
 51
314.58404933898629
  0
ARC
  5
1CAAB
  8
0
 10
4595.1510061168874017
 20
487.1102958377009031
 30
0.0
 40
0.012005513921119
 50
135.0263087294171953
 51
224.9736912705851068
  0
LINE
  5
1CAAC
  8
0
 10
4595.7449680170666397
 20
487.8315447545007828
 30
0.0
 11
4595.7916370646662472
 21
487.7848757069008911
 31
0.0
  0
LINE
  5
1CAAD
  8
0
 10
4595.8071934137669814
 20
487.7664909306008099
 30
0.0
 11
4598.392375805867232
 21
485.1813085386008879
 31
0.0
  0
ARC
  5
1CAAE
  8
0
 10
4595.7364827953460917
 20
487.8229329712261233
 30
0.0
 40
0.0120897394028477
 50
45.4241275257895722
 51
134.6338203705410024
  0
ARC
  5
1CAAF
  8
0
 10
4595.7831517833737962
 20
487.7763904255509146
 30
0.0
 40
0.0119999999259034
 50
314.9999890061093879
 51
45.0000001901376194
  0
ARC
  5
1CAB0
  8
0
 10
4595.7987081324163228
 20
487.7579978865758221
 30
0.0
 40
0.0120054902607198
 50
45.026196251869699
 51
134.9738037481234016
  0
LINE
  5
1CAB1
  8
0
 10
4598.6120913917402504
 20
482.8624939482739933
 30
0.0
 11
4599.3818296417130114
 21
482.8624939540551964
 31
0.0
  0
LINE
  5
1CAB2
  8
0
 10
4600.7111767750666331
 20
482.8625075694009183
 30
0.0
 11
4601.0794693267671391
 21
482.8625113415009196
 31
0.0
  0
LINE
  5
1CAB3
  8
0
 10
4598.6118500483680691
 20
482.488467540631575
 30
0.0
 11
4598.8541530454212989
 21
482.4884675397354954
 31
0.0
  0
LINE
  5
1CAB4
  8
0
 10
4599.4062274954067107
 20
482.4884675376939072
 30
0.0
 11
4599.7558560593670336
 21
482.4884675364008899
 31
0.0
  0
ARC
  5
1CAB5
  8
0
 10
4599.1821918632158486
 20
482.2642908900457996
 30
0.0
 40
0.3208923416282922
 50
73.2140021902670668
 51
96.7907392213471951
  0
ARC
  5
1CAB6
  8
0
 10
4599.168222615180639
 20
482.2673960323555775
 30
0.0
 40
0.3222699225157602
 50
51.3407239312185695
 51
70.6759967364797035
  0
ARC
  5
1CAB7
  8
0
 10
4598.6289458726823796
 20
481.5932872684919062
 30
0.0
 40
1.1855439407274371
 50
49.1891975460120818
 51
51.3407239312185695
  0
ARC
  5
1CAB8
  8
0
 10
4599.4106934215506044
 20
482.5007914932559743
 30
0.0
 40
0.0123250708572502
 50
235.8460573857381064
 51
269.2296480223753861
  0
ARC
  5
1CAB9
  8
0
 10
4598.8541376769553608
 20
482.500552474134679
 30
0.0
 40
0.0120849441712175
 50
270.0582125630203905
 51
292.2208514123157101
  0
ARC
  5
1CABA
  8
0
 10
4600.1681895937335867
 20
479.2839132752789055
 30
0.0
 40
3.4626093122501871
 50
108.3957857734639987
 51
112.2208514123156959
  0
ARC
  5
1CABB
  8
0
 10
4599.206095136728436
 20
482.080430816337298
 30
0.0
 40
0.5062929073627249
 50
97.0165457914493885
 51
104.9525470513121945
  0
ARC
  5
1CABC
  8
0
 10
4598.608904896884269
 20
482.8569335625227268
 30
0.0
 40
0.0052721256739043
 50
97.1532823394058056
 51
164.084955202144414
  0
ARC
  5
1CABD
  8
0
 10
4598.6122421234886133
 20
482.8381455502632207
 30
0.0
 40
0.0243488645681387
 50
90.354692029717782
 51
99.4403884635127042
  0
ARC
  5
1CABE
  8
0
 10
4598.608969963382151
 20
482.4941516007002065
 30
0.0
 40
0.0054105998087893
 50
192.3227650807145892
 51
262.3355077632996881
  0
ARC
  5
1CABF
  8
0
 10
4598.6121215297080198
 20
482.5118229216864165
 30
0.0
 40
0.023356958841707
 50
260.4547833917623052
 51
269.3340278004504853
  0
ARC
  5
1CAC0
  8
0
 10
4598.6237294440170444
 20
482.8527400350279777
 30
0.0
 40
0.0206783778114295
 50
164.1743916381292081
 51
178.3630086147545057
  0
ARC
  5
1CAC1
  8
0
 10
4601.2717417065023255
 20
482.6754768471844841
 30
0.0
 40
2.6746021577790979
 50
176.1871700214018119
 51
183.8114028415581913
  0
ARC
  5
1CAC2
  8
0
 10
4598.636375035567653
 20
482.4997668887555164
 30
0.0
 40
0.0333846610926799
 50
183.567733959153486
 51
191.7000445615128967
  0
ARC
  5
1CAC3
  8
0
 10
4601.1178393276977658
 20
482.9266116483224209
 30
0.0
 40
0.0603170065761788
 50
285.5897429303424815
 51
341.2106417410308836
  0
ARC
  5
1CAC4
  8
0
 10
4601.0852322954697229
 20
483.0612613227672227
 30
0.0
 40
0.198833515438521
 50
268.3391128416466813
 51
284.2124073560535749
  0
ARC
  5
1CAC5
  8
0
 10
4600.9823557363552027
 20
482.9606910022404804
 30
0.0
 40
0.1998810817787218
 50
344.4729420929779167
 51
1.1388919526185319
  0
LINE
  5
1CAC6
  8
0
 10
4601.1822251441662956
 20
483.2601239304008232
 30
0.0
 11
4601.1821973317673837
 21
482.9646638597009201
 31
0.0
  0
ARC
  5
1CAC7
  8
0
 10
4601.9353427376636319
 20
472.8955341899861082
 30
0.0
 40
10.4101913523753495
 50
92.747714546137388
 51
94.0475707656682545
  0
ARC
  5
1CAC8
  8
0
 10
4601.201898002697817
 20
483.2601342266870006
 30
0.0
 40
0.0196728612248327
 50
93.9507272526898163
 51
180.0299871868143953
  0
ARC
  5
1CAC9
  8
0
 10
4601.1178393276977658
 20
482.4243436096293749
 30
0.0
 40
0.0603170065761788
 50
18.7893582589691306
 51
74.4102570696575327
  0
ARC
  5
1CACA
  8
0
 10
4601.0852322954697229
 20
482.2896939351846868
 30
0.0
 40
0.198833515438521
 50
75.7875926439463683
 51
90.021723582208736
  0
ARC
  5
1CACB
  8
0
 10
4600.9823557363552027
 20
482.3902642557113154
 30
0.0
 40
0.1998810817787218
 50
0.3401956969000961
 51
15.5270579070221402
  0
LINE
  5
1CACC
  8
0
 10
4601.2005425706665847
 20
483.2797603387008962
 30
0.0
 11
4601.4362960101670978
 21
483.2797603387008962
 31
0.0
  0
LINE
  5
1CACD
  8
0
 10
4602.7355086085663061
 20
483.2797603387008962
 30
0.0
 11
4602.9749230165016343
 21
483.2797603387008962
 31
0.0
  0
LINE
  5
1CACE
  8
0
 10
4601.18039049836716
 20
481.0641925389008975
 30
0.0
 11
4601.18039049836716
 21
480.2338470626008871
 31
0.0
  0
LINE
  5
1CACF
  8
0
 10
4602.9914141203662439
 20
480.2338470626008871
 30
0.0
 11
4602.9914141203662439
 21
481.7299100547008948
 31
0.0
  0
LINE
  5
1CAD0
  8
0
 10
4602.9932487660671541
 20
482.0896423382008038
 30
0.0
 11
4602.9932487660671541
 21
482.2805975484845931
 31
0.0
  0
LINE
  5
1CAD1
  8
0
 10
4602.9932487660671541
 20
482.5286083877172132
 30
0.0
 11
4602.9932487660671541
 21
483.2601226204009208
 31
0.0
  0
ARC
  5
1CAD2
  8
0
 10
4601.7590443098242758
 20
464.791114115015489
 30
0.0
 40
18.5285833299243308
 50
86.2374449912329197
 51
86.9790883641697263
  0
ARC
  5
1CAD3
  8
0
 10
4602.9735688284381467
 20
483.2601270470933059
 30
0.0
 40
0.0196799381264739
 50
359.9871122159485139
 51
86.0543259555106772
  0
ARC
  5
1CAD4
  8
0
 10
4602.0859023093671567
 20
481.7299100547008948
 30
0.0
 40
0.9055118109999504
 50
0.0
 51
23.0356841058911783
  0
LINE
  5
1CAD5
  8
0
 10
4602.9192098088733474
 20
482.084240763400885
 30
0.0
 11
4602.7355086085663061
 21
482.084240763400885
 31
0.0
  0
LINE
  5
1CAD6
  8
0
 10
4602.9164223436673637
 20
482.0896423382008038
 30
0.0
 11
4602.9166109708667136
 21
482.084240763400885
 31
0.0
  0
ARC
  5
1CAD7
  8
0
 10
4603.8549289386673991
 20
482.4046029681007894
 30
0.0
 40
0.8705573295001906
 50
171.8107217579722885
 51
188.1892782420277115
  0
LINE
  5
1CAD8
  8
0
 10
4595.4943281949335869
 20
486.7739499249644837
 30
0.0
 11
4595.4846903259658575
 21
486.7637910003008983
 31
0.0
  0
LINE
  5
1CAD9
  8
0
 10
4595.491953367167298
 20
486.7752241500007813
 30
0.0
 11
4595.4930697763720673
 21
486.7726234720515777
 31
0.0
  0
ARC
  5
1CADA
  8
0
 10
4595.4222151546491659
 20
486.642399910268125
 30
0.0
 40
0.1500189886174023
 50
46.6048982466969335
 51
62.2986718549191281
  0
ARC
  5
1CADB
  8
0
 10
4595.3902336003038727
 20
486.6027088322788927
 30
0.0
 40
0.200872420043083
 50
35.025669015319238
 51
47.7544461904780206
  0
LINE
  5
1CADC
  8
0
 10
4595.5547270196657337
 20
486.7179982252009154
 30
0.0
 11
4595.5326999322669508
 21
486.7045040740007948
 31
0.0
  0
ARC
  5
1CADD
  8
0
 10
4595.5864215623887503
 20
486.7559423855441878
 30
0.0
 40
0.0566355547745628
 50
227.6900281969109869
 51
245.1617190653120986
  0
ARC
  5
1CADE
  8
0
 10
4595.4732093360426006
 20
486.6610521930056734
 30
0.0
 40
0.0994383393171048
 50
25.9376374505943907
 51
34.9371004635606468
  0
ARC
  5
1CADF
  8
0
 10
4595.4922571743054505
 20
486.7567399366870973
 30
0.0
 40
0.010342857045432
 50
137.0208107013403946
 51
210.4982861413793103
  0
ARC
  5
1CAE0
  8
0
 10
4595.5669645611842498
 20
486.8022225615681009
 30
0.0
 40
0.0978053686101417
 50
211.2451660076482085
 51
218.1866199548919099
  0
ARC
  5
1CAE1
  8
0
 10
4595.527385264984332
 20
486.7134136259979869
 30
0.0
 40
0.0103742857642063
 50
228.5388317718943938
 51
300.8166433317626911
  0
ARC
  5
1CAE2
  8
0
 10
4595.5482434132445633
 20
486.7376018095496875
 30
0.0
 40
0.0423132024586398
 50
222.4620830182844031
 51
229.0589450216795058
  0
ARC
  5
1CAE3
  8
0
 10
4595.888760828620434
 20
487.0425275910071718
 30
0.0
 40
0.4994015753206285
 50
217.0320951264941129
 51
221.8961288736373092
  0
ARC
  5
1CAE4
  8
0
 10
4595.671931941488765
 20
486.8663340939268096
 30
0.0
 40
0.2196112273941822
 50
213.856078503184591
 51
224.1439201142376021
  0
ARC
  5
1CAE5
  8
0
 10
4595.3337263415896814
 20
486.5924606059479061
 30
0.0
 40
0.2173561845260094
 50
33.80256487201396
 51
44.19743374538659
  0
ARC
  5
1CAE6
  8
0
 10
4595.5866379076369412
 20
486.7206695409082045
 30
0.0
 40
0.0066002382552536
 50
78.9716292066371039
 51
194.7169053834986983
  0
LINE
  5
1CAE7
  8
0
 10
4595.5879005004680948
 20
486.7271478898007899
 30
0.0
 11
4595.5687315182658494
 21
486.7065694424009052
 31
0.0
  0
LINE
  5
1CAE8
  8
0
 10
4595.653700603867037
 20
486.6704538866009102
 30
0.0
 11
4595.617254072567448
 21
486.6477068772009034
 31
0.0
  0
ARC
  5
1CAE9
  8
0
 10
4595.5758800530402368
 20
486.6612965047115154
 30
0.0
 40
0.0669394956249197
 50
54.379699345492682
 51
79.6551791485342022
  0
ARC
  5
1CAEA
  8
0
 10
4595.5544310581317404
 20
486.6245631340328259
 30
0.0
 40
0.1093636314403139
 50
24.8103596152001806
 51
56.4538339311829134
  0
ARC
  5
1CAEB
  8
0
 10
4595.6103575459646891
 20
486.6509765696545742
 30
0.0
 40
0.0475182758909182
 50
8.8330830829295852
 51
24.1979921693619318
  0
ARC
  5
1CAEC
  8
0
 10
4595.650229461744857
 20
486.6571420933411787
 30
0.0
 40
0.0071725535353218
 50
283.8004411180510829
 51
9.0742387024758369
  0
ARC
  5
1CAED
  8
0
 10
4595.651631274173269
 20
486.6842108488039003
 30
0.0
 40
0.0340356588209659
 50
233.9984247448925885
 51
270.5204067155872849
  0
ARC
  5
1CAEE
  8
0
 10
4595.6723520245259351
 20
486.7423034178913781
 30
0.0
 40
0.1131175770008857
 50
209.2875814425798069
 51
229.4975197917187018
  0
ARC
  5
1CAEF
  8
0
 10
4595.5050772098211382
 20
486.604938754557395
 30
0.0
 40
0.1069432470014556
 50
28.6974976170197102
 51
50.0876036172994077
  0
ARC
  5
1CAF0
  8
0
 10
4595.5768062659317366
 20
486.6992887134911143
 30
0.0
 40
0.0108724681337857
 50
137.9600801052689008
 51
206.6085661338082105
  0
ARC
  5
1CAF1
  8
0
 10
4595.6116151389160223
 20
486.6570909183320168
 30
0.0
 40
0.0109479587444297
 50
229.7608053369006029
 51
301.0019419159394829
  0
ARC
  5
1CAF2
  8
0
 10
4595.7435362054557118
 20
486.8008937109785847
 30
0.0
 40
0.2060868080768664
 50
211.1077902750425039
 51
227.5893059470548963
  0
LINE
  5
1CAF3
  8
0
 10
4595.5537709495401941
 20
486.6925455084391956
 30
0.0
 11
4595.540737895366874
 21
486.6785692689009011
 31
0.0
  0
LINE
  5
1CAF4
  8
0
 10
4595.6127173115519327
 20
486.6343578358370792
 30
0.0
 11
4595.5892639001658608
 21
486.6197025178008175
 31
0.0
  0
LINE
  5
1CAF5
  8
0
 10
4595.5403351989671137
 20
486.6653884936009149
 30
0.0
 11
4595.5762065486669599
 21
486.621873066700914
 31
0.0
  0
ARC
  5
1CAF6
  8
0
 10
4595.5480514346108976
 20
486.6717492879187716
 30
0.0
 40
0.0099999998432336
 50
137.0000196769697993
 51
219.500090699895793
  0
ARC
  5
1CAF7
  8
0
 10
4595.5839646195363457
 20
486.6281834534131008
 30
0.0
 40
0.0100004321939586
 50
219.124781221494203
 51
301.9990471579167206
  0
ARC
  5
1CAF8
  8
0
 10
4595.1336326394903153
 20
486.2079778487023987
 30
0.0
 40
0.6413439143193395
 50
40.0599541806058284
 51
50.5710657597468369
  0
ARC
  5
1CAF9
  8
0
 10
4595.6333459009811122
 20
486.6150778770726788
 30
0.0
 40
0.0105035377837568
 50
138.3158347016768914
 51
216.7585457055195945
  0
LINE
  5
1CAFA
  8
0
 10
4595.6951090371658211
 20
486.5767238803009036
 30
0.0
 11
4595.6745386186657925
 21
486.5636229716009211
 31
0.0
  0
LINE
  5
1CAFB
  8
0
 10
4595.6361550599658585
 20
486.6336923058008779
 30
0.0
 11
4595.6255016278673793
 21
486.6220629816008909
 31
0.0
  0
ARC
  5
1CAFC
  8
0
 10
4595.6690686264437318
 20
486.572497925824905
 30
0.0
 40
0.0104252399203855
 50
228.8171001511551026
 51
301.6472028162153265
  0
ARC
  5
1CAFD
  8
0
 10
4595.9377387518406977
 20
486.8351271638755975
 30
0.0
 40
0.3861040702708431
 50
215.8879675336463038
 51
224.4691065981315035
  0
ARC
  5
1CAFE
  8
0
 10
4595.8112027913275597
 20
486.7280912645546209
 30
0.0
 40
0.2199801391461184
 50
214.8398039613605022
 51
225.1601919663337981
  0
ARC
  5
1CAFF
  8
0
 10
4595.4770400761090059
 20
486.4476954736975927
 30
0.0
 40
0.218029405903131
 50
34.7935082049395916
 51
45.2064877227495927
  0
ARC
  5
1CB00
  8
0
 10
4595.6546245472600276
 20
486.6455078437194857
 30
0.0
 40
0.0256623577516764
 50
200.2367766095896116
 51
214.740259468994708
  0
ARC
  5
1CB01
  8
0
 10
4595.5902226148227783
 20
486.5528541375772988
 30
0.0
 40
0.0929763354764496
 50
55.460296044825661
 51
64.2975045071972033
  0
ARC
  5
1CB02
  8
0
 10
4595.5297277730023779
 20
486.4649641342039104
 30
0.0
 40
0.1996734703015778
 50
37.9693583936622829
 51
55.460296044825661
  0
ARC
  5
1CB03
  8
0
 10
4595.5923648367179339
 20
486.5112697821468828
 30
0.0
 40
0.1218220410728357
 50
26.6716374074475695
 51
38.9252108110223105
  0
ARC
  5
1CB04
  8
0
 10
4595.7168262464492727
 20
486.6036767174315969
 30
0.0
 40
0.040822934221165
 50
228.2226939735010944
 51
247.5307738237493993
  0
ARC
  5
1CB05
  8
0
 10
4595.2744171657177503
 20
486.0673318211859737
 30
0.0
 40
0.6412459941805353
 50
39.9959948715477509
 51
50.5715036229171702
  0
LINE
  5
1CB06
  8
0
 10
4595.6948039226581386
 20
486.5515542903493156
 30
0.0
 11
4595.6815517208669917
 21
486.5368362291007998
 31
0.0
  0
LINE
  5
1CB07
  8
0
 10
4595.7536088186552661
 20
486.4934442298400086
 30
0.0
 11
4595.7310977013657975
 21
486.4788253393007835
 31
0.0
  0
LINE
  5
1CB08
  8
0
 10
4595.6813791220665735
 20
486.5236504333008156
 30
0.0
 11
4595.7180043555672455
 21
486.4807677945008209
 31
0.0
  0
ARC
  5
1CB09
  8
0
 10
4595.6889831712669547
 20
486.5301449257186164
 30
0.0
 40
0.0099999998007754
 50
138.0000196452187993
 51
220.5000908998692921
  0
ARC
  5
1CB0A
  8
0
 10
4595.7741661779418791
 20
486.4734885462971192
 30
0.0
 40
0.0104075142779258
 50
138.9424964607391928
 51
217.4111837035123074
  0
ARC
  5
1CB0B
  8
0
 10
4595.7256512146568639
 20
486.4872125002141843
 30
0.0
 40
0.0100004342741178
 50
220.1238952539648892
 51
302.9990424926701849
  0
LINE
  5
1CB0C
  8
0
 10
4595.7294323985670417
 20
486.5869452938007953
 30
0.0
 11
4595.7095460665668725
 21
486.5648352528007763
 31
0.0
  0
LINE
  5
1CB0D
  8
0
 10
4595.7940813560671813
 20
486.5295262256008186
 30
0.0
 11
4595.7590885132667609
 21
486.5068285006008182
 31
0.0
  0
ARC
  5
1CB0E
  8
0
 10
4595.7176223716223831
 20
486.5577416746120889
 30
0.0
 40
0.0107492118246994
 50
138.7065238582003133
 51
204.9477399227477861
  0
ARC
  5
1CB0F
  8
0
 10
4595.7606548266248865
 20
486.5789487387584131
 30
0.0
 40
0.0587212784757004
 50
205.9992134063026867
 51
218.1081281553398128
  0
ARC
  5
1CB10
  8
0
 10
4595.7533777032331272
 20
486.5158435385416169
 30
0.0
 40
0.0106716568686272
 50
240.6975341282858096
 51
302.3532765702057077
  0
ARC
  5
1CB11
  8
0
 10
4595.7662913320282314
 20
486.5368551420907011
 30
0.0
 40
0.0353285103976532
 50
224.6063492641737867
 51
239.1115221802701001
  0
ARC
  5
1CB12
  8
0
 10
4595.9350646139873788
 20
486.7077874374172097
 30
0.0
 40
0.2755387852724059
 50
216.806272915826213
 51
225.2669825765235032
  0
ARC
  5
1CB13
  8
0
 10
4595.811191498351036
 20
486.6013065320321971
 30
0.0
 40
0.1114194581917608
 50
210.1759298318094977
 51
230.6715945467344966
  0
ARC
  5
1CB14
  8
0
 10
4595.647120200599602
 20
486.4615535401619013
 30
0.0
 40
0.1077207594441391
 50
29.8200575009786988
 51
51.0274668775605633
  0
ARC
  5
1CB15
  8
0
 10
4595.7270515672007605
 20
486.5800526232935113
 30
0.0
 40
0.0072922743168738
 50
70.9443228388378486
 51
205.1176419824986112
  0
ARC
  5
1CB16
  8
0
 10
4595.6997083475371255
 20
486.4883744246013748
 30
0.0
 40
0.1029550167028966
 50
23.5598387121272914
 51
73.2193120253776755
  0
ARC
  5
1CB17
  8
0
 10
4595.7675552834998598
 20
486.5159035697072909
 30
0.0
 40
0.0298196123282028
 50
353.8684881903844826
 51
27.1830923684675483
  0
ARC
  5
1CB18
  8
0
 10
4595.7877853812888134
 20
486.5350738884615112
 30
0.0
 40
0.0242585894652076
 50
232.4258996531642083
 51
292.847010414250974
  0
LINE
  5
1CB19
  8
0
 10
4595.7772954434667554
 20
486.4927350544007822
 30
0.0
 11
4595.7663183838667464
 21
486.4803243697008952
 31
0.0
  0
LINE
  5
1CB1A
  8
0
 10
4595.8359799369973189
 20
486.4357262447861103
 30
0.0
 11
4595.8163678224673276
 21
486.4227490768008124
 31
0.0
  0
ARC
  5
1CB1B
  8
0
 10
4595.810739880024812
 20
486.4312711370561146
 30
0.0
 40
0.01021270028533
 50
230.8188387505018966
 51
303.4406500945739253
  0
ARC
  5
1CB1C
  8
0
 10
4596.0670374672563412
 20
486.6923064424343011
 30
0.0
 40
0.375995251239442
 50
216.7830178240529904
 51
225.6682921520124125
  0
ARC
  5
1CB1D
  8
0
 10
4595.9492881488458806
 20
486.5888362681316153
 30
0.0
 40
0.2188518592135611
 50
215.8202803236187037
 51
226.1797227750438992
  0
ARC
  5
1CB1E
  8
0
 10
4595.6215473226138784
 20
486.3039354988882224
 30
0.0
 40
0.2172032166078461
 50
35.7808558758779469
 51
46.2191472227743532
  0
ARC
  5
1CB1F
  8
0
 10
4595.796728740368053
 20
486.5054571016028717
 30
0.0
 40
0.0271963788123835
 50
200.5354457531946082
 51
215.4617337845463112
  0
ARC
  5
1CB20
  8
0
 10
4595.7314116570651095
 20
486.4130624158707974
 30
0.0
 40
0.0919404763146091
 50
56.1111961129570673
 51
64.0794300241548456
  0
ARC
  5
1CB21
  8
0
 10
4595.674660886124002
 20
486.328572699984079
 30
0.0
 40
0.1937204453310032
 50
35.3460811584906267
 51
56.1111961129570673
  0
ARC
  5
1CB22
  8
0
 10
4595.7353533083896764
 20
486.371618655956695
 30
0.0
 40
0.1193126201643511
 50
26.7056583781285397
 51
35.3460811584906267
  0
ARC
  5
1CB23
  8
0
 10
4595.8595833201889036
 20
486.4661052591515045
 30
0.0
 40
0.0445131771242891
 50
229.5459964274947993
 51
246.6469603259425014
  0
LINE
  5
1CB24
  8
0
 10
4595.8708300704684007
 20
486.446657324200828
 30
0.0
 11
4595.850366203268095
 21
486.4230905496007722
 31
0.0
  0
LINE
  5
1CB25
  8
0
 10
4595.9344745011658233
 20
486.3885680304009043
 30
0.0
 11
4595.9009134529669609
 21
486.365957276900815
 31
0.0
  0
LINE
  5
1CB26
  8
0
 10
4595.8358724074150814
 20
486.4106241362268861
 30
0.0
 11
4595.8223710784668583
 21
486.3950926340008891
 31
0.0
  0
LINE
  5
1CB27
  8
0
 10
4595.8224286298673178
 20
486.3819058341007917
 30
0.0
 11
4595.8597966074667056
 21
486.3396690187008176
 31
0.0
  0
LINE
  5
1CB28
  8
0
 10
4595.8729219425667907
 20
486.3379552761008995
 30
0.0
 11
4595.8944616511689674
 21
486.3524839930382768
 31
0.0
  0
ARC
  5
1CB29
  8
0
 10
4595.4143767023288092
 20
485.9272816308309189
 30
0.0
 40
0.6413100708149353
 50
39.8406938528016497
 51
50.5712018275198503
  0
ARC
  5
1CB2A
  8
0
 10
4595.9150027840796611
 20
486.3319326897043879
 30
0.0
 40
0.0102924684634605
 50
139.8056897220388066
 51
213.6775490565125892
  0
ARC
  5
1CB2B
  8
0
 10
4595.8299181764259629
 20
486.3885320464067945
 30
0.0
 40
0.0099999998594195
 50
139.0000197658561945
 51
221.5000911654746005
  0
ARC
  5
1CB2C
  8
0
 10
4595.8673299087449777
 20
486.3462461068211269
 30
0.0
 40
0.0100004358051727
 50
221.1231869118832947
 51
303.9990400076749779
  0
LINE
  5
1CB2D
  8
0
 10
4595.9770708073674541
 20
486.2948566550007854
 30
0.0
 11
4595.9581874191662791
 21
486.2818822232009097
 31
0.0
  0
LINE
  5
1CB2E
  8
0
 10
4595.9182464601672109
 20
486.3515819082007852
 30
0.0
 11
4595.9071407778674256
 21
486.3385752619008144
 31
0.0
  0
ARC
  5
1CB2F
  8
0
 10
4595.9369709417778722
 20
486.3634719791979819
 30
0.0
 40
0.0258946435693789
 50
200.2825169963024052
 51
214.926394182338413
  0
ARC
  5
1CB30
  8
0
 10
4595.8830012783128041
 20
486.2910415493129221
 30
0.0
 40
0.0700525367005916
 50
59.7930360382511381
 51
64.9321690504915239
  0
ARC
  5
1CB31
  8
0
 10
4595.8140859072345847
 20
486.1847037528245892
 30
0.0
 40
0.1967174103349507
 50
34.0526873925590223
 51
58.0287737149720968
  0
ARC
  5
1CB32
  8
0
 10
4595.9020646541694077
 20
486.2448152487099833
 30
0.0
 40
0.0901668750767731
 50
25.629726009534199
 51
33.7097909564800773
  0
ARC
  5
1CB33
  8
0
 10
4596.0006383589679899
 20
486.3242385810236215
 30
0.0
 40
0.0439594198992359
 50
228.8091325135787883
 51
246.8552213510365902
  0
ARC
  5
1CB34
  8
0
 10
4595.9524216112240538
 20
486.2903650795485078
 30
0.0
 40
0.0102568705288147
 50
233.2658335835122898
 51
304.2039951399328856
  0
ARC
  5
1CB35
  8
0
 10
4596.1890981638989615
 20
486.5417023691176155
 30
0.0
 40
0.3554255222829778
 50
217.3189094512387953
 51
226.9092098313620056
  0
ARC
  5
1CB36
  8
0
 10
4596.0870471645412181
 20
486.449235852811114
 30
0.0
 40
0.2173193062644994
 50
216.7892166898407993
 51
227.2107832169826054
  0
ARC
  5
1CB37
  8
0
 10
4595.7651686912995501
 20
486.1594151742056056
 30
0.0
 40
0.2176059348165667
 50
36.7960992341988771
 51
47.2039006725981594
  0
ARC
  5
1CB38
  8
0
 10
4595.5547518786161163
 20
485.7876397163229854
 30
0.0
 40
0.6407936294813114
 50
39.6779956535768932
 51
50.5753378958569613
  0
LINE
  5
1CB39
  8
0
 10
4596.0353258389850453
 20
486.211508969983413
 30
0.0
 11
4596.0147365009670466
 21
486.1970921602008957
 31
0.0
  0
LINE
  5
1CB3A
  8
0
 10
4595.9634838356660111
 20
486.2401547945008247
 30
0.0
 11
4596.0015831927667023
 21
486.1985766422009192
 31
0.0
  0
LINE
  5
1CB3B
  8
0
 10
4595.9769271208378996
 20
486.2697025135174158
 30
0.0
 11
4595.96319615156699
 21
486.2533385816008149
 31
0.0
  0
ARC
  5
1CB3C
  8
0
 10
4595.9708565985038149
 20
486.2469107082746973
 30
0.0
 40
0.0100000001384589
 50
140.0000213894035141
 51
222.5000901793841876
  0
ARC
  5
1CB3D
  8
0
 10
4596.0090006236150657
 20
486.2052841349776031
 30
0.0
 40
0.0100004369773646
 50
222.1226566779486973
 51
304.9990372402289722
  0
ARC
  5
1CB3E
  8
0
 10
4596.0560152232337714
 20
486.1903006946834012
 30
0.0
 40
0.0103531586703762
 50
141.0027782119838946
 51
215.6157765957333083
  0
LINE
  5
1CB3F
  8
0
 10
4596.0595201928672395
 20
486.2108323549009015
 30
0.0
 11
4596.0479689918665827
 21
486.1968157584008736
 31
0.0
  0
LINE
  5
1CB40
  8
0
 10
4596.1178077990671227
 20
486.1537227164009209
 30
0.0
 11
4596.0999972870658894
 21
486.1410222425008101
 31
0.0
  0
ARC
  5
1CB41
  8
0
 10
4596.0940548176131415
 20
486.1494656374047167
 30
0.0
 40
0.0103249145618988
 50
229.9057734027863944
 51
305.1379197983977178
  0
ARC
  5
1CB42
  8
0
 10
4596.3419177869673149
 20
486.4187130304654261
 30
0.0
 40
0.3762798328308867
 50
218.5392666850505066
 51
227.4376540663510013
  0
ARC
  5
1CB43
  8
0
 10
4596.2267877930498798
 20
486.3114116645825789
 30
0.0
 40
0.2185035922932184
 50
217.8216989803840136
 51
228.1783014319096026
  0
ARC
  5
1CB44
  8
0
 10
4595.9093233632265765
 20
486.0153712923246871
 30
0.0
 40
0.2173625216588821
 50
37.7944400199421935
 51
48.2055603923404092
  0
ARC
  5
1CB45
  8
0
 10
4596.0807407005258938
 20
486.2252964165754747
 30
0.0
 40
0.0300617207013302
 50
201.0710355658289927
 51
216.6947987750839104
  0
ARC
  5
1CB46
  8
0
 10
4596.0215310124449388
 20
486.1480625384585892
 30
0.0
 40
0.073370482384658
 50
58.8170809214300192
 51
64.8704043164253505
  0
ARC
  5
1CB47
  8
0
 10
4595.9535832889669109
 20
486.0444105965211179
 30
0.0
 40
0.1972785575526192
 50
33.648772188726312
 51
57.5209304960731487
  0
ARC
  5
1CB48
  8
0
 10
4596.047433551460017
 20
486.1077402231558722
 30
0.0
 40
0.0840650011082568
 50
25.4086429248869194
 51
33.1605779386916595
  0
ARC
  5
1CB49
  8
0
 10
4596.1395916947030855
 20
486.1821318396505944
 30
0.0
 40
0.0416148513921884
 50
230.0824836041250023
 51
247.0531125049652985
  0
ARC
  5
1CB4A
  8
0
 10
4595.6951421659159678
 20
485.6465993618309085
 30
0.0
 40
0.6412512704549808
 50
39.6136599015303688
 51
50.5714823892099474
  0
LINE
  5
1CB4B
  8
0
 10
4596.1179081020673038
 20
486.1287157562009043
 30
0.0
 11
4596.1040271219671922
 21
486.1115741733008804
 31
0.0
  0
LINE
  5
1CB4C
  8
0
 10
4596.1045448509657945
 20
486.0983974149007736
 30
0.0
 11
4596.143364001167356
 21
486.0574905659008209
 31
0.0
  0
LINE
  5
1CB4D
  8
0
 10
4596.1565412568670581
 20
486.0562358216009216
 30
0.0
 11
4596.1762520659667643
 21
486.0705565628007889
 31
0.0
  0
ARC
  5
1CB4E
  8
0
 10
4596.1117985836772277
 20
486.1052809721198855
 30
0.0
 40
0.0099999999105555
 50
141.0000197081737099
 51
223.5000910224721906
  0
ARC
  5
1CB4F
  8
0
 10
4596.1506632832033574
 20
486.0643264449727781
 30
0.0
 40
0.0100004380371458
 50
223.1223045203036008
 51
305.999034530321012
  0
LINE
  5
1CB50
  8
0
 10
4596.2006103991670898
 20
486.0698937716009027
 30
0.0
 11
4596.1888032061669946
 21
486.0550459627008877
 31
0.0
  0
ARC
  5
1CB51
  8
0
 10
4596.1970487389462505
 20
486.0486223545664188
 30
0.0
 40
0.0104523467356974
 50
142.0799471816621065
 51
220.9922280054306896
  0
LINE
  5
1CB52
  8
0
 10
4596.2587267032668024
 20
486.0126925053007767
 30
0.0
 11
4596.2417973074670954
 21
486.0001689643008262
 31
0.0
  0
ARC
  5
1CB53
  8
0
 10
4596.2356550136018996
 20
486.0086355588405809
 30
0.0
 40
0.0104599711772483
 50
226.3229874881857029
 51
305.9599077063988943
  0
ARC
  5
1CB54
  8
0
 10
4596.4981292162219688
 20
486.3006313705051866
 30
0.0
 40
0.4030801903762058
 50
219.9574001683351128
 51
228.0029673809713984
  0
ARC
  5
1CB55
  8
0
 10
4596.3640821442286324
 20
486.1712844547442955
 30
0.0
 40
0.2164082282885729
 50
218.7737836850434121
 51
229.2262157028787897
  0
ARC
  5
1CB56
  8
0
 10
4596.0572001211012321
 20
485.8749319329892273
 30
0.0
 40
0.2120259530694901
 50
38.6654552177683328
 51
49.3345441701630634
  0
ARC
  5
1CB57
  8
0
 10
4596.2227342362903073
 20
486.0852254951190048
 30
0.0
 40
0.0314870736149804
 50
201.3264741003650045
 51
217.2147334022573091
  0
ARC
  5
1CB58
  8
0
 10
4596.160500688418324
 20
486.0040316485990957
 30
0.0
 40
0.0771142538233177
 50
58.6587896735666234
 51
64.7433658410631239
  0
ARC
  5
1CB59
  8
0
 10
4596.0941232146278708
 20
485.9035795088387886
 30
0.0
 40
0.1974840613043621
 50
33.5397555923738366
 51
57.3695022692155803
  0
ARC
  5
1CB5A
  8
0
 10
4596.1725388513577855
 20
485.9583110359372995
 30
0.0
 40
0.101910205705252
 50
26.0690352524458611
 51
32.2504681880333166
  0
ARC
  5
1CB5B
  8
0
 10
4596.2782537487782974
 20
486.0379052417135881
 30
0.0
 40
0.0375839448528445
 50
229.8083421937282935
 51
247.8464929574882945
  0
ARC
  5
1CB5C
  8
0
 10
4595.8398057675685777
 20
485.5109051836424214
 30
0.0
 40
0.6349156574917221
 50
39.4156083269378925
 51
50.5543286074716676
  0
LINE
  5
1CB5D
  8
0
 10
4596.3419517747670398
 20
485.9290703985009259
 30
0.0
 11
4596.3297882511669741
 21
485.9133565866009121
 31
0.0
  0
LINE
  5
1CB5E
  8
0
 10
4596.2589392860372755
 20
485.9878171103384261
 30
0.0
 11
4596.2448631817669593
 21
485.9698005184009162
 31
0.0
  0
LINE
  5
1CB5F
  8
0
 10
4596.2456107980660818
 20
485.9566348026007745
 30
0.0
 11
4596.2851399127657714
 21
485.9164096832008113
 31
0.0
  0
LINE
  5
1CB60
  8
0
 10
4596.2983370808669861
 20
485.9153850833009187
 30
0.0
 11
4596.3171418971387538
 21
485.9295555288420019
 31
0.0
  0
ARC
  5
1CB61
  8
0
 10
4596.2923188015256528
 20
485.9233718899250221
 30
0.0
 40
0.0100004383044488
 50
224.1221334589303922
 51
306.9990339085538267
  0
ARC
  5
1CB62
  8
0
 10
4596.2527432913229859
 20
485.9636439064694855
 30
0.0
 40
0.0099999998542571
 50
142.00001986523759
 51
224.500090996624408
  0
ARC
  5
1CB63
  8
0
 10
4596.3381914832161783
 20
485.9070237228601741
 30
0.0
 40
0.010522332062107
 50
142.9975029939361093
 51
222.9158364213149071
  0
LINE
  5
1CB64
  8
0
 10
4596.3995474761659352
 20
485.8713802523009235
 30
0.0
 11
4596.3834961297661721
 21
485.8591779613008157
 31
0.0
  0
ARC
  5
1CB65
  8
0
 10
4596.3772088661589805
 20
485.8676296283547913
 30
0.0
 40
0.0105337723381875
 50
224.9472602315404117
 51
306.6458580892531245
  0
ARC
  5
1CB66
  8
0
 10
4596.6442209885599368
 20
486.1711392915332226
 30
0.0
 40
0.4147566884256512
 50
220.8492727580652968
 51
228.5661127998504867
  0
ARC
  5
1CB67
  8
0
 10
4596.5038947120210651
 20
486.032240320564199
 30
0.0
 40
0.2169164824383886
 50
219.5421773223916091
 51
229.957819652395699
  0
ARC
  5
1CB68
  8
0
 10
4596.1970322571296492
 20
485.7280441449830164
 30
0.0
 40
0.2169619983309907
 50
39.5432728753729634
 51
49.9567240994224022
  0
ARC
  5
1CB69
  8
0
 10
4595.9812241405079476
 20
485.369481409788591
 30
0.0
 40
0.6349194973768322
 50
39.427428619504667
 51
50.5725702253483718
  0
LINE
  5
1CB6A
  8
0
 10
4596.4831229882665866
 20
485.787804731800918
 30
0.0
 11
4596.470920700867282
 21
485.7717533901007982
 31
0.0
  0
LINE
  5
1CB6B
  8
0
 10
4596.400121088448941
 20
485.8466062521038111
 30
0.0
 11
4596.3859957033673709
 21
485.828197691800824
 31
0.0
  0
LINE
  5
1CB6C
  8
0
 10
4596.4583489910583012
 20
485.7883783483503066
 30
0.0
 11
4596.4399404314672211
 21
485.7742529638009046
 31
0.0
  0
LINE
  5
1CB6D
  8
0
 10
4596.3868581965671183
 20
485.8150389924007868
 30
0.0
 11
4596.426781731966912
 21
485.7751154569007781
 31
0.0
  0
ARC
  5
1CB6E
  8
0
 10
4596.3939292409158952
 20
485.8221100833231958
 30
0.0
 40
0.0099999997506131
 50
142.5000408808876955
 51
225.000188689957497
  0
ARC
  5
1CB6F
  8
0
 10
4596.4338528229000076
 20
485.782186501640922
 30
0.0
 40
0.0100000000355705
 50
224.9998128485214863
 51
307.499958504559288
  0
ARC
  5
1CB70
  8
0
 10
4595.868788304969712
 20
486.4383008546107021
 30
0.0
 40
0.0086022898320633
 50
76.2697298616201635
 51
201.7923859587587003
  0
ARC
  5
1CB71
  8
0
 10
4595.8387309004201597
 20
486.3475784262877255
 30
0.0
 40
0.1041488585122312
 50
23.17666155958063
 51
72.0489280010805402
  0
ARC
  5
1CB72
  8
0
 10
4595.9278129144258855
 20
486.3935027960533262
 30
0.0
 40
0.0228198677600983
 50
233.9953020167147884
 51
294.3709471271120037
  0
ARC
  5
1CB73
  8
0
 10
4595.9058808532972762
 20
486.3754335156967841
 30
0.0
 40
0.031466047973019
 50
355.0461858063279124
 51
24.671721884767269
  0
ARC
  5
1CB74
  8
0
 10
4595.8587526760311448
 20
486.4160591015046862
 30
0.0
 40
0.010944139424912
 50
140.0226114446998054
 51
210.9063666724688062
  0
ARC
  5
1CB75
  8
0
 10
4595.8949230049611288
 20
486.3753933568410162
 30
0.0
 40
0.0111769885001888
 50
229.6992329502710106
 51
302.4092172904449853
  0
ARC
  5
1CB76
  8
0
 10
4596.0167981525728464
 20
486.51909969793968
 30
0.0
 40
0.1996048635007068
 50
212.9826512649923984
 51
229.6992329502710106
  0
ARC
  5
1CB77
  8
0
 10
4595.9492120180857455
 20
486.4596151962999784
 30
0.0
 40
0.1086886690167939
 50
211.0002929505274096
 51
231.9997075247694056
  0
ARC
  5
1CB78
  8
0
 10
4595.7887363847339657
 20
486.3176383479403171
 30
0.0
 40
0.1092081782569899
 50
31.0508032407154211
 51
51.94919723455601
  0
ARC
  5
1CB79
  8
0
 10
4596.3669549650539921
 20
485.9474032638809149
 30
0.0
 40
0.0362102317117968
 50
202.1222299650951868
 51
218.5998797154354065
  0
ARC
  5
1CB7A
  8
0
 10
4596.2989434874889412
 20
485.8609708987526119
 30
0.0
 40
0.0805434953331817
 50
57.7255123293115702
 51
64.6637582746303252
  0
ARC
  5
1CB7B
  8
0
 10
4596.2435043915811548
 20
485.7731884052648184
 30
0.0
 40
0.1843667081426028
 50
32.1806116687412214
 51
57.7255123293115702
  0
ARC
  5
1CB7C
  8
0
 10
4596.3335074437118237
 20
485.8298238271484024
 30
0.0
 40
0.0780270617042126
 50
25.2345636738771688
 51
32.1806116687412214
  0
ARC
  5
1CB7D
  8
0
 10
4596.4174175593143445
 20
485.8960466738807895
 30
0.0
 40
0.035551282818655
 50
231.6099124732226073
 51
247.9801333371364933
  0
LINE
  5
1CB7E
  8
0
 10
4596.4359027894670362
 20
485.8847764042009203
 30
0.0
 11
4596.4139939753658837
 21
485.8561920931007876
 31
0.0
  0
LINE
  5
1CB7F
  8
0
 10
4596.496524506465903
 20
485.824164160200894
 30
0.0
 11
4596.4679348327672415
 21
485.8022512358008953
 31
0.0
  0
ARC
  5
1CB80
  8
0
 10
4596.4231344612717294
 20
485.8495974475420098
 30
0.0
 40
0.0112711060964849
 50
144.1904379412841877
 51
218.8793219177551919
  0
ARC
  5
1CB81
  8
0
 10
4596.4613292839421774
 20
485.8114190596111825
 30
0.0
 40
0.011299657901993
 50
230.6183792329786115
 51
305.7732920352090105
  0
ARC
  5
1CB82
  8
0
 10
4596.5896611467142066
 20
485.9778566662652111
 30
0.0
 40
0.221462564940809
 50
217.6684673697320136
 51
232.2767962827983013
  0
ARC
  5
1CB83
  8
0
 10
4596.5118545268151138
 20
485.9001117924257187
 30
0.0
 40
0.1106662914848536
 50
214.7093913308669073
 51
235.2906092839388066
  0
ARC
  5
1CB84
  8
0
 10
4596.3590197516969056
 20
485.7472770156667821
 30
0.0
 40
0.1090616337644532
 50
34.5562957512072302
 51
55.4437048635798888
  0
ARC
  5
1CB85
  8
0
 10
4596.4393675813289519
 20
485.8771737080214166
 30
0.0
 40
0.0180733810076483
 50
149.9642760582877088
 51
208.4485887973999922
  0
ARC
  5
1CB86
  8
0
 10
4596.4268941805758004
 20
485.8608793280866962
 30
0.0
 40
0.0255387016298659
 50
69.3447931201646242
 51
97.1369607099944261
  0
ARC
  5
1CB87
  8
0
 10
4596.3983301676298652
 20
485.7865761924537082
 30
0.0
 40
0.1051426816228068
 50
20.9464259873633303
 51
69.0625279875028895
  0
ARC
  5
1CB88
  8
0
 10
4596.472466114609233
 20
485.8151788381799747
 30
0.0
 40
0.0256815542867613
 50
352.8350863417770142
 51
20.4796416823418284
  0
ARC
  5
1CB89
  8
0
 10
4596.4889143258142212
 20
485.8276005786692053
 30
0.0
 40
0.0180479554150676
 50
241.5250159884407992
 51
300.0323554049680865
  0
LINE
  5
1CB8A
  8
0
 10
4596.0125180404666025
 20
486.3067787349008881
 30
0.0
 11
4595.9911921100683685
 21
486.2813354330007769
 31
0.0
  0
LINE
  5
1CB8B
  8
0
 10
4596.0744999794669639
 20
486.2473137797007894
 30
0.0
 11
4596.0427287675665866
 21
486.2250930406008251
 31
0.0
  0
ARC
  5
1CB8C
  8
0
 10
4596.0833136857763748
 20
486.3140156908503968
 30
0.0
 40
0.1005972618647562
 50
211.1552789270683945
 51
233.8447112990047003
  0
ARC
  5
1CB8D
  8
0
 10
4595.9314468344246052
 20
486.1748553844877847
 30
0.0
 40
0.109160222475451
 50
32.0556363823581165
 51
52.9443538437175505
  0
ARC
  5
1CB8E
  8
0
 10
4596.0000264808122665
 20
486.2743547236208883
 30
0.0
 40
0.0112595030937658
 50
141.6850493966987017
 51
216.0843023859881953
  0
ARC
  5
1CB8F
  8
0
 10
4596.036576468371095
 20
486.2343316182469266
 30
0.0
 40
0.0110996442430029
 50
230.7773044998785963
 51
303.6610652463517113
  0
ARC
  5
1CB90
  8
0
 10
4596.1678779594931257
 20
486.3917508712083873
 30
0.0
 40
0.2160890571848312
 50
215.0272336344945074
 51
230.2001736913084926
  0
ARC
  5
1CB91
  8
0
 10
4596.0154118614727849
 20
486.2990093747915807
 30
0.0
 40
0.0157181471558685
 50
146.6266944062782045
 51
202.7331669275775994
  0
ARC
  5
1CB92
  8
0
 10
4596.0054936174101385
 20
486.2849549122645954
 30
0.0
 40
0.0229264422388113
 50
72.1582159631232116
 51
98.0436701837030853
  0
ARC
  5
1CB93
  8
0
 10
4595.9824698215634271
 20
486.2134234522469001
 30
0.0
 40
0.098071934102863
 50
20.2163512499746609
 51
72.1582159631232116
  0
ARC
  5
1CB94
  8
0
 10
4596.0427564605297448
 20
486.2356241523460199
 30
0.0
 40
0.0338274796900939
 50
356.2493235535230838
 51
20.2163512499746609
  0
ARC
  5
1CB95
  8
0
 10
4596.0672240025405699
 20
486.2516741813068961
 30
0.0
 40
0.020488754810863
 50
237.1743036771075879
 51
296.955392420563328
  0
LINE
  5
1CB96
  8
0
 10
4596.1537563198671705
 20
486.1664370834009219
 30
0.0
 11
4596.1320239669657894
 21
486.139570006900783
 31
0.0
  0
LINE
  5
1CB97
  8
0
 10
4596.2148699672670773
 20
486.1062505598009125
 30
0.0
 11
4596.1845343356671947
 21
486.0842356240008257
 31
0.0
  0
ARC
  5
1CB98
  8
0
 10
4596.1407732116040279
 20
486.1328179311107078
 30
0.0
 40
0.0110516880699776
 50
142.3414665590605921
 51
213.4029926561431978
  0
ARC
  5
1CB99
  8
0
 10
4596.1782376471546741
 20
486.0932733217479722
 30
0.0
 40
0.0110149111109005
 50
232.9004670798902907
 51
304.8654580009567212
  0
ARC
  5
1CB9A
  8
0
 10
4596.3020633165169784
 20
486.2482690299186174
 30
0.0
 40
0.2093958721231805
 50
215.4793393263620089
 51
231.458771975661989
  0
ARC
  5
1CB9B
  8
0
 10
4596.2311512592523286
 20
486.1810559425513816
 30
0.0
 40
0.1108725026279045
 50
213.2250566080541887
 51
233.7749535825936107
  0
ARC
  5
1CB9C
  8
0
 10
4596.0741899200756961
 20
486.0321051668008181
 30
0.0
 40
0.1090996514283834
 50
33.0562318723307627
 51
53.9437783183086594
  0
ARC
  5
1CB9D
  8
0
 10
4596.1567437427665936
 20
486.1587706715515083
 30
0.0
 40
0.0169602728684539
 50
148.4355347405519865
 51
206.1192621606523119
  0
ARC
  5
1CB9E
  8
0
 10
4596.1455352215780295
 20
486.1434897388922991
 30
0.0
 40
0.0243755426007388
 50
70.2894675464075078
 51
97.6443176832614768
  0
ARC
  5
1CB9F
  8
0
 10
4596.1168614195539703
 20
486.0678530593617097
 30
0.0
 40
0.1052617853966118
 50
21.3941063374661091
 51
69.4817250157418869
  0
ARC
  5
1CBA0
  8
0
 10
4596.190086443059954
 20
486.0965409436111031
 30
0.0
 40
0.0266176580236204
 50
353.2322575318503937
 51
21.3941063374661091
  0
ARC
  5
1CBA1
  8
0
 10
4596.2073531592850486
 20
486.110209619259706
 30
0.0
 40
0.019142318614059
 50
239.423785148097096
 51
298.6074942551089748
  0
LINE
  5
1CBA2
  8
0
 10
4596.2949142924662738
 20
486.0260517612009039
 30
0.0
 11
4596.272861951766572
 21
485.9977943778009148
 31
0.0
  0
LINE
  5
1CBA3
  8
0
 10
4596.3552433192671742
 20
485.9651479246008989
 30
0.0
 11
4596.3263300387670824
 21
485.9433848572008969
 31
0.0
  0
ARC
  5
1CBA4
  8
0
 10
4596.2817349091819779
 20
485.9911439279492811
 30
0.0
 40
0.0110886363684203
 50
143.1477456701092876
 51
217.5790578366010095
  0
ARC
  5
1CBA5
  8
0
 10
4596.3198740549732975
 20
485.9523676340854195
 30
0.0
 40
0.0110620977803074
 50
233.8034187376140949
 51
305.7050633649761266
  0
ARC
  5
1CBA6
  8
0
 10
4596.4432409272876612
 20
486.112003626780222
 30
0.0
 40
0.2128084353225363
 50
216.8487331722502063
 51
232.3810900889253901
  0
ARC
  5
1CBA7
  8
0
 10
4596.3712355413981641
 20
486.0409895113655807
 30
0.0
 40
0.1108506603374891
 50
214.2260950921879896
 51
234.773898352503096
  0
ARC
  5
1CBA8
  8
0
 10
4596.2169806239826357
 20
485.8894036435456201
 30
0.0
 40
0.1090049403152322
 50
34.0501948293091701
 51
54.949798615397782
  0
ARC
  5
1CBA9
  8
0
 10
4596.298176169440012
 20
486.0185666979036796
 30
0.0
 40
0.018286869591747
 50
150.2479515997698911
 51
208.9246173702364899
  0
ARC
  5
1CBAA
  8
0
 10
4596.2854724716298733
 20
486.0019740318059007
 30
0.0
 40
0.0258628117867267
 50
68.5879091001905437
 51
97.0462771683785661
  0
ARC
  5
1CBAB
  8
0
 10
4596.2567367803812886
 20
485.9279028287660935
 30
0.0
 40
0.1053125603489393
 50
20.7114899603236609
 51
68.7451931889584813
  0
ARC
  5
1CBAC
  8
0
 10
4596.3338643574479647
 20
485.9568186339971021
 30
0.0
 40
0.0229442169280821
 50
351.4505471648066077
 51
21.2859978278289894
  0
ARC
  5
1CBAD
  8
0
 10
4596.3475305689189554
 20
485.9687819910348026
 30
0.0
 40
0.0178265219111098
 50
241.9970870074201912
 51
300.4082933337276131
  0
LINE
  5
1CBAE
  8
0
 10
4597.3189514720743318
 20
484.9253721237625996
 30
0.0
 11
4597.3151029251530417
 21
484.9292206706822981
 31
0.0
  0
LINE
  5
1CBAF
  8
0
 10
4597.1777632369203275
 20
485.0665603589059174
 30
0.0
 11
4597.1743843752446992
 21
485.0699392205805793
 31
0.0
  0
LINE
  5
1CBB0
  8
0
 10
4597.0365651414685999
 20
485.2077584543458215
 30
0.0
 11
4597.0343815333999373
 21
485.2099420624144841
 31
0.0
  0
LINE
  5
1CBB1
  8
0
 10
4596.8953574300348919
 20
485.3489661657679903
 30
0.0
 11
4596.8943700903955687
 21
485.349953505407484
 31
0.0
  0
LINE
  5
1CBB2
  8
0
 10
4596.7541403295754208
 20
485.4901832662180823
 30
0.0
 11
4596.753655840429019
 21
485.4906677553643135
 31
0.0
  0
LINE
  5
1CBB3
  8
0
 10
4597.3856926646149077
 20
484.8825854553559225
 30
0.0
 11
4597.3755337399516065
 21
484.8729475863883067
 31
0.0
  0
LINE
  5
1CBB4
  8
0
 10
4597.3869668896522853
 20
484.8802106275887809
 30
0.0
 11
4597.3843662117033091
 21
484.8813270367940049
 31
0.0
  0
ARC
  5
1CBB5
  8
0
 10
4597.2541426499219597
 20
484.8104724150655898
 30
0.0
 40
0.1500189886174023
 50
27.7013281472885105
 51
43.395101755498672
  0
ARC
  5
1CBB6
  8
0
 10
4597.21445157193466
 20
484.7784908607192733
 30
0.0
 40
0.200872420043083
 50
42.2455538117228713
 51
54.9743309869108003
  0
LINE
  5
1CBB7
  8
0
 10
4597.3297409648503162
 20
484.9429842800865913
 30
0.0
 11
4597.3162468136497409
 21
484.9209571926861031
 31
0.0
  0
ARC
  5
1CBB8
  8
0
 10
4597.3676851251921107
 20
484.9746788228101764
 30
0.0
 40
0.0566355547745628
 50
204.8382809369024926
 51
222.3099718052970957
  0
ARC
  5
1CBB9
  8
0
 10
4597.2727949326581438
 20
484.8614665964606729
 30
0.0
 40
0.0994383393171048
 50
55.0628995386579518
 51
64.0623625516267623
  0
ARC
  5
1CBBA
  8
0
 10
4597.3684826763383171
 20
484.8805144347264786
 30
0.0
 40
0.010342857045432
 50
239.5017138608303071
 51
312.9791893008631973
  0
ARC
  5
1CBBB
  8
0
 10
4597.4139653012171038
 20
484.9552218216068127
 30
0.0
 40
0.0978053686101417
 50
231.8133800473266035
 51
238.7548339945925875
  0
ARC
  5
1CBBC
  8
0
 10
4597.3251563656476719
 20
484.9156425254034843
 30
0.0
 40
0.0103742857642063
 50
149.1833566704468979
 51
221.4611682303336977
  0
ARC
  5
1CBBD
  8
0
 10
4597.3493445492003957
 20
484.9365006736646251
 30
0.0
 40
0.0423132024586398
 50
220.9410549805243988
 51
227.5379169839164035
  0
ARC
  5
1CBBE
  8
0
 10
4597.6542703306431576
 20
485.2770180890530014
 30
0.0
 40
0.4994015753206285
 50
228.1038711285800105
 51
232.9679048757089106
  0
ARC
  5
1CBBF
  8
0
 10
4597.4780768335713219
 20
485.0601892019145112
 30
0.0
 40
0.2196112273941822
 50
225.8560798879892957
 51
236.1439214990230937
  0
ARC
  5
1CBC0
  8
0
 10
4597.2042033456045829
 20
484.7219836020050252
 30
0.0
 40
0.2173561845260094
 50
45.8025662568428515
 51
56.1974351301846582
  0
ARC
  5
1CBC1
  8
0
 10
4597.3324122805570369
 20
484.9748951680576852
 30
0.0
 40
0.0066002382552536
 50
255.283094618744002
 51
11.0283707955601393
  0
LINE
  5
1CBC2
  8
0
 10
4597.3388906294494518
 20
484.9761577608870198
 30
0.0
 11
4597.3183121820493398
 21
484.9569887786860818
 31
0.0
  0
LINE
  5
1CBC3
  8
0
 10
4597.282196626246332
 20
485.0419578642847114
 30
0.0
 11
4597.2594496168467231
 21
485.0055113329838719
 31
0.0
  0
ARC
  5
1CBC4
  8
0
 10
4597.2730392443600067
 20
484.9641373134580249
 30
0.0
 40
0.0669394956249197
 50
10.3448208536642898
 51
35.6203006567255827
  0
ARC
  5
1CBC5
  8
0
 10
4597.2363058736809762
 20
484.9426883185473116
 30
0.0
 40
0.1093636314403139
 50
33.5461660710392096
 51
65.1896403870260883
  0
ARC
  5
1CBC6
  8
0
 10
4597.2627193093012465
 20
484.998614806382875
 30
0.0
 40
0.0475182758909182
 50
65.8020078328348461
 51
81.1669169193053932
  0
ARC
  5
1CBC7
  8
0
 10
4597.2688848329871689
 20
485.0384867221625882
 30
0.0
 40
0.0071725535353218
 50
80.9257612997237743
 51
166.1995588841865867
  0
ARC
  5
1CBC8
  8
0
 10
4597.2959535884492652
 20
485.0398885345917961
 30
0.0
 40
0.0340356588209659
 50
179.4795932866404939
 51
216.0015752573146983
  0
ARC
  5
1CBC9
  8
0
 10
4597.3540461575357767
 20
485.0606092849461106
 30
0.0
 40
0.1131175770008857
 50
220.5024802104931041
 51
240.7124185596532016
  0
ARC
  5
1CBCA
  8
0
 10
4597.2166814942092969
 20
484.893334470237221
 30
0.0
 40
0.1069432470014556
 50
39.9123963849369474
 51
61.3025023852130815
  0
ARC
  5
1CBCB
  8
0
 10
4597.3110314531395488
 20
484.9650635263515142
 30
0.0
 40
0.0108724681337857
 50
243.3914338684043059
 51
312.0399198969648182
  0
ARC
  5
1CBCC
  8
0
 10
4597.268833657977666
 20
484.9998723993332987
 30
0.0
 40
0.0109479587444297
 50
148.9980580862896034
 51
220.2391946652836054
  0
ARC
  5
1CBCD
  8
0
 10
4597.4126364506200844
 20
485.1317934658796958
 30
0.0
 40
0.2060868080768664
 50
222.4106940551397997
 51
238.8922097271716041
  0
LINE
  5
1CBCE
  8
0
 10
4597.304288248087687
 20
484.9420282099583801
 30
0.0
 11
4597.2903120085502451
 21
484.9289951557850031
 31
0.0
  0
LINE
  5
1CBCF
  8
0
 10
4597.2461005754839789
 20
485.0009745719689249
 30
0.0
 11
4597.2314452574482857
 21
484.9775211605827963
 31
0.0
  0
LINE
  5
1CBD0
  8
0
 10
4597.2771312332497473
 20
484.9285924593845039
 30
0.0
 11
4597.2336158063490075
 21
484.9644638090828153
 31
0.0
  0
ARC
  5
1CBD1
  8
0
 10
4597.2834920275681725
 20
484.9363086950285151
 30
0.0
 40
0.0099999998432336
 50
230.4999093023276941
 51
312.9999803252676998
  0
ARC
  5
1CBD2
  8
0
 10
4597.2399261930595458
 20
484.9722218799519737
 30
0.0
 40
0.0100004321939586
 50
148.0009528442834039
 51
230.8752187807388907
  0
ARC
  5
1CBD3
  8
0
 10
4596.8197205883679999
 20
484.5218898998895725
 30
0.0
 40
0.6413439143193395
 50
39.428934242461132
 51
49.940045821628928
  0
ARC
  5
1CBD4
  8
0
 10
4597.2268206167191238
 20
485.0216031613975929
 30
0.0
 40
0.0105035377837568
 50
233.2414542966982935
 51
311.6841653005341755
  0
LINE
  5
1CBD5
  8
0
 10
4597.1884666199448475
 20
485.083366297581108
 30
0.0
 11
4597.1753657112458313
 21
485.0627958790806247
 31
0.0
  0
LINE
  5
1CBD6
  8
0
 10
4597.245435045447266
 20
485.0244123203833055
 30
0.0
 11
4597.2338057212482454
 21
485.0137588882827799
 31
0.0
  0
ARC
  5
1CBD7
  8
0
 10
4597.1842406654686783
 20
485.0573258868581092
 30
0.0
 40
0.0104252399203855
 50
148.3527971859992931
 51
221.182899851026292
  0
ARC
  5
1CBD8
  8
0
 10
4597.4468699035087411
 20
485.3259960122647954
 30
0.0
 40
0.3861040702708431
 50
225.5308934041094062
 51
234.1120324685687137
  0
ARC
  5
1CBD9
  8
0
 10
4597.3398340041940173
 20
485.1994600517480762
 30
0.0
 40
0.2199801391461184
 50
224.8398080358770983
 51
235.1601960408659977
  0
ARC
  5
1CBDA
  8
0
 10
4597.0594382133485851
 20
484.8652973365179832
 30
0.0
 40
0.218029405903131
 50
44.7935122794751024
 51
55.2064917972683418
  0
ARC
  5
1CBDB
  8
0
 10
4597.2572505833650212
 20
485.0428818076778725
 30
0.0
 40
0.0256623577516764
 50
235.2597405332217022
 51
249.7632233926422032
  0
ARC
  5
1CBDC
  8
0
 10
4597.1645968772263586
 20
484.9784798752364168
 30
0.0
 40
0.0929763354764496
 50
25.7024954950361497
 51
34.5397039574111417
  0
ARC
  5
1CBDD
  8
0
 10
4597.0767068738541639
 20
484.9179850334123785
 30
0.0
 40
0.1996734703015778
 50
34.5397039574111417
 51
52.0306416085566426
  0
ARC
  5
1CBDE
  8
0
 10
4597.1230125217944078
 20
484.9806220971291282
 30
0.0
 40
0.1218220410728357
 50
51.0747891912177394
 51
63.3283625947794278
  0
ARC
  5
1CBDF
  8
0
 10
4597.2154194570739492
 20
485.1050835068645029
 30
0.0
 40
0.040822934221165
 50
202.4692261784834102
 51
221.7773060287005933
  0
ARC
  5
1CBE0
  8
0
 10
4596.6790745608459474
 20
484.6626744261131989
 30
0.0
 40
0.6412459941805353
 50
39.4284963792774903
 51
50.0040051306619588
  0
LINE
  5
1CBE1
  8
0
 10
4597.1632970299933731
 20
485.0830611830713792
 30
0.0
 11
4597.1485789687440047
 21
485.0698089812794933
 31
0.0
  0
LINE
  5
1CBE2
  8
0
 10
4597.1051869694811103
 20
485.1418660790657782
 30
0.0
 11
4597.0905680789419421
 21
485.119354961777276
 31
0.0
  0
LINE
  5
1CBE3
  8
0
 10
4597.1353931729454416
 20
485.0696363824790183
 30
0.0
 11
4597.0925105341439121
 21
485.1062616159774166
 31
0.0
  0
ARC
  5
1CBE4
  8
0
 10
4597.1418876653624466
 20
485.077240431680309
 30
0.0
 40
0.0099999998007754
 50
229.4999091023541098
 51
311.9999803569991741
  0
ARC
  5
1CBE5
  8
0
 10
4597.0852312859369704
 20
485.1624234383518228
 30
0.0
 40
0.0104075142779258
 50
232.5888162987050123
 51
311.0575035415091065
  0
ARC
  5
1CBE6
  8
0
 10
4597.0989552398559681
 20
485.113908475067376
 30
0.0
 40
0.0100004342741178
 50
147.000957509562113
 51
229.8761047482360027
  0
LINE
  5
1CBE7
  8
0
 10
4597.1986880334434318
 20
485.117689658981476
 30
0.0
 11
4597.1765779924453454
 21
485.0978033269806247
 31
0.0
  0
LINE
  5
1CBE8
  8
0
 10
4597.1412689652397603
 20
485.1823386164792851
 30
0.0
 11
4597.1185712402420904
 21
485.1473457736782962
 31
0.0
  0
ARC
  5
1CBE9
  8
0
 10
4597.1694844142539296
 20
485.1058796320347142
 30
0.0
 40
0.0107492118246994
 50
245.0522600794789128
 51
311.2934761439967133
  0
ARC
  5
1CBEA
  8
0
 10
4597.1906914783985485
 20
485.1489120870390934
 30
0.0
 40
0.0587212784757004
 50
231.8918718468947873
 51
244.0007865959084938
  0
ARC
  5
1CBEB
  8
0
 10
4597.127586278182207
 20
485.1416349636443215
 30
0.0
 40
0.0106716568686272
 50
147.64672343201849
 51
209.3024658739506094
  0
ARC
  5
1CBEC
  8
0
 10
4597.1485978817318028
 20
485.1545485924415857
 30
0.0
 40
0.0353285103976532
 50
210.8884778219301097
 51
225.3936507380327043
  0
ARC
  5
1CBED
  8
0
 10
4597.3195301770520018
 20
485.3233218744060764
 30
0.0
 40
0.2755387852724059
 50
224.7330174256620126
 51
233.1937270864002016
  0
ARC
  5
1CBEE
  8
0
 10
4597.2130492716723893
 20
485.199448758765584
 30
0.0
 40
0.1114194581917608
 50
219.3284054554949023
 51
239.8240701704085041
  0
ARC
  5
1CBEF
  8
0
 10
4597.0732962798074368
 20
485.0353774610089772
 30
0.0
 40
0.1077207594441391
 50
38.9725331246872031
 51
60.1799425012479432
  0
ARC
  5
1CBF0
  8
0
 10
4597.1917953629363183
 20
485.1153088276158769
 30
0.0
 40
0.0072922743168738
 50
244.8823580196898035
 51
19.055677163400361
  0
ARC
  5
1CBF1
  8
0
 10
4597.1001171642437839
 20
485.0879656079487745
 30
0.0
 40
0.1029550167028966
 50
16.7806879768203387
 51
66.4401612900990131
  0
ARC
  5
1CBF2
  8
0
 10
4597.1276463093481652
 20
485.1558125439120772
 30
0.0
 40
0.0298196123282028
 50
62.8169076337815468
 51
96.1315118118084371
  0
ARC
  5
1CBF3
  8
0
 10
4597.1468166281019876
 20
485.1760426417009739
 30
0.0
 40
0.0242585894652076
 50
157.1529895879727121
 51
217.5741003490597905
  0
LINE
  5
1CBF4
  8
0
 10
4597.1044777940405766
 20
485.1655527038777791
 30
0.0
 11
4597.0920671093417695
 21
485.1545756442773154
 31
0.0
  0
LINE
  5
1CBF5
  8
0
 10
4597.0474689844240856
 20
485.2242371974057278
 30
0.0
 11
4597.0344918164391856
 21
485.204625082875225
 31
0.0
  0
ARC
  5
1CBF6
  8
0
 10
4597.0430138766951131
 20
485.1989971404340167
 30
0.0
 40
0.01021270028533
 50
146.5593499076607884
 51
219.1811612517188905
  0
ARC
  5
1CBF7
  8
0
 10
4597.3040491820638636
 20
485.4552947276745272
 30
0.0
 40
0.375995251239442
 50
224.3317078501985975
 51
233.2169821781544954
  0
ARC
  5
1CBF8
  8
0
 10
4597.2005790077655547
 20
485.3375454092603718
 30
0.0
 40
0.2188518592135611
 50
223.820277227201899
 51
234.1797196785911979
  0
ARC
  5
1CBF9
  8
0
 10
4596.9156782385343831
 20
485.0098045830176261
 30
0.0
 40
0.2172032166078461
 50
43.7808527794509885
 51
54.2191441263435934
  0
ARC
  5
1CBFA
  8
0
 10
4597.1171998412428366
 20
485.1849860007794177
 30
0.0
 40
0.0271963788123835
 50
234.5382662176359929
 51
249.4645542490117123
  0
ARC
  5
1CBFB
  8
0
 10
4597.0248051555117854
 20
485.1196689174724952
 30
0.0
 40
0.0919404763146091
 50
25.9205699780633694
 51
33.888803889246951
  0
ARC
  5
1CBFC
  8
0
 10
4596.9403154396286482
 20
485.062918146528375
 30
0.0
 40
0.1937204453310032
 50
33.8888038892442367
 51
54.6539188437393975
  0
ARC
  5
1CBFD
  8
0
 10
4596.9833613955988767
 20
485.1236105687955273
 30
0.0
 40
0.1193126201643511
 50
54.6539188437393975
 51
63.294341624086897
  0
ARC
  5
1CBFE
  8
0
 10
4597.0778479987893661
 20
485.2478405805983925
 30
0.0
 40
0.0445131771242891
 50
203.3530396762564862
 51
220.454003574690887
  0
LINE
  5
1CBFF
  8
0
 10
4597.0584000638382349
 20
485.2590873308761275
 30
0.0
 11
4597.0348332892390317
 21
485.2386234636750828
 31
0.0
  0
LINE
  5
1CC00
  8
0
 10
4597.0003107700349574
 20
485.3227317615737775
 30
0.0
 11
4596.9777000165368008
 21
485.2891707133729255
 31
0.0
  0
LINE
  5
1CC01
  8
0
 10
4597.022366875865373
 20
485.2241296678237745
 30
0.0
 11
4597.0068353736387508
 21
485.2106283388740735
 31
0.0
  0
LINE
  5
1CC02
  8
0
 10
4596.9936485737389376
 20
485.2106858902735098
 30
0.0
 11
4596.9514117583394182
 21
485.2480538678719881
 31
0.0
  0
LINE
  5
1CC03
  8
0
 10
4596.94969801573734
 20
485.261179202971789
 30
0.0
 11
4596.9642267326753426
 21
485.2827189115744773
 31
0.0
  0
ARC
  5
1CC04
  8
0
 10
4596.5390243704850946
 20
484.8026339627190282
 30
0.0
 40
0.6413100708149353
 50
39.4287981746644505
 51
50.1593061494197201
  0
ARC
  5
1CC05
  8
0
 10
4596.9436754293392369
 20
485.3032600444842046
 30
0.0
 40
0.0102924684634605
 50
236.3224509457211866
 51
310.1943102801865848
  0
ARC
  5
1CC06
  8
0
 10
4597.0002747860453383
 20
485.2181754368331781
 30
0.0
 40
0.0099999998594195
 50
228.4999088367329136
 51
310.9999802363799972
  0
ARC
  5
1CC07
  8
0
 10
4596.957988846457738
 20
485.2555871691506013
 30
0.0
 40
0.0100004358051727
 50
146.0009599945543073
 51
228.8768130903073086
  0
LINE
  5
1CC08
  8
0
 10
4596.9065993946342132
 20
485.3653280677701787
 30
0.0
 11
4596.8936249628341102
 21
485.3464446795696858
 31
0.0
  0
LINE
  5
1CC09
  8
0
 10
4596.9633246478360888
 20
485.3065037205723797
 30
0.0
 11
4596.9503180015362886
 21
485.2953980382719124
 31
0.0
  0
ARC
  5
1CC0A
  8
0
 10
4596.9752147188319213
 20
485.3252282021845758
 30
0.0
 40
0.0258946435693789
 50
235.0736058198544072
 51
249.7174830059036026
  0
ARC
  5
1CC0B
  8
0
 10
4596.9027842889490785
 20
485.2712585387162108
 30
0.0
 40
0.0700525367005916
 50
25.0678309517284994
 51
30.2069639639671017
  0
ARC
  5
1CC0C
  8
0
 10
4596.7964464924625645
 20
485.2023431676338987
 30
0.0
 40
0.1967174103349507
 50
31.9712262872587907
 51
55.9473126096666888
  0
ARC
  5
1CC0D
  8
0
 10
4596.8565579883461396
 20
485.290321914570427
 30
0.0
 40
0.0901668750767731
 50
56.2902090457709434
 51
64.3702739926961129
  0
ARC
  5
1CC0E
  8
0
 10
4596.9359813206556282
 20
485.388895619372704
 30
0.0
 40
0.0439594198992359
 50
203.1447786511768925
 51
221.1908674886387018
  0
ARC
  5
1CC0F
  8
0
 10
4596.9021078191817651
 20
485.3406788716275173
 30
0.0
 40
0.0102568705288147
 50
145.7960048622776981
 51
216.7341664187304104
  0
ARC
  5
1CC10
  8
0
 10
4597.1534451087418347
 20
485.57735542431152
 30
0.0
 40
0.3554255222829778
 50
223.0907901708617942
 51
232.6810905509643135
  0
ARC
  5
1CC11
  8
0
 10
4597.0609785924398238
 20
485.4753044249500817
 30
0.0
 40
0.2173193062644994
 50
222.7892167852303942
 51
233.21078331238499
  0
ARC
  5
1CC12
  8
0
 10
4596.7711579138458546
 20
485.1534259516969882
 30
0.0
 40
0.2176059348165667
 50
42.7960993296131775
 51
53.2039007680405689
  0
ARC
  5
1CC13
  8
0
 10
4596.3993824559720451
 20
484.943009138999912
 30
0.0
 40
0.6407936294813114
 50
39.4246621063915299
 51
50.3220043486302728
  0
LINE
  5
1CC14
  8
0
 10
4596.8232517096139418
 20
485.4235830993857803
 30
0.0
 11
4596.8088348998326182
 21
485.4029937613664174
 31
0.0
  0
LINE
  5
1CC15
  8
0
 10
4596.8518975341339683
 20
485.3517410960681104
 30
0.0
 11
4596.8103193818324144
 21
485.3898404531665278
 31
0.0
  0
LINE
  5
1CC16
  8
0
 10
4596.8814452531496499
 20
485.3651843812403968
 30
0.0
 11
4596.8650813212343564
 21
485.3514534119685777
 31
0.0
  0
ARC
  5
1CC17
  8
0
 10
4596.858653447908182
 20
485.3591138589051752
 30
0.0
 40
0.0100000001384589
 50
227.4999098228286982
 51
309.9999786128099117
  0
ARC
  5
1CC18
  8
0
 10
4596.8170268746089278
 20
485.3972578840148913
 30
0.0
 40
0.0100004369773646
 50
145.0009627619930086
 51
227.8773433242639044
  0
ARC
  5
1CC19
  8
0
 10
4596.8020434343143279
 20
485.4442724836330854
 30
0.0
 40
0.0103531586703762
 50
234.3842234065004106
 51
308.9972217902354146
  0
LINE
  5
1CC1A
  8
0
 10
4596.8225750945302934
 20
485.4477774532670082
 30
0.0
 11
4596.808558498030834
 21
485.4362262522665219
 31
0.0
  0
LINE
  5
1CC1B
  8
0
 10
4596.7654654560283234
 20
485.5060650594647882
 30
0.0
 11
4596.7527649821277009
 21
485.4882545474642939
 31
0.0
  0
ARC
  5
1CC1C
  8
0
 10
4596.761208377031835
 20
485.4823120780109207
 30
0.0
 40
0.0103249145618988
 50
144.8620802038477962
 51
220.0942265994370075
  0
ARC
  5
1CC1D
  8
0
 10
4597.0304557700837904
 20
485.7301750473754964
 30
0.0
 40
0.3762798328308867
 50
222.5623459358739922
 51
231.4607333171757944
  0
ARC
  5
1CC1E
  8
0
 10
4596.9231544042058886
 20
485.6150450534548781
 30
0.0
 40
0.2185035922932184
 50
221.8216985702956094
 51
232.1783010218167078
  0
ARC
  5
1CC1F
  8
0
 10
4596.6271140319604456
 20
485.2975806236200924
 30
0.0
 40
0.2173625216588821
 50
41.794439609864483
 51
52.2055599822767675
  0
ARC
  5
1CC20
  8
0
 10
4596.8370391562039003
 20
485.4689979609260035
 30
0.0
 40
0.0300617207013302
 50
233.3052012271261901
 51
248.9289644364054936
  0
ARC
  5
1CC21
  8
0
 10
4596.7598052780886064
 20
485.4097882728423201
 30
0.0
 40
0.073370482384658
 50
25.1295956857985416
 51
31.1829190808142513
  0
ARC
  5
1CC22
  8
0
 10
4596.6561533361536931
 20
485.3418405493609953
 30
0.0
 40
0.1972785575526192
 50
32.4790695061362769
 51
56.3512278134958109
  0
ARC
  5
1CC23
  8
0
 10
4596.7194829627860599
 20
485.4356908118555225
 30
0.0
 40
0.0840650011082568
 50
56.8394220635341583
 51
64.5913570773319208
  0
ARC
  5
1CC24
  8
0
 10
4596.7938745792771442
 20
485.5278489551017742
 30
0.0
 40
0.0416148513921884
 50
202.9468874972353092
 51
219.917516398085013
  0
ARC
  5
1CC25
  8
0
 10
4596.2583421014733176
 20
485.0833994262944202
 30
0.0
 40
0.6412512704549808
 50
39.4285176130182933
 51
50.3863401007135465
  0
LINE
  5
1CC26
  8
0
 10
4596.7404584958294436
 20
485.5061653624637756
 30
0.0
 11
4596.7233169129276575
 21
485.4922843823630956
 31
0.0
  0
LINE
  5
1CC27
  8
0
 10
4596.710140154527835
 20
485.4928021113626073
 30
0.0
 11
4596.6692333055270865
 21
485.5316212615609857
 31
0.0
  0
LINE
  5
1CC28
  8
0
 10
4596.6679785612268461
 20
485.5447985172609719
 30
0.0
 11
4596.6822993024252355
 21
485.564509326361474
 31
0.0
  0
ARC
  5
1CC29
  8
0
 10
4596.7170237117470606
 20
485.5000558440726195
 30
0.0
 40
0.0099999999105555
 50
226.4999089797298097
 51
308.9999802940463951
  0
ARC
  5
1CC2A
  8
0
 10
4596.6760691845984184
 20
485.5389205435977829
 30
0.0
 40
0.0100004380371458
 50
144.0009654719131049
 51
226.8776954819138041
  0
LINE
  5
1CC2B
  8
0
 10
4596.6816365112263156
 20
485.5888676595615152
 30
0.0
 11
4596.6667887023259027
 21
485.5770604665609085
 31
0.0
  0
ARC
  5
1CC2C
  8
0
 10
4596.6603650941897286
 20
485.5853059993401075
 30
0.0
 40
0.0104523467356974
 50
229.0077719967792973
 51
307.9200528205504952
  0
LINE
  5
1CC2D
  8
0
 10
4596.6244352449230064
 20
485.6469839636591814
 30
0.0
 11
4596.611911703923397
 21
485.6300545678587923
 31
0.0
  0
ARC
  5
1CC2E
  8
0
 10
4596.6203782984630379
 20
485.6239122739938239
 30
0.0
 40
0.0104599711772483
 50
144.0400922958083925
 51
223.6770125140305936
  0
ARC
  5
1CC2F
  8
0
 10
4596.9123741101166161
 20
485.8863864766253187
 30
0.0
 40
0.4030801903762058
 50
221.9970326212504972
 51
230.0425998339098896
  0
ARC
  5
1CC30
  8
0
 10
4596.7830271943612388
 20
485.7523394046266958
 30
0.0
 40
0.2164082282885729
 50
220.7737842993473976
 51
231.2262163171853899
  0
ARC
  5
1CC31
  8
0
 10
4596.4866746726193014
 20
485.4454573814891774
 30
0.0
 40
0.2120259530694901
 50
40.6654558320592798
 51
51.3345447844386698
  0
ARC
  5
1CC32
  8
0
 10
4596.6969682347416892
 20
485.6109914966854717
 30
0.0
 40
0.0314870736149804
 50
232.7852665999457997
 51
248.673525901827901
  0
ARC
  5
1CC33
  8
0
 10
4596.6157743882249633
 20
485.5487579488092251
 30
0.0
 40
0.0771142538233177
 50
25.2566341611411502
 51
31.3412103286365209
  0
ARC
  5
1CC34
  8
0
 10
4596.5153222484668731
 20
485.482380475015475
 30
0.0
 40
0.1974840613043621
 50
32.6304977329856669
 51
56.4602444098248526
  0
ARC
  5
1CC35
  8
0
 10
4596.5700537755628829
 20
485.5607961117477771
 30
0.0
 40
0.101910205705252
 50
57.7495318141888987
 51
63.930964749785602
  0
ARC
  5
1CC36
  8
0
 10
4596.6496479813349652
 20
485.6665110091716997
 30
0.0
 40
0.0375839448528445
 50
202.1535070447338001
 51
220.1916578085121046
  0
ARC
  5
1CC37
  8
0
 10
4596.1226479232809652
 20
485.2280630279424258
 30
0.0
 40
0.6349156574917221
 50
39.4456713947181115
 51
50.5843916752800098
  0
LINE
  5
1CC38
  8
0
 10
4596.5408131381200292
 20
485.7302090351560082
 30
0.0
 11
4596.5250993262188786
 21
485.7180455115553741
 31
0.0
  0
LINE
  5
1CC39
  8
0
 10
4596.5995598499603148
 20
485.6471965464288019
 30
0.0
 11
4596.5815432580229754
 21
485.6331204421575762
 31
0.0
  0
LINE
  5
1CC3A
  8
0
 10
4596.5683775422221515
 20
485.6338680584570966
 30
0.0
 11
4596.5281524228221315
 21
485.6733971731554789
 31
0.0
  0
LINE
  5
1CC3B
  8
0
 10
4596.5271278229211021
 20
485.6865943412556135
 30
0.0
 11
4596.5412982684611052
 21
485.7053991575281202
 31
0.0
  0
ARC
  5
1CC3C
  8
0
 10
4596.5351146295461149
 20
485.6805760619145076
 30
0.0
 40
0.0100004383044488
 50
143.0009660936673868
 51
225.8778665432670891
  0
ARC
  5
1CC3D
  8
0
 10
4596.5753866460918289
 20
485.6410005517130912
 30
0.0
 40
0.0099999998542571
 50
225.4999090055704016
 51
307.9999801369980901
  0
ARC
  5
1CC3E
  8
0
 10
4596.5187664624791068
 20
485.7264487436041236
 30
0.0
 40
0.010522332062107
 50
227.0841635808968135
 51
307.0024970082687901
  0
LINE
  5
1CC3F
  8
0
 10
4596.4831229919182078
 20
485.7878047365538237
 30
0.0
 11
4596.4709207009191232
 21
485.7717533901533216
 31
0.0
  0
ARC
  5
1CC40
  8
0
 10
4596.4793723679722461
 20
485.7654661265452773
 30
0.0
 40
0.0105337723381875
 50
143.3541419129576013
 51
225.0527397706634929
  0
ARC
  5
1CC41
  8
0
 10
4596.7828820311397067
 20
486.0324782489583981
 30
0.0
 40
0.4147566884256512
 50
221.4338872023608928
 51
229.150727244152506
  0
ARC
  5
1CC42
  8
0
 10
4596.6439830601757421
 20
485.8921519724137283
 30
0.0
 40
0.2169164824383886
 50
220.0421803498365989
 51
230.4578226798172125
  0
ARC
  5
1CC43
  8
0
 10
4596.3397868846077472
 20
485.5852895175116828
 30
0.0
 40
0.2169619983309907
 50
40.0432759028164327
 51
50.4567271268625319
  0
ARC
  5
1CC44
  8
0
 10
4597.0500435942467448
 20
485.2570455653789168
 30
0.0
 40
0.0086022898320633
 50
248.2076140434517981
 51
13.7302701406112604
  0
ARC
  5
1CC45
  8
0
 10
4596.9593211659248482
 20
485.2269881608249875
 30
0.0
 40
0.1041488585122312
 50
17.9510720011523901
 51
66.8233384426670938
  0
ARC
  5
1CC46
  8
0
 10
4597.0052455356881183
 20
485.3160701748338965
 30
0.0
 40
0.0228198677600983
 50
155.6290528751086129
 51
216.0046979855191864
  0
ARC
  5
1CC47
  8
0
 10
4596.9871762553320877
 20
485.2941381137030135
 30
0.0
 40
0.031466047973019
 50
65.3282781174572165
 51
94.9538141958775554
  0
ARC
  5
1CC48
  8
0
 10
4597.0278018411418088
 20
485.2470099364388716
 30
0.0
 40
0.010944139424912
 50
239.0936333297563863
 51
309.9773885575277177
  0
ARC
  5
1CC49
  8
0
 10
4596.9871360964771156
 20
485.2831802653685145
 30
0.0
 40
0.0111769885001888
 50
147.5907827117567876
 51
220.3007670519590988
  0
ARC
  5
1CC4A
  8
0
 10
4597.1308424375711184
 20
485.4050554129851776
 30
0.0
 40
0.1996048635007068
 50
220.3007670519590988
 51
237.0173487371939132
  0
ARC
  5
1CC4B
  8
0
 10
4597.0713579359326104
 20
485.337469278496485
 30
0.0
 40
0.1086886690167939
 50
218.0002924774317989
 51
238.9997070516822077
  0
ARC
  5
1CC4C
  8
0
 10
4596.9293810875797135
 20
485.1769936451379976
 30
0.0
 40
0.1092081782569899
 50
38.0508027676383591
 51
58.9491967614847212
  0
ARC
  5
1CC4D
  8
0
 10
4596.5591460034993361
 20
485.7552122254436995
 30
0.0
 40
0.0362102317117968
 50
231.4001202867808047
 51
247.8777700371190065
  0
ARC
  5
1CC4E
  8
0
 10
4596.4727136383717152
 20
485.687200747875977
 30
0.0
 40
0.0805434953331817
 50
25.3362417275880389
 51
32.2744876728955603
  0
ARC
  5
1CC4F
  8
0
 10
4596.3849311448866501
 20
485.6317616519643821
 30
0.0
 40
0.1843667081426028
 50
32.2744876728955603
 51
57.8193883334638485
  0
ARC
  5
1CC50
  8
0
 10
4596.4415665667665962
 20
485.7217647040965858
 30
0.0
 40
0.0780270617042126
 50
57.8193883334638485
 51
64.7654363283331804
  0
ARC
  5
1CC51
  8
0
 10
4596.5077894134956296
 20
485.8056748197021193
 30
0.0
 40
0.035551282818655
 50
202.0198666651018868
 51
218.3900875289959913
  0
LINE
  5
1CC52
  8
0
 10
4596.9185214745320991
 20
485.4007753008706914
 30
0.0
 11
4596.8930781726330679
 21
485.379449370469672
 31
0.0
  0
LINE
  5
1CC53
  8
0
 10
4596.8590565193298971
 20
485.4627572398683242
 30
0.0
 11
4596.8368357802310129
 21
485.4309860279674922
 31
0.0
  0
ARC
  5
1CC54
  8
0
 10
4596.9257584304787088
 20
485.4715709461793836
 30
0.0
 40
0.1005972618647562
 50
216.1552887032310082
 51
238.8447210751266141
  0
ARC
  5
1CC55
  8
0
 10
4596.7865981241220652
 20
485.3197040948238055
 30
0.0
 40
0.109160222475451
 50
37.0556461584991368
 51
57.9443636198517211
  0
ARC
  5
1CC56
  8
0
 10
4596.886097463252554
 20
485.3882837412148774
 30
0.0
 40
0.0112595030937658
 50
233.9156976162159935
 51
308.3149506055036113
  0
ARC
  5
1CC57
  8
0
 10
4596.8460743578771144
 20
485.4248337287717732
 30
0.0
 40
0.0110996442430029
 50
146.3389347558550071
 51
219.2226955023288895
  0
ARC
  5
1CC58
  8
0
 10
4597.0034936108331749
 20
485.5561352199001135
 30
0.0
 40
0.2160890571848312
 50
219.7998263109186894
 51
234.9727663677255975
  0
ARC
  5
1CC59
  8
0
 10
4596.9107521144233033
 20
485.403669121876419
 30
0.0
 40
0.0157181471558685
 50
247.2668330746481047
 51
303.373305595954605
  0
ARC
  5
1CC5A
  8
0
 10
4596.89669765189592
 20
485.3937508778137158
 30
0.0
 40
0.0229264422388113
 50
351.9563298185142912
 51
17.8417840390754883
  0
ARC
  5
1CC5B
  8
0
 10
4596.8251661918793616
 20
485.3707270819635937
 30
0.0
 40
0.098071934102863
 50
17.8417840390754883
 51
69.7836487522598077
  0
ARC
  5
1CC5C
  8
0
 10
4596.8473668919759803
 20
485.4310137209312188
 30
0.0
 40
0.0338274796900939
 50
69.7836487522598077
 51
93.7506764487109052
  0
ARC
  5
1CC5D
  8
0
 10
4596.8634169209362881
 20
485.455481262943124
 30
0.0
 40
0.020488754810863
 50
153.0446075816402924
 51
212.8256963250869092
  0
LINE
  5
1CC5E
  8
0
 10
4596.7781798230271306
 20
485.5420135802651771
 30
0.0
 11
4596.7513127465281286
 21
485.5202812273641939
 31
0.0
  0
LINE
  5
1CC5F
  8
0
 10
4596.7179932994231422
 20
485.6031272276629238
 30
0.0
 11
4596.6959783636257271
 21
485.5727915960620749
 31
0.0
  0
ARC
  5
1CC60
  8
0
 10
4596.7445606707369734
 20
485.529030472001125
 30
0.0
 40
0.0110516880699776
 50
236.5970073460509866
 51
307.6585334431508727
  0
ARC
  5
1CC61
  8
0
 10
4596.7050160613716798
 20
485.5664949075506911
 30
0.0
 40
0.0110149111109005
 50
145.1345420012885086
 51
217.0995329223472083
  0
ARC
  5
1CC62
  8
0
 10
4596.8600117695377776
 20
485.6903205769178271
 30
0.0
 40
0.2093958721231805
 50
218.5412280265298079
 51
234.5206606758383998
  0
ARC
  5
1CC63
  8
0
 10
4596.7927986821741797
 20
485.6194085196510741
 30
0.0
 40
0.1108725026279045
 50
216.2250464196224868
 51
236.7749433941658879
  0
ARC
  5
1CC64
  8
0
 10
4596.6438479064299827
 20
485.46244718046961
 30
0.0
 40
0.1090996514283834
 50
36.0562216839043472
 51
56.9437681299121223
  0
ARC
  5
1CC65
  8
0
 10
4596.7705134111765801
 20
485.5450010031656802
 30
0.0
 40
0.0169602728684539
 50
243.8807378415733069
 51
301.5644652616484223
  0
ARC
  5
1CC66
  8
0
 10
4596.7552324785183373
 20
485.5337924819748991
 30
0.0
 40
0.0243755426007388
 50
352.3556823189330203
 51
19.7105324558181714
  0
ARC
  5
1CC67
  8
0
 10
4596.6795957989879753
 20
485.5051186799478842
 30
0.0
 40
0.1052617853966118
 50
20.5182749864979783
 51
68.6058936647221032
  0
ARC
  5
1CC68
  8
0
 10
4596.7082836832360044
 20
485.5783437034556869
 30
0.0
 40
0.0266176580236204
 50
68.6058936647221032
 51
96.767742470363018
  0
ARC
  5
1CC69
  8
0
 10
4596.7219523588828451
 20
485.5956104196811793
 30
0.0
 40
0.019142318614059
 50
151.3925057471209072
 51
210.5762148541193142
  0
LINE
  5
1CC6A
  8
0
 10
4596.6377945008207462
 20
485.6831715528597897
 30
0.0
 11
4596.6095371174224056
 21
485.6611192121587237
 31
0.0
  0
LINE
  5
1CC6B
  8
0
 10
4596.5768906642188085
 20
485.7435005796573932
 30
0.0
 11
4596.5551275968200571
 21
485.7145872991566193
 31
0.0
  0
ARC
  5
1CC6C
  8
0
 10
4596.6028866675706013
 20
485.6699921695732201
 30
0.0
 40
0.0110886363684203
 50
232.4209421656026109
 51
306.8522543320930254
  0
ARC
  5
1CC6D
  8
0
 10
4596.5641103737052617
 20
485.7081313153634028
 30
0.0
 40
0.0110620977803074
 50
144.2949366372274085
 51
216.1965812645811127
  0
ARC
  5
1CC6E
  8
0
 10
4596.7237463663950621
 20
485.8314981876848151
 30
0.0
 40
0.2128084353225363
 50
217.6189099132845968
 51
233.1512668299527036
  0
ARC
  5
1CC6F
  8
0
 10
4596.6527322509828082
 20
485.7594928017913958
 30
0.0
 40
0.1108506603374891
 50
215.2261016497068908
 51
235.7739049100044042
  0
ARC
  5
1CC70
  8
0
 10
4596.5011463831679066
 20
485.605237884370581
 30
0.0
 40
0.1090049403152322
 50
35.0502013868074513
 51
55.9498051729283503
  0
ARC
  5
1CC71
  8
0
 10
4596.6303094375243745
 20
485.6864334298331869
 30
0.0
 40
0.018286869591747
 50
241.0753826319844961
 51
299.7520484024562961
  0
ARC
  5
1CC72
  8
0
 10
4596.6137167714268799
 20
485.6737297320228208
 30
0.0
 40
0.0258628117867267
 50
352.9537228338411978
 51
21.4120909020066392
  0
ARC
  5
1CC73
  8
0
 10
4596.5396455683876411
 20
485.6449940407688928
 30
0.0
 40
0.1053125603489393
 50
21.2548068132575594
 51
69.288510041875071
  0
ARC
  5
1CC74
  8
0
 10
4596.5685613736159212
 20
485.7221216178376153
 30
0.0
 40
0.0229442169280821
 50
68.714002174383495
 51
98.5494528374034502
  0
ARC
  5
1CC75
  8
0
 10
4596.5805247306534511
 20
485.7357878293091744
 30
0.0
 40
0.0178265219111098
 50
149.5917066685111934
 51
208.0029129948077014
  0
ENDSEC
  0
EOF
