  0
SECTION
  2
HEADER
  9
$ACADVER
  1
AC1009
  9
$INSBASE
 10
256.9863504419249125
 20
26.4353377911340317
 30
0.0
  9
$EXTMIN
 10
256.0706424963274799
 20
20.6462457201340186
 30
0.0
  9
$EXTMAX
 10
257.9020583875222883
 20
28.3941377911340282
 30
0.0
  9
$LIMMIN
 10
0.0
 20
0.0
  9
$LIMMAX
 10
11.6929133858000007
 20
8.2677165353999982
  9
$ORTHOMODE
 70
     0
  9
$REGENMODE
 70
     1
  9
$FILLMODE
 70
     1
  9
$QTEXTMODE
 70
     0
  9
$MIRRTEXT
 70
     0
  9
$DRAGMODE
 70
     2
  9
$LTSCALE
 40
0.6431102362
  9
$OSMODE
 70
  4095
  9
$ATTMODE
 70
     1
  9
$TEXTSIZE
 40
0.2
  9
$TRACEWID
 40
0.05
  9
$TEXTSTYLE
  7
STANDARD
  9
$CLAYER
  8
0
  9
$CELTYPE
  6
BYLAYER
  9
$CECOLOR
 62
   256
  9
$DIMSCALE
 40
1.0
  9
$DIMASZ
 40
0.1875
  9
$DIMEXO
 40
0.0625
  9
$DIMDLI
 40
0.4443307087
  9
$DIMRND
 40
0.0
  9
$DIMDLE
 40
0.0
  9
$DIMEXE
 40
0.125
  9
$DIMTP
 40
0.01
  9
$DIMTM
 40
0.01
  9
$DIMTXT
 40
1.0
  9
$DIMCEN
 40
0.1052362205
  9
$DIMTSZ
 40
0.0
  9
$DIMTOL
 70
     1
  9
$DIMLIM
 70
     0
  9
$DIMTIH
 70
     0
  9
$DIMTOH
 70
     1
  9
$DIMSE1
 70
     0
  9
$DIMSE2
 70
     0
  9
$DIMTAD
 70
     0
  9
$DIMZIN
 70
     0
  9
$DIMBLK
  1

  9
$DIMASO
 70
     1
  9
$DIMSHO
 70
     1
  9
$DIMPOST
  1
\X
  9
$DIMAPOST
  1

  9
$DIMALT
 70
     1
  9
$DIMALTD
 70
     2
  9
$DIMALTF
 40
25.3999999999999986
  9
$DIMLFAC
 40
1.0
  9
$DIMTOFL
 70
     0
  9
$DIMTVP
 40
0.0
  9
$DIMTIX
 70
     0
  9
$DIMSOXD
 70
     0
  9
$DIMSAH
 70
     0
  9
$DIMBLK1
  1

  9
$DIMBLK2
  1

  9
$DIMSTYLE
  2
STANDARD
  9
$DIMCLRD
 70
     0
  9
$DIMCLRE
 70
     0
  9
$DIMCLRT
 70
     0
  9
$DIMTFAC
 40
1.0
  9
$DIMGAP
 40
0.09
  9
$LUNITS
 70
     2
  9
$LUPREC
 70
     4
  9
$SKETCHINC
 40
0.1
  9
$FILLETRAD
 40
0.0
  9
$AUNITS
 70
     0
  9
$AUPREC
 70
     0
  9
$MENU
  1
.
  9
$ELEVATION
 40
0.0
  9
$PELEVATION
 40
0.0
  9
$THICKNESS
 40
0.0
  9
$LIMCHECK
 70
     0
  9
$BLIPMODE
 70
     0
  9
$CHAMFERA
 40
0.0
  9
$CHAMFERB
 40
0.0
  9
$SKPOLY
 70
     0
  9
$TDCREATE
 40
2458172.5207638889551163
  9
$TDUPDATE
 40
2459777.7518981480970979
  9
$TDINDWG
 40
0.1921522569
  9
$TDUSRTIMER
 40
0.1921522569
  9
$USRTIMER
 70
     1
  9
$ANGBASE
 50
0.0
  9
$ANGDIR
 70
     0
  9
$PDMODE
 70
     0
  9
$PDSIZE
 40
0.3125
  9
$PLINEWID
 40
0.0
  9
$COORDS
 70
     1
  9
$SPLFRAME
 70
     0
  9
$SPLINETYPE
 70
     6
  9
$SPLINESEGS
 70
     8
  9
$ATTDIA
 70
     1
  9
$ATTREQ
 70
     1
  9
$HANDLING
 70
     1
  9
$HANDSEED
  5
4806
  9
$SURFTAB1
 70
     6
  9
$SURFTAB2
 70
     6
  9
$SURFTYPE
 70
     6
  9
$SURFU
 70
     6
  9
$SURFV
 70
     6
  9
$UCSNAME
  2

  9
$UCSORG
 10
0.0
 20
0.0
 30
0.0
  9
$UCSXDIR
 10
1.0
 20
0.0
 30
0.0
  9
$UCSYDIR
 10
0.0
 20
1.0
 30
0.0
  9
$PUCSNAME
  2

  9
$PUCSORG
 10
0.0
 20
0.0
 30
0.0
  9
$PUCSXDIR
 10
1.0
 20
0.0
 30
0.0
  9
$PUCSYDIR
 10
0.0
 20
1.0
 30
0.0
  9
$USERI1
 70
     0
  9
$USERI2
 70
     0
  9
$USERI3
 70
     0
  9
$USERI4
 70
     0
  9
$USERI5
 70
     0
  9
$USERR1
 40
0.0
  9
$USERR2
 40
0.0
  9
$USERR3
 40
0.0
  9
$USERR4
 40
0.0
  9
$USERR5
 40
0.0
  9
$WORLDVIEW
 70
     1
  9
$SHADEDGE
 70
     3
  9
$SHADEDIF
 70
    70
  9
$TILEMODE
 70
     1
  9
$MAXACTVP
 70
    64
  9
$PLIMCHECK
 70
     0
  9
$PEXTMIN
 10
1.0000000000000000E+20
 20
1.0000000000000000E+20
 30
1.0000000000000000E+20
  9
$PEXTMAX
 10
-1.0000000000000000E+20
 20
-1.0000000000000000E+20
 30
-1.0000000000000000E+20
  9
$PLIMMIN
 10
0.0
 20
0.0
  9
$PLIMMAX
 10
12.0
 20
9.0
  9
$UNITMODE
 70
     0
  9
$VISRETAIN
 70
     1
  9
$PLINEGEN
 70
     0
  9
$PSLTSCALE
 70
     1
  0
ENDSEC
  0
SECTION
  2
TABLES
  0
TABLE
  2
VPORT
 70
     1
  0
VPORT
  2
*ACTIVE
 70
     0
 10
0.0
 20
0.0
 11
1.0
 21
1.0
 12
0.0
 22
0.0
 13
0.0
 23
0.0
 14
1.0
 24
1.0
 15
0.0
 25
0.0
 16
0.0
 26
0.0
 36
22.8758354830885011
 17
256.9863433837891193
 27
24.5201921463012695
 37
0.0
 40
7.9643133045656258
 41
2.156179775280898
 42
50.0
 43
0.0
 44
0.0
 50
0.0
 51
0.0
 71
     0
 72
   100
 73
     1
 74
     1
 75
     0
 76
     0
 77
     0
 78
     0
  0
ENDTAB
  0
TABLE
  2
LTYPE
 70
     2
  0
LTYPE
  2
CONTINUOUS
 70
     0
  3
Solid line
 72
    65
 73
     0
 40
0.0
  0
LTYPE
  2
PHANTOM2
 70
     0
  3
___ _ _ ___ _ _ ___ _ _ ___ _ _
 72
    65
 73
     6
 40
1.25
 49
0.625
 49
-0.125
 49
0.125
 49
-0.125
 49
0.125
 49
-0.125
  0
ENDTAB
  0
TABLE
  2
LAYER
 70
     2
  0
LAYER
  2
0
 70
     0
 62
   255
  6
CONTINUOUS
  0
LAYER
  2
DEFPOINTS
 70
     0
 62
     7
  6
CONTINUOUS
  0
ENDTAB
  0
TABLE
  2
STYLE
 70
     1
  0
STYLE
  2
STANDARD
 70
     0
 40
0.0
 41
0.8
 50
0.0
 71
     0
 42
0.2
  3
txt
  4

  0
ENDTAB
  0
TABLE
  2
VIEW
 70
     0
  0
ENDTAB
  0
TABLE
  2
UCS
 70
     0
  0
ENDTAB
  0
TABLE
  2
APPID
 70
    10
  0
APPID
  2
ACAD
 70
     0
  0
APPID
  2
ACAD_MLEADERVER
 70
     0
  0
APPID
  2
ACAD_EXEMPT_FROM_CAD_STANDARDS
 70
     0
  0
APPID
  2
ACAD_DSTYLE_DIMJAG
 70
     0
  0
APPID
  2
ACAD_DSTYLE_DIMTALN
 70
     0
  0
APPID
  2
ACAD_NAV_VCDISPLAY
 70
     0
  0
APPID
  2
ACAECLAYERSTANDARD
 70
     0
  0
APPID
  2
ACCMTRANSPARENCY
 70
     0
  0
APPID
  2
DCO15
 70
     0
  0
APPID
  2
ACDBATTR
 70
     0
  0
ENDTAB
  0
TABLE
  2
DIMSTYLE
 70
     1
  0
DIMSTYLE
  2
STANDARD
 70
     0
  3

  4

  5

  6

  7

 40
1.0
 41
0.1875
 42
0.0625
 43
0.38
 44
0.125
 45
0.0
 46
0.0
 47
0.01
 48
0.01
140
0.15625
141
0.09
142
0.0
143
25.3999999999999986
144
1.0
145
0.0
146
1.0
147
0.09
 71
     1
 72
     0
 73
     1
 74
     1
 75
     0
 76
     0
 77
     0
 78
     4
170
     0
171
     2
172
     0
173
     0
174
     0
175
     0
176
     0
177
     0
178
     0
  0
ENDTAB
  0
ENDSEC
  0
SECTION
  2
BLOCKS
  0
BLOCK
  8
0
  2
$MODEL_SPACE
 70
     0
 10
0.0
 20
0.0
 30
0.0
  3
$MODEL_SPACE
  1

  0
ENDBLK
  5
21
  8
0
  0
BLOCK
 67
     1
  8
0
  2
$PAPER_SPACE
 70
     0
 10
0.0
 20
0.0
 30
0.0
  3
$PAPER_SPACE
  1

  0
ENDBLK
  5
1D
 67
     1
  8
0
  0
ENDSEC
  0
SECTION
  2
ENTITIES
  0
ATTDEF
  5
829
  8
DEFPOINTS
 10
256.9866139386514874
 20
26.4390423799776784
 30
0.0
 40
0.001
  1
K-37329T-4DPR
  3

  2
MODELNUMBER
 70
     0
1001
ACDBATTR
1070
     0
1070
     1
  0
ATTDEF
  5
82A
  8
DEFPOINTS
 10
256.9866139386514874
 20
26.4373757133110097
 30
0.0
 40
0.001
  1
STRAYT
  3

  2
TRADENAME
 70
     0
1001
ACDBATTR
1070
     0
1070
     1
  0
ATTDEF
  5
82B
  8
DEFPOINTS
 10
256.9866139386514874
 20
26.4357090466443516
 30
0.0
 40
0.001
  1
BATHROOM SINK FAUCET
  3

  2
PRODUCT
 70
     0
1001
ACDBATTR
1070
     0
1070
     1
  0
LINE
  5
3DE6
  8
0
 10
257.8917396652249181
 20
23.1847185433036103
 30
0.0
 11
257.8917396652248044
 21
20.6856157988340215
 31
0.0
  0
LINE
  5
3DE7
  8
0
 10
257.7032296389735961
 20
23.1633677574340204
 30
0.0
 11
256.269471244876172
 21
23.1633677574340204
 31
0.0
  0
ARC
  5
3DE8
  8
0
 10
257.7308275237086264
 20
30.3260736496979391
 30
0.0
 40
7.1627590593509574
 50
269.7792406224909882
 51
271.0726350332270727
  0
ARC
  5
3DEA
  8
0
 10
603.7832572246027212
 20
23.8095093096956099
 30
0.0
 40
345.8909801223103955
 50
179.692707367884509
 51
180.1022242290526094
  0
ARC
  5
3DEB
  8
0
 10
178.9252106195212093
 20
26.5359240128400096
 30
0.0
 40
78.9768477680010648
 50
359.3678675489929901
 51
0.5705578859123913
  0
ARC
  5
3DEC
  8
0
 10
257.8749886334505277
 20
27.3228260009090285
 30
0.0
 40
0.0231584167568663
 50
358.8753154595963224
 51
89.6955032767207143
  0
LINE
  5
3DED
  8
0
 10
257.1240231298248773
 20
28.35476771233402
 30
0.0
 11
257.1240231298248773
 21
27.469428887131091
 31
0.0
  0
LINE
  5
3DEE
  8
0
 10
257.0846530511249171
 20
28.3941377911340211
 30
0.0
 11
256.8880478327247943
 21
28.3941377911340211
 31
0.0
  0
LINE
  5
3DEF
  8
0
 10
257.0846530511249171
 20
27.4300588084340191
 30
0.0
 11
256.8880478327247943
 21
27.4300588084340191
 31
0.0
  0
LINE
  5
3DF0
  8
0
 10
257.0551254920247857
 20
27.3568503763706516
 30
0.0
 11
257.0551254920247857
 21
27.4300588084340191
 31
0.0
  0
ARC
  5
3DF1
  8
0
 10
257.0842365723547118
 20
27.4698453659042308
 30
0.0
 40
0.0397887372241931
 50
270.599740359105283
 51
359.4002596366204898
  0
ARC
  5
3DF2
  8
0
 10
257.0794158638697127
 20
28.349530525192101
 30
0.0
 40
0.044913653883421
 50
6.6962468723706943
 51
83.3037529820852427
  0
LINE
  5
3DF3
  8
0
 10
256.0809612186249069
 20
23.1847185433036103
 30
0.0
 11
256.0809612186249069
 21
20.6856157988340215
 31
0.0
  0
ARC
  5
3DF4
  8
0
 10
256.241873360141085
 20
30.3260736496979391
 30
0.0
 40
7.1627590593509574
 50
268.9273649667729842
 51
270.2207593775090118
  0
ARC
  5
3DF5
  8
0
 10
256.1077304171121227
 20
23.192426864849029
 30
0.0
 40
0.0278571800575311
 50
180.0789857377438068
 51
270.1165576073980787
  0
ARC
  5
3DF6
  8
0
 10
-89.8105563407530241
 20
23.8095093096956099
 30
0.0
 40
345.8909801223103955
 50
359.8977757709470779
 51
0.3072926321154827
  0
ARC
  5
3DF7
  8
0
 10
335.0474902643284736
 20
26.5359240128400096
 30
0.0
 40
78.9768477680010648
 50
179.4294421140874078
 51
180.6321324510068109
  0
ARC
  5
3DF8
  8
0
 10
256.0977122503991836
 20
27.3228260009090285
 30
0.0
 40
0.0231584167568663
 50
90.304496723279243
 51
181.1246845404035923
  0
LINE
  5
3DF9
  8
0
 10
256.8486777540248909
 20
28.35476771233402
 30
0.0
 11
256.8486777540248909
 21
27.469428887131091
 31
0.0
  0
LINE
  5
3DFA
  8
0
 10
256.9175753918249256
 20
27.3568503763706516
 30
0.0
 11
256.9175753918249256
 21
27.4300588084340191
 31
0.0
  0
ARC
  5
3DFB
  8
0
 10
256.8884643114951132
 20
27.4698453659042308
 30
0.0
 40
0.0397887372241931
 50
180.5997403633791976
 51
269.4002596408946033
  0
ARC
  5
3DFC
  8
0
 10
256.8932850199801123
 20
28.349530525192101
 30
0.0
 40
0.044913653883421
 50
96.6962470179147431
 51
173.3037531276293066
  0
LINE
  5
3DFD
  8
0
 10
257.852369586524901
 20
20.6462457201340186
 30
0.0
 11
256.1203312973248103
 21
20.6462457201340186
 31
0.0
  0
ARC
  5
3DFE
  8
0
 10
257.852369586524901
 20
20.6856157988340499
 30
0.0
 40
0.0393700787000313
 50
270.0000000000163141
 51
359.9999999999560032
  0
ARC
  5
3DFF
  8
0
 10
256.9863504419249125
 20
-8.7771458487764953
 30
0.0
 40
36.1340616760206501
 50
88.5905983718808869
 51
91.4094016281191273
  0
ARC
  5
3E00
  8
0
 10
256.9862277480600028
 20
18.0430496068707598
 30
0.0
 40
9.3137287753333524
 50
88.6435801627441435
 51
91.3564185306887566
  0
ARC
  5
3E01
  8
0
 10
256.9862280780192805
 20
46.981921266770982
 30
0.0
 40
19.6289909467369696
 50
269.3564407450052727
 51
270.6435579484294749
  0
ARC
  5
3E02
  8
0
 10
256.1203312973248103
 20
20.6856157988340499
 30
0.0
 40
0.0393700787000313
 50
180.0000000000439115
 51
269.9999999999837996
  0
ARC
  5
421D
  8
0
 10
257.864970466737816
 20
23.192426864849029
 30
0.0
 40
0.0278571800575311
 50
269.8834423926019213
 51
359.9210142622562216
  0
LINE
  5
421E
  8
0
 10
257.7757205189748788
 20
27.2389228854339791
 30
0.0
 11
257.7757205189748788
 21
27.08864155428423
 31
0.0
  0
LINE
  5
421F
  8
0
 10
257.7639094953751169
 20
27.2507339090340217
 30
0.0
 11
257.6433019775544722
 21
27.2507339090340217
 31
0.0
  0
ARC
  5
4220
  8
0
 10
257.7639418227429928
 20
27.2389552128021109
 30
0.0
 40
0.0117787405940545
 50
359.8427485462249251
 51
90.1572514536366469
  0
ARC
  5
4221
  8
0
 10
257.7639422235059783
 20
27.088604711366969
 30
0.0
 40
0.0117783530918285
 50
263.0492205448704794
 51
0.1792226035501087
  0
LINE
  5
4222
  8
0
 10
257.7625168467748722
 20
27.0769129235340209
 30
0.0
 11
257.5393696933473962
 21
27.1034092425978201
 31
0.0
  0
ARC
  5
4223
  8
0
 10
257.5416775991388931
 20
27.1155044270445202
 30
0.0
 40
0.0123134039137434
 50
144.3930956757795911
 51
259.1971389194196718
  0
LINE
  5
4224
  8
0
 10
257.5316664248750271
 20
27.1226735487340207
 30
0.0
 11
257.6341600158543201
 21
27.2463754662331183
 31
0.0
  0
ARC
  5
4225
  8
0
 10
257.6433166459709128
 20
27.2389361537028485
 30
0.0
 40
0.0117977644499462
 50
90.071237103539616
 51
140.9078351383035113
  0
LINE
  5
4226
  8
0
 10
257.5733296813750144
 20
27.2389228854339898
 30
0.0
 11
257.4753783955749213
 21
27.1164458813340197
 31
0.0
  0
LINE
  5
4227
  8
0
 10
257.5615186577750819
 20
27.2507339090340288
 30
0.0
 11
257.3196289626014277
 21
27.2507339090340288
 31
0.0
  0
ARC
  5
4228
  8
0
 10
257.5615509851431284
 20
27.2389552128021215
 30
0.0
 40
0.0117787405940545
 50
359.8427485462249251
 51
90.1572514536366469
  0
ARC
  5
4229
  8
0
 10
257.4662924002133195
 20
27.1239593408738209
 30
0.0
 40
0.0117901393532296
 50
263.1731829582213891
 51
320.4117182325213093
  0
LINE
  5
422A
  8
0
 10
257.46489092157492
 20
27.1122527938340205
 30
0.0
 11
257.4133872328749248
 21
27.1183683017340194
 31
0.0
  0
ARC
  5
422B
  8
0
 10
257.4147731698884058
 20
27.1300843547350787
 30
0.0
 40
0.0117977421284303
 50
220.5818741628008013
 51
263.2536134662781251
  0
LINE
  5
422C
  8
0
 10
257.405813054374903
 20
27.1224095225340101
 30
0.0
 11
257.3125147412749811
 21
27.231235474234019
 31
0.0
  0
ARC
  5
422D
  8
0
 10
257.3216564156024901
 20
27.2389471013183311
 30
0.0
 40
0.0119599081015964
 50
99.7599576189127646
 51
220.1499193029773949
  0
LINE
  5
422E
  8
0
 10
257.2529492661117843
 20
27.2389228854339898
 30
0.0
 11
257.2753566866750248
 21
27.1188640897340214
 31
0.0
  0
LINE
  5
422F
  8
0
 10
257.2411382425120223
 20
27.2507339090340288
 30
0.0
 11
257.1882367222071935
 21
27.2507339090340288
 31
0.0
  0
ARC
  5
4230
  8
0
 10
257.241170569880012
 20
27.2389552128021215
 30
0.0
 40
0.0117787405940545
 50
359.8427485462249251
 51
90.1572514536366469
  0
ARC
  5
4231
  8
0
 10
257.2637749054836718
 20
27.1167418200119599
 30
0.0
 40
0.0117746203477557
 50
265.8993067350792217
 51
10.3837995440378403
  0
LINE
  5
4232
  8
0
 10
257.2629329081156015
 20
27.1049973436606884
 30
0.0
 11
257.0517257896748902
 21
27.1490958287340192
 31
0.0
  0
ARC
  5
4233
  8
0
 10
257.0541540330243038
 20
27.1606570527426214
 30
0.0
 40
0.0118134781643909
 50
120.418124084724198
 51
258.1383872693335206
  0
LINE
  5
4234
  8
0
 10
257.0481727913750092
 20
27.1708444476340212
 30
0.0
 11
257.1816432705749094
 21
27.2491113783340211
 31
0.0
  0
ARC
  5
4235
  8
0
 10
257.1876974111686991
 20
27.2387173820725401
 30
0.0
 40
0.0120286232218195
 50
87.4302455112679837
 51
120.2193090205580006
  0
LINE
  5
4236
  8
0
 10
257.0690632328750098
 20
27.2287343925340117
 30
0.0
 11
256.9683686109748919
 21
27.1696871856340216
 31
0.0
  0
LINE
  5
4237
  8
0
 10
257.0627843667409138
 20
27.2507339090340288
 30
0.0
 11
256.7679542015749803
 21
27.250733909034011
 31
0.0
  0
ARC
  5
4238
  8
0
 10
257.0627662505045237
 20
27.2388329569151395
 30
0.0
 40
0.0119009659075989
 50
301.9456942800703132
 51
89.9127815097866119
  0
ARC
  5
4239
  8
0
 10
256.9623963501134085
 20
27.1798618488654391
 30
0.0
 40
0.0117979520117186
 50
258.1446935500599125
 51
300.4118180699773006
  0
LINE
  5
423A
  8
0
 10
256.9599725689749903
 20
27.1683155526340201
 30
0.0
 11
256.7685975333749866
 21
27.2084032499340189
 31
0.0
  0
ARC
  5
423B
  8
0
 10
256.7709958389963276
 20
27.2199412085734593
 30
0.0
 40
0.0117845814273964
 50
189.0941938696095974
 51
258.2575838371407144
  0
LINE
  5
423C
  8
0
 10
256.7593593917749786
 20
27.2180785611340212
 30
0.0
 11
256.7562945380748829
 21
27.2370380707340196
 31
0.0
  0
ARC
  5
423D
  8
0
 10
256.7679158195521723
 20
27.2389555611276286
 30
0.0
 40
0.01177841044384
 50
89.8132912913692252
 51
189.3692840646702962
  0
LINE
  5
423E
  8
0
 10
256.7158040056748973
 20
27.2408077001340203
 30
0.0
 11
256.7184362657749261
 21
27.2245242597340216
 31
0.0
  0
LINE
  5
423F
  8
0
 10
256.7014818662880202
 20
27.2507339090340288
 30
0.0
 11
256.3310266526083865
 21
27.250733909034011
 31
0.0
  0
ARC
  5
4240
  8
0
 10
256.7037571948790173
 20
27.2387213594451296
 30
0.0
 40
0.012226138712756
 50
9.8253763240940053
 51
100.725482254454306
  0
ARC
  5
4241
  8
0
 10
256.7068077315636856
 20
27.222623268761371
 30
0.0
 40
0.0117828933025442
 50
295.7986033379120272
 51
9.2843824469993983
  0
LINE
  5
4242
  8
0
 10
256.7119357545748812
 20
27.2120147837340198
 30
0.0
 11
256.3638977494749724
 21
27.0430135325340189
 31
0.0
  0
ARC
  5
4243
  8
0
 10
256.3587387030481182
 20
27.0536383930277715
 30
0.0
 40
0.0118111566134292
 50
188.1750900790623859
 51
295.8995259638808193
  0
LINE
  5
4244
  8
0
 10
256.3470475696749986
 20
27.0519588630340202
 30
0.0
 11
256.3203628594577026
 21
27.2391207193821394
 31
0.0
  0
ARC
  5
4245
  8
0
 10
256.3321265583500121
 20
27.2390213218364714
 30
0.0
 40
0.0117641188153041
 50
95.3647992720462412
 51
179.5158899945429027
  0
LINE
  5
4246
  8
0
 10
256.2801761595749213
 20
27.2406022161340218
 30
0.0
 11
256.3329518081749256
 21
26.87319300493402
 31
0.0
  0
LINE
  5
4247
  8
0
 10
256.2685067232342817
 20
27.2507339090340288
 30
0.0
 11
256.2124467031987933
 21
27.250733909034011
 31
0.0
  0
ARC
  5
4248
  8
0
 10
256.2685118901022179
 20
27.2389537278238194
 30
0.0
 40
0.0117801823433137
 50
8.0442249609014631
 51
90.0251303193410024
  0
ARC
  5
4249
  8
0
 10
256.3212605833271027
 20
26.8715139406546015
 30
0.0
 40
0.0118111809443061
 50
244.8330169112608985
 51
8.1727907668665694
  0
LINE
  5
424A
  8
0
 10
256.3162377863749271
 20
26.8608239684340191
 30
0.0
 11
256.2077053988750208
 21
26.9118223364340317
 31
0.0
  0
ARC
  5
424B
  8
0
 10
256.2127037587882228
 20
26.9224963993098108
 30
0.0
 40
0.0117863997937849
 50
179.9239574352083082
 51
244.9076443305783926
  0
LINE
  5
424C
  8
0
 10
256.2009173693750199
 20
26.92251204213402
 30
0.0
 11
256.2017829100481094
 21
27.2391207193821394
 31
0.0
  0
ARC
  5
424D
  8
0
 10
256.213546608940419
 20
27.2390213218364714
 30
0.0
 40
0.0117641188153041
 50
95.3647992720462412
 51
179.5158899945429027
  0
LINE
  5
424E
  8
0
 10
257.0769885251748974
 20
27.086653427634019
 30
0.0
 11
256.8812420306750255
 21
26.812968153734019
 31
0.0
  0
LINE
  5
424F
  8
0
 10
257.0698032905751234
 20
27.1050845440340282
 30
0.0
 11
256.7842090612749075
 21
27.164908517334009
 31
0.0
  0
ARC
  5
4250
  8
0
 10
257.0673815245871765
 20
27.0935243229303211
 30
0.0
 40
0.0118111668545449
 50
324.4277744155277219
 51
78.1681378900119341
  0
ARC
  5
4251
  8
0
 10
256.8716408615796922
 20
26.8197907146693595
 30
0.0
 40
0.0117783609093814
 50
228.5597681379161088
 51
324.6025170498638204
  0
LINE
  5
4252
  8
0
 10
256.8638454898750183
 20
26.8109611073340197
 30
0.0
 11
256.8219710137748848
 21
26.8477026915340211
 31
0.0
  0
ARC
  5
4253
  8
0
 10
256.8297499163090265
 20
26.8565747067826699
 30
0.0
 40
0.0117993211332535
 50
189.1621422748426937
 51
228.7560093238753041
  0
LINE
  5
4254
  8
0
 10
256.8181011345748743
 20
26.8546959137340195
 30
0.0
 11
256.7701278759748789
 21
27.1514635767340309
 31
0.0
  0
ARC
  5
4255
  8
0
 10
256.7817877085823284
 20
27.1533482142968197
 30
0.0
 40
0.0118111623125836
 50
78.1701816767155435
 51
189.1815963262918956
  0
LINE
  5
4256
  8
0
 10
257.1155473882749902
 20
26.785062214934019
 30
0.0
 11
256.9642703765749729
 21
26.7309300969340207
 31
0.0
  0
LINE
  5
4257
  8
0
 10
257.1228920414750974
 20
26.7995395620340311
 30
0.0
 11
257.0703221497748814
 21
26.9768781321340114
 31
0.0
  0
ARC
  5
4258
  8
0
 10
257.1116072136031221
 20
26.7961628655050887
 30
0.0
 40
0.0117791943504426
 50
289.5423124030087934
 51
16.6584693404427107
  0
ARC
  5
4259
  8
0
 10
256.9602861284208188
 20
26.7420246083738
 30
0.0
 40
0.0117882321593124
 50
228.6703618549566954
 51
289.7541697945276269
  0
LINE
  5
425A
  8
0
 10
256.9525012954749172
 20
26.7331725581340187
 30
0.0
 11
256.9114295652748865
 21
26.7692097954340191
 31
0.0
  0
ARC
  5
425B
  8
0
 10
256.9191772916389027
 20
26.7780829800589402
 30
0.0
 40
0.0117796718629533
 50
144.2885072455503064
 51
228.873778241059199
  0
LINE
  5
425C
  8
0
 10
256.9096125931749839
 20
26.7849588227340192
 30
0.0
 11
257.0493914433748728
 21
26.9803922734340382
 31
0.0
  0
ARC
  5
425D
  8
0
 10
257.0589981384450198
 20
26.9735209174770283
 30
0.0
 40
0.0118111863441164
 50
16.5134405309000805
 51
144.4250946298797089
  0
LINE
  5
425E
  8
0
 10
257.3325615034748921
 20
27.1473637048340102
 30
0.0
 11
257.455988227974899
 21
27.0033950700340206
 31
0.0
  0
ARC
  5
425F
  8
0
 10
257.4470214008762241
 20
26.9957076588176896
 30
0.0
 40
0.0118110236401652
 50
308.4837288176967718
 51
40.6070382694920369
  0
LINE
  5
4260
  8
0
 10
257.454371310674901
 20
26.9864621677340217
 30
0.0
 11
257.3693731068512989
 21
26.9188909456637688
 31
0.0
  0
ARC
  5
4261
  8
0
 10
257.3620231970641044
 20
26.9281364367328884
 30
0.0
 40
0.0118110236215807
 50
190.2961232355073946
 51
308.4837288176805146
  0
LINE
  5
4262
  8
0
 10
257.3504023647748795
 20
26.9260253858340199
 30
0.0
 11
257.3119738431685164
 21
27.1375652425693517
 31
0.0
  0
ARC
  5
4263
  8
0
 10
257.3235946758870796
 20
27.1396762935462306
 30
0.0
 40
0.0118110240580168
 50
40.6070369882958317
 51
190.2961232355052061
  0
LINE
  5
4264
  8
0
 10
256.7289322443750166
 20
27.1595950239340205
 30
0.0
 11
256.7670640767750001
 21
26.9237074667340188
 31
0.0
  0
ARC
  5
4265
  8
0
 10
256.7554010430467883
 20
26.9218287423762703
 30
0.0
 40
0.0118133805896294
 50
228.7673441647116022
 51
9.1508069514728323
  0
LINE
  5
4266
  8
0
 10
256.7476146289748726
 20
26.9129446151340197
 30
0.0
 11
256.5609654421749042
 21
27.0767147072340215
 31
0.0
  0
ARC
  5
4267
  8
0
 10
256.5687554805494983
 20
27.0855927097955416
 30
0.0
 40
0.0118111653683706
 50
115.9014453362870967
 51
228.7345393479000961
  0
LINE
  5
4268
  8
0
 10
256.5635960743749138
 20
27.0962174053340199
 30
0.0
 11
256.7157276249541837
 21
27.1694034900301595
 31
0.0
  0
ARC
  5
4269
  8
0
 10
256.7173018447114146
 20
27.1577302052675797
 30
0.0
 40
0.0117789534761075
 50
9.1092720695460656
 51
97.680379731404301
  0
LINE
  5
426A
  8
0
 10
257.6423723082750143
 20
26.7742044167340083
 30
0.0
 11
257.5927967700749832
 21
26.684311792734011
 31
0.0
  0
LINE
  5
426B
  8
0
 10
257.6409966743748896
 20
26.7875956670340187
 30
0.0
 11
257.4970159238749829
 21
26.9555391345340105
 31
0.0
  0
ARC
  5
426C
  8
0
 10
257.6320621244988729
 20
26.7799115715239786
 30
0.0
 40
0.0117843754731966
 50
331.0334809382442813
 51
40.6969414816483166
  0
ARC
  5
426D
  8
0
 10
257.5824678211242258
 20
26.6899744920252502
 30
0.0
 40
0.0117793611750052
 50
245.0976531267911014
 51
331.2668708837695135
  0
LINE
  5
426E
  8
0
 10
257.5775078505749889
 20
26.6792902961340204
 30
0.0
 11
257.3125065853749902
 21
26.8015072418340203
 31
0.0
  0
ARC
  5
426F
  8
0
 10
257.3174143813436103
 20
26.8122021981817795
 30
0.0
 40
0.0117672661459865
 50
138.5850072873778913
 51
245.3501386067406997
  0
LINE
  5
4270
  8
0
 10
257.3085896613396812
 20
26.8199863403568912
 30
0.0
 11
257.4806991869750163
 21
26.9570972143340413
 31
0.0
  0
ARC
  5
4271
  8
0
 10
257.4880533261962796
 20
26.9478960148436109
 30
0.0
 40
0.011779025246178
 50
40.4568652438399283
 51
128.6339023135408866
  0
LINE
  5
4272
  8
0
 10
257.2875107499750129
 20
27.0519588654340204
 30
0.0
 11
257.3177001112749167
 21
26.8857736192340191
 31
0.0
  0
ARC
  5
4273
  8
0
 10
257.3060792789880793
 20
26.8836625683884201
 30
0.0
 40
0.0118110236098462
 50
308.4837288607719188
 51
10.2961229831745609
  0
LINE
  5
4274
  8
0
 10
257.3134291887749896
 20
26.8744170773340194
 30
0.0
 11
257.2607415092729752
 21
26.8325318287365597
 31
0.0
  0
ARC
  5
4275
  8
0
 10
257.2533915994296194
 20
26.8417773198619791
 30
0.0
 40
0.0118110237005764
 50
245.241140597679987
 51
308.4837288607781147
  0
LINE
  5
4276
  8
0
 10
257.2484451408749919
 20
26.8310519840340191
 30
0.0
 11
257.1446116051137096
 21
26.8789393685843905
 31
0.0
  0
ARC
  5
4277
  8
0
 10
257.1495580632756059
 20
26.8896647035607792
 30
0.0
 40
0.0118110227628101
 50
196.5118207431619055
 51
245.2411405976677088
  0
LINE
  5
4278
  8
0
 10
257.138234113874887
 20
26.8863078555340209
 30
0.0
 11
257.0941239322763181
 21
27.0351085937545186
 31
0.0
  0
ARC
  5
4279
  8
0
 10
257.1054479022091073
 20
27.0384654478677788
 30
0.0
 40
0.0118110441780308
 50
144.4268306963710131
 51
196.5118207431592054
  0
LINE
  5
427A
  8
0
 10
257.0958411145749096
 20
27.0453364300340198
 30
0.0
 11
257.1251295395036891
 21
27.0862865695657185
 31
0.0
  0
ARC
  5
427B
  8
0
 10
257.1347362213883798
 20
27.0794156630337213
 30
0.0
 40
0.011810914164681
 50
78.1682944602891752
 51
144.4268306963714963
  0
LINE
  5
427C
  8
0
 10
257.1371579039749804
 20
27.090975643434021
 30
0.0
 11
257.2783109709146743
 21
27.0614057036580391
 31
0.0
  0
ARC
  5
427D
  8
0
 10
257.2758889255024997
 20
27.0498439912977098
 30
0.0
 40
0.0118126837205541
 50
10.31350854848381
 51
78.1682944602924721
  0
LINE
  5
427E
  8
0
 10
256.6443139783748961
 20
26.9402839838340213
 30
0.0
 11
256.6073940011750096
 21
26.85542758453402
 31
0.0
  0
ARC
  5
427F
  8
0
 10
256.5965754501747824
 20
26.8601269633548405
 30
0.0
 40
0.0117951348887342
 50
288.8721095071738887
 51
336.5207634592537147
  0
LINE
  5
4280
  8
0
 10
256.6003906672750077
 20
26.8489659004340204
 30
0.0
 11
256.4551540489749186
 21
26.7992229046340213
 31
0.0
  0
ARC
  5
4281
  8
0
 10
256.4513262280029267
 20
26.8103816063489617
 30
0.0
 40
0.0117969842484091
 50
244.8039976052947964
 51
288.9337428654350219
  0
LINE
  5
4282
  8
0
 10
256.4463040611748852
 20
26.7997070254340208
 30
0.0
 11
256.3844827471750136
 21
26.8287562907340202
 31
0.0
  0
ARC
  5
4283
  8
0
 10
256.3894868844446933
 20
26.8394320416306797
 30
0.0
 40
0.0117903794265426
 50
188.1201097191176075
 51
244.8856973647984034
  0
LINE
  5
4284
  8
0
 10
256.3778147136749794
 20
26.837766665834021
 30
0.0
 11
256.356450425675007
 21
26.9864988259340208
 31
0.0
  0
ARC
  5
4285
  8
0
 10
256.3681149121933913
 20
26.9881922465802795
 30
0.0
 40
0.0117867688203148
 50
115.8142697556896934
 51
188.2603458964738081
  0
LINE
  5
4286
  8
0
 10
256.3629823010749078
 20
26.9988028178340187
 30
0.0
 11
256.5021124430749069
 21
27.0663620147340112
 31
0.0
  0
ARC
  5
4287
  8
0
 10
256.5072757154155738
 20
27.0557678991015713
 30
0.0
 40
0.0117853581743493
 50
48.6526897094751192
 51
115.9832946441043049
  0
LINE
  5
4288
  8
0
 10
256.5150613796749894
 20
27.064615390234021
 30
0.0
 11
256.6412734353748988
 21
26.9538741632340191
 31
0.0
  0
ARC
  5
4289
  8
0
 10
256.6335171907691119
 20
26.9450036302834093
 30
0.0
 40
0.011783279900535
 50
336.3882103218548991
 51
48.8340979448153334
  0
LINE
  5
428A
  8
0
 10
257.6294616829749202
 20
26.6692700816340214
 30
0.0
 11
257.7535670344749974
 21
26.8943035579340197
 31
0.0
  0
ARC
  5
428B
  8
0
 10
257.7639076200999284
 20
26.8885924352935497
 30
0.0
 40
0.011812901120431
 50
0.0353266671344816
 51
151.0880566132171055
  0
LINE
  5
428C
  8
0
 10
257.7757205189748788
 20
26.8885997187340209
 30
0.0
 11
257.7757205189748788
 21
26.6063296214340212
 31
0.0
  0
ARC
  5
428D
  8
0
 10
257.7639093506052745
 20
26.6063298476674994
 30
0.0
 40
0.0118111683718349
 50
245.2422379137109942
 51
359.9989025451948237
  0
LINE
  5
428E
  8
0
 10
257.7589630368748885
 20
26.5956042857340194
 30
0.0
 11
257.6348576853749819
 21
26.65284090673401
 31
0.0
  0
ARC
  5
428F
  8
0
 10
257.6397585869050886
 20
26.6635512797373906
 30
0.0
 40
0.0117784093017387
 50
150.9526260582545092
 51
245.4118981228650966
  0
LINE
  5
4290
  8
0
 10
257.7757205189748788
 20
27.0252069207340107
 30
0.0
 11
257.7757206145000168
 21
27.0190376845330498
 31
0.0
  0
LINE
  5
4291
  8
0
 10
257.7653021439750773
 20
27.0369355527340289
 30
0.0
 11
257.4767196263749156
 21
27.0712016159340116
 31
0.0
  0
ARC
  5
4292
  8
0
 10
257.7639586292611966
 20
27.0252505656680206
 30
0.0
 40
0.011761970690273
 50
359.7873930891632881
 51
83.4410560249446291
  0
ARC
  5
4293
  8
0
 10
257.7639045323750224
 20
27.0190397179339712
 30
0.0
 40
0.0118160822999404
 50
331.1332634820403769
 51
359.9901401083483279
  0
LINE
  5
4294
  8
0
 10
257.7742524068082162
 20
27.0133352200915091
 30
0.0
 11
257.6748529583749132
 21
26.8330998110340211
 31
0.0
  0
ARC
  5
4295
  8
0
 10
257.6645104727543867
 20
26.8388038908512101
 30
0.0
 40
0.0118111614743628
 50
220.6080024084803881
 51
331.1224191254582934
  0
LINE
  5
4296
  8
0
 10
257.655543670374982
 20
26.8311162390340208
 30
0.0
 11
257.4663601506749728
 21
27.0517855727340191
 31
0.0
  0
ARC
  5
4297
  8
0
 10
257.4753329661788257
 20
27.0594697887945301
 30
0.0
 40
0.011813492054874
 50
83.2591177057421277
 51
220.5763696293772966
  0
LINE
  5
4298
  8
0
 10
257.6555020949750201
 20
26.4614565391340193
 30
0.0
 11
257.7574780418748901
 21
26.5276615997339995
 31
0.0
  0
ARC
  5
4299
  8
0
 10
257.7638015654998185
 20
26.5175452173485802
 30
0.0
 40
0.0119301359423279
 50
2.4809480999004889
 51
122.0085787117571954
  0
LINE
  5
429A
  8
0
 10
257.7757205189748788
 20
26.5180616393270299
 30
0.0
 11
257.7757205189748788
 21
26.4317326352340203
 31
0.0
  0
ARC
  5
429B
  8
0
 10
257.7639093506052745
 20
26.4317328614674985
 30
0.0
 40
0.0118111683718349
 50
245.2422379137109942
 51
359.9989025451948237
  0
LINE
  5
429C
  8
0
 10
257.7589630368748885
 20
26.4210072995340113
 30
0.0
 11
257.659680403774928
 21
26.4399560230340107
 31
0.0
  0
ARC
  5
429D
  8
0
 10
257.6619339916729814
 20
26.4515502291211497
 30
0.0
 40
0.0118111927088342
 50
122.9945636633670034
 51
259.0004641153514058
  0
LINE
  5
429E
  8
0
 10
256.9986935597750062
 20
26.7014331383340213
 30
0.0
 11
257.1255195503749746
 21
26.7468158399340012
 31
0.0
  0
ARC
  5
429F
  8
0
 10
257.1295203186925846
 20
26.7357376654241108
 30
0.0
 40
0.0117784590504513
 50
16.3441196861203117
 51
109.8566620399609945
  0
LINE
  5
42A0
  8
0
 10
257.1408227970749749
 20
26.7390521910340198
 30
0.0
 11
257.1734371016748923
 21
26.6290315318340198
 31
0.0
  0
ARC
  5
42A1
  8
0
 10
257.1621128985231053
 20
26.6256749617191204
 30
0.0
 40
0.0118111870682491
 50
247.9337470500587131
 51
16.5101783458388915
  0
LINE
  5
42A2
  8
0
 10
257.1576756897749192
 20
26.6147289433340184
 30
0.0
 11
256.9982353945749765
 21
26.6793669008340295
 31
0.0
  0
ARC
  5
42A3
  8
0
 10
257.0026780481870219
 20
26.6903125324623289
 30
0.0
 40
0.0118128753002438
 50
109.7124893116629067
 51
247.9085676616568037
  0
LINE
  5
42A4
  8
0
 10
256.2009173693750199
 20
26.7286775862340207
 30
0.0
 11
256.2009173693750199
 21
26.8529122322340008
 31
0.0
  0
ARC
  5
42A5
  8
0
 10
256.2127285385100208
 20
26.8529120030568897
 30
0.0
 40
0.011811169137235
 50
64.8327128297420359
 51
179.9988882656840872
  0
LINE
  5
42A6
  8
0
 10
256.2177513871749852
 20
26.8636019379340105
 30
0.0
 11
256.3706768316749276
 21
26.7917436819340296
 31
0.0
  0
ARC
  5
42A7
  8
0
 10
256.3656533875349055
 20
26.7810540007789086
 30
0.0
 40
0.0118111927520542
 50
288.9081660090595847
 51
64.8295750014079317
  0
LINE
  5
42A8
  8
0
 10
256.3694808311749966
 20
26.7698801496340195
 30
0.0
 11
256.2165553865748961
 21
26.7175037597340186
 31
0.0
  0
ARC
  5
42A9
  8
0
 10
256.2127285281645186
 20
26.7286777754263696
 30
0.0
 40
0.0118111587910353
 50
180.000917769653114
 51
288.905221595299281
  0
LINE
  5
42AA
  8
0
 10
256.2818236399750162
 20
26.6982426997340205
 30
0.0
 11
256.5586937241749865
 21
26.7930696627339984
 31
0.0
  0
ARC
  5
42AB
  8
0
 10
256.562520413745176
 20
26.7818955557226914
 30
0.0
 40
0.0118111904805431
 50
336.4885696140194113
 51
108.904303208934607
  0
LINE
  5
42AC
  8
0
 10
256.5733510451750021
 20
26.7771836937340204
 30
0.0
 11
256.462360614475017
 21
26.5220847200340195
 31
0.0
  0
ARC
  5
42AD
  8
0
 10
256.4515302398917242
 20
26.5267970997465916
 30
0.0
 40
0.0118111615080332
 50
225.9859741481458002
 51
336.4857695907526249
  0
LINE
  5
42AE
  8
0
 10
256.4433234380749127
 20
26.5183028699340184
 30
0.0
 11
256.2774437845749844
 21
26.6785748806340308
 31
0.0
  0
ARC
  5
42AF
  8
0
 10
256.2856509111937839
 20
26.6870688113565002
 30
0.0
 40
0.0118111721033795
 50
108.9073162016331935
 51
225.9838328961058096
  0
LINE
  5
42B0
  8
0
 10
257.2934928217749757
 20
26.4154294269340184
 30
0.0
 11
257.3907564134748895
 21
26.5097626253340017
 31
0.0
  0
ARC
  5
42B1
  8
0
 10
257.3989793320182002
 20
26.5012840022962095
 30
0.0
 40
0.0118111573516568
 50
25.9257978697094416
 51
134.1228567912916958
  0
LINE
  5
42B2
  8
0
 10
257.4096018264750114
 20
26.5064479203340184
 30
0.0
 11
257.5097909942750221
 21
26.3003444896340213
 31
0.0
  0
ARC
  5
42B3
  8
0
 10
257.4991635885443202
 20
26.2951860671129793
 30
0.0
 40
0.0118131738102059
 50
240.5209978685633985
 51
25.8914117109561488
  0
LINE
  5
42B4
  8
0
 10
257.4933502718749878
 20
26.2849022728340209
 30
0.0
 11
257.2958975124748804
 21
26.3966725051340205
 31
0.0
  0
ARC
  5
42B5
  8
0
 10
257.3017159961154903
 20
26.4069510562705609
 30
0.0
 40
0.0118111542764108
 50
134.1245998804301109
 51
240.4866615513286092
  0
LINE
  5
42B6
  8
0
 10
257.4906225569749267
 20
26.0592972123340196
 30
0.0
 11
257.7583142675749741
 21
26.2032936350340115
 31
0.0
  0
ARC
  5
42B7
  8
0
 10
257.7639093451239773
 20
26.1928917633265712
 30
0.0
 40
0.011811173853555
 50
0.0012195727515912
 51
118.2754266013444067
  0
LINE
  5
42B8
  8
0
 10
257.7757205189748788
 20
26.1928920147340207
 30
0.0
 11
257.7757205189748788
 21
25.9274273751340196
 31
0.0
  0
ARC
  5
42B9
  8
0
 10
257.7639093511872943
 20
25.9274275988820406
 30
0.0
 40
0.0118111677897571
 50
245.5943632306708082
 51
359.9989146020176918
  0
LINE
  5
42BA
  8
0
 10
257.7590290472750212
 20
25.9166718414340203
 30
0.0
 11
257.4913373366749738
 21
26.0381400583340188
 31
0.0
  0
ARC
  5
42BB
  8
0
 10
257.4962181498564746
 20
26.0488956043720812
 30
0.0
 40
0.011811185710572
 50
118.2782342603118053
 51
245.5916897814456945
  0
LINE
  5
42BC
  8
0
 10
256.8964282005749737
 20
26.7066538329340091
 30
0.0
 11
256.6202641429749747
 21
26.6078328344340207
 31
0.0
  0
LINE
  5
42BD
  8
0
 10
256.9002386882750102
 20
26.7266523678340313
 30
0.0
 11
256.6933005830749721
 21
26.902571732834101
 31
0.0
  0
ARC
  5
42BE
  8
0
 10
256.8924486106420773
 20
26.7177743868611692
 30
0.0
 40
0.0118111750338623
 50
289.690204426523394
 51
48.73432712817457
  0
ARC
  5
42BF
  8
0
 10
256.6162843755022891
 20
26.6189387989256083
 30
0.0
 40
0.0117974995835653
 50
246.5753491270187965
 51
289.7148897657024236
  0
LINE
  5
42C0
  8
0
 10
256.6115943655748879
 20
26.6081136059340189
 30
0.0
 11
256.564498674274887
 21
26.6284924810340193
 31
0.0
  0
ARC
  5
42C1
  8
0
 10
256.5691465711453247
 20
26.6393153954525097
 30
0.0
 40
0.0117787275130917
 50
156.3291024890311007
 51
246.7589123763769976
  0
LINE
  5
42C2
  8
0
 10
256.5583588275749207
 20
26.6440443499340098
 30
0.0
 11
256.6723698766750204
 21
26.9060858741341207
 31
0.0
  0
ARC
  5
42C3
  8
0
 10
256.6819765717449968
 20
26.8992145181771107
 30
0.0
 40
0.0118111863441164
 50
16.5134405309000805
 51
144.4250946298797089
  0
LINE
  5
42C4
  8
0
 10
257.0289101820749238
 20
26.6130672950340106
 30
0.0
 11
256.9854769003749198
 21
26.4608728021340198
 31
0.0
  0
LINE
  5
42C5
  8
0
 10
257.0219900598750087
 20
26.6272542630340183
 30
0.0
 11
256.9180533942749207
 21
26.6693907490340116
 31
0.0
  0
ARC
  5
42C6
  8
0
 10
257.0175903983978856
 20
26.6163269619215903
 30
0.0
 40
0.0117797678548016
 50
343.9356130504554017
 51
68.0687950139210614
  0
ARC
  5
42C7
  8
0
 10
256.9741405489659201
 20
26.4640691873666682
 30
0.0
 40
0.0117783590463546
 50
246.419859433830311
 51
344.2537292267278985
  0
LINE
  5
42C8
  8
0
 10
256.9694288356749894
 20
26.4532743043340197
 30
0.0
 11
256.6911569476777117
 21
26.5756695241635583
 31
0.0
  0
ARC
  5
42C9
  8
0
 10
256.7009171893635084
 20
26.5823290683857607
 30
0.0
 40
0.0118157457240002
 50
109.6950253038199037
 51
214.3062441434888967
  0
LINE
  5
42CA
  8
0
 10
256.6969351233748853
 20
26.5934535907340184
 30
0.0
 11
256.9096366356749854
 21
26.66956550773412
 31
0.0
  0
ARC
  5
42CB
  8
0
 10
256.9136158393170035
 20
26.6584405308908714
 30
0.0
 40
0.0118152093247275
 50
67.9398422079208046
 51
109.6812140906827011
  0
LINE
  5
42CC
  8
0
 10
257.3663951131749172
 20
26.7332988129340094
 30
0.0
 11
257.7185168784748726
 21
26.5709024311340194
 31
0.0
  0
LINE
  5
42CD
  8
0
 10
257.3508261996751116
 20
26.7174097838340288
 30
0.0
 11
257.4649703285750206
 21
26.4825990043340092
 31
0.0
  0
ARC
  5
42CE
  8
0
 10
257.3614536358404052
 20
26.7225685963551101
 30
0.0
 40
0.0118133714949732
 50
65.2729929941813225
 51
205.8930489192846949
  0
ARC
  5
42CF
  8
0
 10
257.7135700979196145
 20
26.5601770721517596
 30
0.0
 40
0.0118111795838351
 50
302.9939043430294987
 51
65.2397692022782678
  0
LINE
  5
42D0
  8
0
 10
257.7200018734749847
 20
26.5502706991340212
 30
0.0
 11
257.5793335503749972
 21
26.4589456845340187
 31
0.0
  0
ARC
  5
42D1
  8
0
 10
257.572904976579423
 20
26.4688372625597488
 30
0.0
 40
0.0117970283073528
 50
258.9750363828684954
 51
303.0199911891667739
  0
LINE
  5
42D2
  8
0
 10
257.57064895217502
 20
26.4572579607340188
 30
0.0
 11
257.4733396388749043
 21
26.4761685777340396
 31
0.0
  0
ARC
  5
42D3
  8
0
 10
257.4755799841323096
 20
26.4877460390514301
 30
0.0
 40
0.011792232928006
 50
205.8792948117938977
 51
259.0481016515810779
  0
LINE
  5
42D4
  8
0
 10
257.3145949683749905
 20
26.4907411742340102
 30
0.0
 11
257.1481213312749787
 21
26.3292831160340199
 31
0.0
  0
LINE
  5
42D5
  8
0
 10
257.310809472275082
 20
26.5101653120340295
 30
0.0
 11
257.0807041718749133
 21
26.6034512446340194
 31
0.0
  0
ARC
  5
42D6
  8
0
 10
257.3063717526887899
 20
26.4992195224512912
 30
0.0
 40
0.0118111669497475
 50
314.1248196618849988
 51
67.9310335293850756
  0
ARC
  5
42D7
  8
0
 10
257.1398984128189795
 20
26.3377617395156989
 30
0.0
 40
0.0118111576095798
 50
205.9003160904779008
 51
314.1228549885009897
  0
LINE
  5
42D8
  8
0
 10
257.1292736225748854
 20
26.3326025461340194
 30
0.0
 11
257.0434086886749014
 21
26.509438968334031
 31
0.0
  0
ARC
  5
42D9
  8
0
 10
257.0540197137927976
 20
26.514596739272541
 30
0.0
 40
0.0117981547331009
 50
164.0484235770607881
 51
205.9233017686985932
  0
LINE
  5
42DA
  8
0
 10
257.0426758551748776
 20
26.5178391653340206
 30
0.0
 11
257.0649091258749195
 21
26.5957467338340301
 31
0.0
  0
ARC
  5
42DB
  8
0
 10
257.0762452398598725
 20
26.5925495211767213
 30
0.0
 40
0.0117783551082029
 50
67.7548660991446496
 51
164.2495418407264083
  0
LINE
  5
42DC
  8
0
 10
256.7869867754748725
 20
26.4684353671340098
 30
0.0
 11
256.6063893441749997
 21
26.3721213246340191
 31
0.0
  0
LINE
  5
42DD
  8
0
 10
256.7861193335750158
 20
26.4896966949340182
 30
0.0
 11
256.5487481589748882
 21
26.5924100721340118
 31
0.0
  0
ARC
  5
42DE
  8
0
 10
256.7813054649553806
 20
26.4788519343835098
 30
0.0
 40
0.0118651659273258
 50
298.6085374312434055
 51
66.064097425651596
  0
ARC
  5
42DF
  8
0
 10
256.6008266706317045
 20
26.3825090006031218
 30
0.0
 40
0.0117833420126614
 50
225.8870005137993928
 51
298.1693626075687007
  0
LINE
  5
42E0
  8
0
 10
256.5926245724750174
 20
26.37404893353402
 30
0.0
 11
256.4916880672749926
 21
26.4715732307340197
 31
0.0
  0
ARC
  5
42E1
  8
0
 10
256.4998630810871987
 20
26.4800608989603994
 30
0.0
 40
0.0117843694253237
 50
156.3967853244436981
 51
226.0749575864313101
  0
LINE
  5
42E2
  8
0
 10
256.48906458887501
 20
26.4847793657340205
 30
0.0
 11
256.533227350874995
 21
26.5862824881340316
 31
0.0
  0
ARC
  5
42E3
  8
0
 10
256.5440409137979145
 20
26.5816128091665007
 30
0.0
 40
0.0117787539556236
 50
66.4444101183521241
 51
156.6436050130081128
  0
LINE
  5
42E4
  8
0
 10
256.9680423412750088
 20
26.3997803911340085
 30
0.0
 11
256.9210259408749835
 21
26.2350302976340188
 31
0.0
  0
LINE
  5
42E5
  8
0
 10
256.9613752378750746
 20
26.4138613462340288
 30
0.0
 11
256.8600208278750188
 21
26.4577186249340102
 31
0.0
  0
ARC
  5
42E6
  8
0
 10
256.956722012231694
 20
26.4030392594109209
 30
0.0
 40
0.0117800709715058
 50
343.940079654207409
 51
66.7335091617738669
  0
ARC
  5
42E7
  8
0
 10
256.909668279547418
 20
26.2382717814880806
 30
0.0
 40
0.011811167952724
 50
229.6129128281968974
 51
344.0712195838893876
  0
LINE
  5
42E8
  8
0
 10
256.9020152538749926
 20
26.2292753996340195
 30
0.0
 11
256.7303512140749717
 21
26.3753118694340216
 31
0.0
  0
ARC
  5
42E9
  8
0
 10
256.7380045637871149
 20
26.3843079694432383
 30
0.0
 40
0.0118111632446675
 50
118.0723491837785986
 51
229.610829636411097
  0
LINE
  5
42EA
  8
0
 10
256.7324463943750175
 20
26.3947295974340186
 30
0.0
 11
256.8497724244750202
 21
26.4573004997340284
 31
0.0
  0
ARC
  5
42EB
  8
0
 10
256.8553306210619098
 20
26.4468721870338506
 30
0.0
 40
0.0118170747256432
 50
66.615422949221383
 51
118.0572131781828062
  0
LINE
  5
42EC
  8
0
 10
257.1783245786749035
 20
26.8200357811340204
 30
0.0
 11
257.2761145336750133
 21
26.7749356582340212
 31
0.0
  0
ARC
  5
42ED
  8
0
 10
257.2711766838431799
 20
26.7642191082013703
 30
0.0
 40
0.0117994409004457
 50
25.904808874320679
 51
65.2612334471571813
  0
LINE
  5
42EE
  8
0
 10
257.2817905300749999
 20
26.7693740159340194
 30
0.0
 11
257.3806120087750173
 21
26.5660841168340092
 31
0.0
  0
ARC
  5
42EF
  8
0
 10
257.3699163662645901
 20
26.5609332963433182
 30
0.0
 40
0.0118712981781845
 50
314.3340621938281743
 51
25.7145923924314914
  0
LINE
  5
42F0
  8
0
 10
257.3782125118750059
 20
26.5524420250340185
 30
0.0
 11
257.3640696628924047
 21
26.5386241725322485
 31
0.0
  0
ARC
  5
42F1
  8
0
 10
257.3558947372708872
 20
26.5469913727533395
 30
0.0
 40
0.0116978394780865
 50
247.1839349589870949
 51
314.3340621938303912
  0
LINE
  5
42F2
  8
0
 10
257.351358618674908
 20
26.536208837034021
 30
0.0
 11
257.2323617986747877
 21
26.5844507910719301
 31
0.0
  0
ARC
  5
42F3
  8
0
 10
257.2367744426596232
 20
26.5953873092586406
 30
0.0
 40
0.0117931699294289
 50
196.4699724728793058
 51
248.0270105084418049
  0
LINE
  5
42F4
  8
0
 10
257.2254651647750165
 20
26.5920437945340105
 30
0.0
 11
257.1620541700748959
 21
26.8059535962340192
 31
0.0
  0
ARC
  5
42F5
  8
0
 10
257.1733783833836924
 20
26.8093101411532899
 30
0.0
 40
0.011811189646095
 50
65.2429182033205137
 51
196.510047159835807
  0
LINE
  5
42F6
  8
0
 10
256.2148930125749757
 20
26.6753192114340187
 30
0.0
 11
256.2089013994749962
 21
26.6732671064340217
 31
0.0
  0
ARC
  5
42F7
  8
0
 10
256.2127283931727106
 20
26.6620932797668502
 30
0.0
 40
0.011811023797714
 50
108.9061395780395003
 51
179.9999991890713034
  0
LINE
  5
42F8
  8
0
 10
256.2009173693750199
 20
26.6620932799340196
 30
0.0
 11
256.2009173640582844
 21
26.2864522166340215
 31
0.0
  0
ARC
  5
42F9
  8
0
 10
256.2127283901510282
 20
26.2864522164668486
 30
0.0
 40
0.0118110260926319
 50
179.9999991890736055
 51
330.9336493827423169
  0
LINE
  5
42FA
  8
0
 10
256.2230519083748845
 20
26.2807141585340212
 30
0.0
 11
256.3617271599046035
 21
26.5302091101597597
 31
0.0
  0
ARC
  5
42FB
  8
0
 10
256.3514036306714843
 20
26.5359471742117314
 30
0.0
 40
0.0118110386880494
 50
330.9336493827294134
 51
45.9847645210286373
  0
LINE
  5
42FC
  8
0
 10
256.3596105264750236
 20
26.544441142434021
 30
0.0
 11
256.2269274040660889
 21
26.67263994563098
 31
0.0
  0
ARC
  5
42FD
  8
0
 10
256.2187210348060944
 20
26.6641465223703591
 30
0.0
 40
0.0118102809075496
 50
45.9847645210265981
 51
108.9126483869488027
  0
LINE
  5
42FE
  8
0
 10
256.5486598404646088
 20
26.3413825356388287
 30
0.0
 11
256.3624654549749948
 21
26.2420347799340199
 31
0.0
  0
LINE
  5
42FF
  8
0
 10
256.5506245655749922
 20
26.3598844264340215
 30
0.0
 11
256.4084400603749145
 21
26.4972623149340087
 31
0.0
  0
ARC
  5
4300
  8
0
 10
256.5424393940958225
 20
26.3513983509469583
 30
0.0
 40
0.0117902718082852
 50
301.8428614719999814
 51
46.0340353011414223
  0
ARC
  5
4301
  8
0
 10
256.3569089095893787
 20
26.2524396002031111
 30
0.0
 40
0.0117955704166513
 50
251.2801940441383124
 51
298.1038081911700033
  0
LINE
  5
4302
  8
0
 10
256.3531232344749924
 20
26.2412680226340207
 30
0.0
 11
256.2770922847749944
 21
26.2669843733340187
 31
0.0
  0
ARC
  5
4303
  8
0
 10
256.2808288027794106
 20
26.2781545010444297
 30
0.0
 40
0.0117785109357688
 50
150.2655245831331001
 51
251.5044029126725036
  0
LINE
  5
4304
  8
0
 10
256.2706011302748834
 20
26.2839964215340203
 30
0.0
 11
256.3899577591749903
 21
26.4945920119340315
 31
0.0
  0
ARC
  5
4305
  8
0
 10
256.4002332411691896
 20
26.4887681165510216
 30
0.0
 40
0.0118111509873445
 50
45.985807545628191
 51
150.4564813064694988
  0
LINE
  5
4306
  8
0
 10
256.2530352850748727
 20
26.2335601606340205
 30
0.0
 11
256.4233388878748769
 21
26.1759574714340211
 31
0.0
  0
ARC
  5
4307
  8
0
 10
256.4195545900474826
 20
26.1647691126431603
 30
0.0
 40
0.0118110237693444
 50
21.1713608550270216
 51
71.3126484894577857
  0
LINE
  5
4308
  8
0
 10
256.430568422174872
 20
26.1690347643340218
 30
0.0
 11
256.4576672683153902
 21
26.0990660552433411
 31
0.0
  0
ARC
  5
4309
  8
0
 10
256.446653436559302
 20
26.0948004036963113
 30
0.0
 40
0.0118110233711391
 50
300.5891918630509281
 51
21.1713608550277783
  0
LINE
  5
430A
  8
0
 10
256.4526638187750223
 20
26.0846330255340213
 30
0.0
 11
256.225219033346491
 21
25.9501804585526799
 31
0.0
  0
ARC
  5
430B
  8
0
 10
256.2192086496373804
 20
25.96034783924134
 30
0.0
 40
0.011811026305922
 50
215.607641112118614
 51
300.5891918630433111
  0
LINE
  5
430C
  8
0
 10
256.2096060121750156
 20
25.9534710888340214
 30
0.0
 11
256.2031257291044994
 21
25.9625201025822783
 31
0.0
  0
ARC
  5
430D
  8
0
 10
256.2127282399733872
 20
25.9693967623319999
 30
0.0
 40
0.0118108705987521
 50
179.9995949228751897
 51
215.607641112122792
  0
LINE
  5
430E
  8
0
 10
256.2009173693750199
 20
25.9693968458340194
 30
0.0
 11
256.2009187023003278
 21
26.1579313033293204
 31
0.0
  0
ARC
  5
430F
  8
0
 10
256.2127361699792232
 20
26.1579312197806502
 30
0.0
 40
0.0118174676791445
 50
150.4828714988211971
 51
179.9995949228662084
  0
LINE
  5
4310
  8
0
 10
256.2024525097750143
 20
26.1637534938340188
 30
0.0
 11
256.2389467162319079
 21
26.2282118163355307
 31
0.0
  0
ARC
  5
4311
  8
0
 10
256.249212633211414
 20
26.2223995879190817
 30
0.0
 40
0.0117970780532856
 50
71.092952522180326
 51
150.4828714988223055
  0
LINE
  5
4312
  8
0
 10
256.6859021454749836
 20
26.3614361608340211
 30
0.0
 11
256.8354172897750232
 21
26.2342419978340189
 31
0.0
  0
ARC
  5
4313
  8
0
 10
256.8277641867700254
 20
26.2252458711789096
 30
0.0
 40
0.0118110236813061
 50
327.9354576818294049
 51
49.6118249395199271
  0
LINE
  5
4314
  8
0
 10
256.8377734460748911
 20
26.2189757030340189
 30
0.0
 11
256.7695153159858137
 21
26.1100131827393014
 31
0.0
  0
ARC
  5
4315
  8
0
 10
256.7595060568764893
 20
26.1162833507615488
 30
0.0
 40
0.0118110234503094
 50
251.3126460502516011
 51
327.9354576818320197
  0
LINE
  5
4316
  8
0
 10
256.7557217586748948
 20
26.1050949924340188
 30
0.0
 11
256.4350357835018031
 21
26.2135623228135195
 31
0.0
  0
ARC
  5
4317
  8
0
 10
256.4388200799485276
 20
26.2247506759527305
 30
0.0
 40
0.0118110179732393
 50
118.071386648509602
 51
251.3126460502496968
  0
LINE
  5
4318
  8
0
 10
256.4332621539750221
 20
26.2351722691340186
 30
0.0
 11
256.6726910466791765
 21
26.3628617728825709
 31
0.0
  0
ARC
  5
4319
  8
0
 10
256.6782489281188191
 20
26.3524402632063293
 30
0.0
 40
0.0118109233351413
 50
49.6106825126273776
 51
118.071386648509403
  0
LINE
  5
431A
  8
0
 10
257.0387368552749194
 20
26.4289259980340212
 30
0.0
 11
257.1648950461748768
 21
26.1691067436340212
 31
0.0
  0
ARC
  5
431B
  8
0
 10
257.154270295590095
 20
26.1639477752748313
 30
0.0
 40
0.0118110236441672
 50
283.461816985000894
 51
25.8994181777620298
  0
LINE
  5
431C
  8
0
 10
257.1570198700749188
 20
26.1524612562340195
 30
0.0
 11
257.0343121990350141
 21
26.1230882251009291
 31
0.0
  0
ARC
  5
431D
  8
0
 10
257.0315626244740201
 20
26.1345747444595098
 30
0.0
 40
0.0118110239709183
 50
229.6118268096502959
 51
283.4618169850041909
  0
LINE
  5
431E
  8
0
 10
257.0239095215749785
 20
26.1255786173340212
 30
0.0
 11
256.9547254921113222
 21
26.1844342214256898
 31
0.0
  0
ARC
  5
431F
  8
0
 10
256.9623785929898077
 20
26.1934303461762106
 30
0.0
 40
0.0118110208528068
 50
164.0722826388293925
 51
229.6118268096479937
  0
LINE
  5
4320
  8
0
 10
256.9510210129748771
 20
26.1966715789340192
 30
0.0
 11
257.016754619769813
 21
26.4270082300257592
 31
0.0
  0
ARC
  5
4321
  8
0
 10
257.0281121619867122
 20
26.4237670080547602
 30
0.0
 40
0.0118109815457689
 50
25.8996339304906904
 51
164.0722826388210933
  0
LINE
  5
4322
  8
0
 10
257.5122942429749173
 20
26.4284917130340204
 30
0.0
 11
257.766162640074981
 21
26.3791561679340205
 31
0.0
  0
ARC
  5
4323
  8
0
 10
257.7639094954016059
 20
26.3675620480048813
 30
0.0
 40
0.0118110235733547
 50
359.9999996562605133
 51
79.0024949705592547
  0
LINE
  5
4324
  8
0
 10
257.7757205189748788
 20
26.3675620479340189
 30
0.0
 11
257.7757205183560814
 21
26.2644194756340212
 31
0.0
  0
ARC
  5
4325
  8
0
 10
257.7639094939486881
 20
26.2644194757048801
 30
0.0
 40
0.0118110244073968
 50
298.2766525951515746
 51
359.999999656266823
  0
LINE
  5
4326
  8
0
 10
257.7695047232750198
 20
26.2540178553340198
 30
0.0
 11
257.6616240026532978
 21
26.1959867649624414
 31
0.0
  0
ARC
  5
4327
  8
0
 10
257.6560287819100949
 20
26.2063883693774606
 30
0.0
 40
0.0118110062895589
 50
240.4873862351485059
 51
298.2766525951573726
  0
LINE
  5
4328
  8
0
 10
257.6502105011750245
 20
26.1961098734340183
 30
0.0
 11
257.5899677792842795
 21
26.2302110756076594
 31
0.0
  0
ARC
  5
4329
  8
0
 10
257.5957657518796964
 20
26.2404536954665417
 30
0.0
 40
0.0117697811275695
 50
205.9397223067028904
 51
240.4873862351448111
  0
LINE
  5
432A
  8
0
 10
257.5851817204750205
 20
26.2353052950340206
 30
0.0
 11
257.4993723395651841
 21
26.4117113835418706
 31
0.0
  0
ARC
  5
432B
  8
0
 10
257.5100094830817739
 20
26.4168856193493617
 30
0.0
 40
0.0118288434931872
 50
78.8632353622289202
 51
205.9397223067024072
  0
LINE
  5
432C
  8
0
 10
257.2604069149750217
 20
26.3715222833340199
 30
0.0
 11
257.4241945565748892
 21
26.2788085485340197
 31
0.0
  0
ARC
  5
432D
  8
0
 10
257.4183762891964875
 20
26.2685300251397003
 30
0.0
 40
0.0118110235989495
 50
327.607570545039323
 51
60.4875082210388015
  0
LINE
  5
432E
  8
0
 10
257.4283495023748856
 20
26.2622026799340205
 30
0.0
 11
257.3974091414091276
 21
26.2134342303392813
 31
0.0
  0
ARC
  5
432F
  8
0
 10
257.3874359277804729
 20
26.2197615758305105
 30
0.0
 40
0.0118110241319789
 50
283.4618194589892823
 51
327.6075705450440978
  0
LINE
  5
4330
  8
0
 10
257.3901855028748855
 20
26.2082750564340188
 30
0.0
 11
257.2197535951787017
 21
26.1674780741168398
 31
0.0
  0
ARC
  5
4331
  8
0
 10
257.2170040208073942
 20
26.1789645904916597
 30
0.0
 40
0.0118110210249384
 50
205.8993714907626043
 51
283.4618194589842801
  0
LINE
  5
4332
  8
0
 10
257.206379268374917
 20
26.1738056319340195
 30
0.0
 11
257.1582412324497113
 21
26.2729447718550801
 31
0.0
  0
ARC
  5
4333
  8
0
 10
257.1688660358819902
 20
26.2781037551761614
 30
0.0
 40
0.0118110777188463
 50
134.1244016539694996
 51
205.8993714907620074
  0
LINE
  5
4334
  8
0
 10
257.1606429441749242
 20
26.2865820993340193
 30
0.0
 11
257.2463647485029128
 21
26.3697231284257114
 31
0.0
  0
ARC
  5
4335
  8
0
 10
257.2545873093765749
 20
26.3612453315786794
 30
0.0
 40
0.0118103152668172
 50
60.4781024851870725
 51
134.1244016539642985
  0
LINE
  5
4336
  8
0
 10
257.4790826711749787
 20
26.24773854813402
 30
0.0
 11
257.5962805258748745
 21
26.1813974573340182
 31
0.0
  0
ARC
  5
4337
  8
0
 10
257.5904622584843082
 20
26.1711189339025907
 30
0.0
 40
0.011811023637251
 50
298.2766466973758952
 51
60.4875082582914487
  0
LINE
  5
4338
  8
0
 10
257.5960574863748889
 20
26.1607173136340201
 30
0.0
 11
257.4296854844881182
 21
26.0712226732659609
 31
0.0
  0
ARC
  5
4339
  8
0
 10
257.4240902573400263
 20
26.0816242921540287
 30
0.0
 40
0.0118110220697029
 50
245.5932687116026898
 51
298.2766466973722004
  0
LINE
  5
433A
  8
0
 10
257.419209808175026
 20
26.0708687606340206
 30
0.0
 11
257.3806244891358119
 21
26.0883773038184508
 31
0.0
  0
ARC
  5
433B
  8
0
 10
257.3855049392549859
 20
26.0991328374411395
 30
0.0
 40
0.0118110243787266
 50
147.6076080627753981
 51
245.593268711600814
  0
LINE
  5
433C
  8
0
 10
257.3755317212750242
 20
26.1054601765340202
 30
0.0
 11
257.4632911005846267
 21
26.2437874270268985
 31
0.0
  0
ARC
  5
433D
  8
0
 10
257.4732643063065893
 20
26.2374600957109898
 30
0.0
 40
0.0118110098617323
 50
60.4869270565939132
 51
147.6076080627726981
  0
ARC
  5
433E
  8
0
 10
257.3389839936713201
 20
26.1433915552561693
 30
0.0
 40
0.0118111926812245
 50
327.6095930864826755
 51
103.4597946519853053
  0
LINE
  5
433F
  8
0
 10
257.3489575729749959
 20
26.1370644715340212
 30
0.0
 11
257.1736778038722946
 21
25.860765507550191
 31
0.0
  0
ARC
  5
4340
  8
0
 10
257.1637205765542262
 20
25.8670822178268516
 30
0.0
 40
0.0117918278729081
 50
275.4048888616281943
 51
327.6095930864804018
  0
LINE
  5
4341
  8
0
 10
257.1648312872749784
 20
25.8553428172340212
 30
0.0
 11
257.0534061466822209
 21
25.8448004477796687
 31
0.0
  0
ARC
  5
4342
  8
0
 10
257.0522957355266271
 20
25.8565366821875209
 30
0.0
 40
0.0117886475479835
 50
173.0832975262742082
 51
275.4048888616313775
  0
LINE
  5
4343
  8
0
 10
257.0405928824749253
 20
25.8579563446340188
 30
0.0
 11
257.0720073019749066
 21
26.0839111956340197
 31
0.0
  0
ARC
  5
4344
  8
0
 10
257.0836822239763251
 20
26.0823061592049008
 30
0.0
 40
0.0117847335853493
 50
103.3745418958002062
 51
172.1722015416266913
  0
LINE
  5
4345
  8
0
 10
257.0809562306748717
 20
26.0937712761340208
 30
0.0
 11
257.3362347852749963
 21
26.1548783357340184
 31
0.0
  0
LINE
  5
4346
  8
0
 10
256.883907418875026
 20
26.1929909165340185
 30
0.0
 11
257.0251913861749244
 21
26.0727991054340187
 31
0.0
  0
ARC
  5
4347
  8
0
 10
257.0175382832097171
 20
26.0638029788327188
 30
0.0
 40
0.0118110236145812
 50
352.0849260322498822
 51
49.6118249171091819
  0
LINE
  5
4348
  8
0
 10
257.029236786374895
 20
26.0621765402340202
 30
0.0
 11
257.0270999939314152
 21
26.0468072092400718
 31
0.0
  0
ARC
  5
4349
  8
0
 10
257.0154014906025282
 20
26.0484336478615184
 30
0.0
 40
0.0118110237797502
 50
291.7680010183690911
 51
352.0849260322399914
  0
LINE
  5
434A
  8
0
 10
257.0197815996750137
 20
26.0374648317340203
 30
0.0
 11
256.7209645240591271
 21
25.9181400688148393
 31
0.0
  0
ARC
  5
434B
  8
0
 10
256.7165844141320008
 20
25.9291088870825099
 30
0.0
 40
0.0118110260842361
 50
147.9354477732576072
 51
291.7680010183794934
  0
LINE
  5
434C
  8
0
 10
256.7065751538748941
 20
25.9353790582340196
 30
0.0
 11
256.866245099977391
 21
26.1902649309077695
 31
0.0
  0
ARC
  5
434D
  8
0
 10
256.876254354159812
 20
26.1839947635616284
 30
0.0
 40
0.0118110189161133
 50
49.6120491399414973
 51
147.9354477732537987
  0
LINE
  5
434E
  8
0
 10
256.5010735577748733
 20
26.1496648625340207
 30
0.0
 11
256.7289168371750065
 21
26.0726002238340193
 31
0.0
  0
ARC
  5
434F
  8
0
 10
256.725132539381093
 20
26.0614118651505784
 30
0.0
 40
0.0118110236568272
 50
327.9354577696101956
 51
71.312648476877655
  0
LINE
  5
4350
  8
0
 10
256.7351417986748743
 20
26.0551416970340206
 30
0.0
 11
256.6274565607690192
 21
25.883240489875341
 31
0.0
  0
ARC
  5
4351
  8
0
 10
256.6174859710433225
 20
25.8894864339523494
 30
0.0
 40
0.0117653931890657
 50
291.7821249205608183
 51
327.9354577696205979
  0
LINE
  5
4352
  8
0
 10
256.6218518513749132
 20
25.878561070534019
 30
0.0
 11
256.6012715272042897
 21
25.8703369749981391
 31
0.0
  0
ARC
  5
4353
  8
0
 10
256.5968897575663732
 20
25.8813021004878507
 30
0.0
 40
0.0118082124881484
 50
201.1267384043964057
 51
291.7821249205466074
  0
LINE
  5
4354
  8
0
 10
256.5858752289749987
 20
25.8770460410340206
 30
0.0
 11
256.486475738452782
 21
26.1342883427927895
 31
0.0
  0
ARC
  5
4355
  8
0
 10
256.4974189583169277
 20
26.138516848259119
 30
0.0
 40
0.011731765403045
 50
71.849555035818284
 51
201.1267384043989921
  0
LINE
  5
4356
  8
0
 10
256.4807282419748731
 20
26.039523053734019
 30
0.0
 11
256.5493993687750276
 21
25.8622154970340183
 31
0.0
  0
ARC
  5
4357
  8
0
 10
256.5383855367666115
 20
25.8579498454821284
 30
0.0
 40
0.0118110236080632
 50
291.7679999712315748
 51
21.1713604351225015
  0
LINE
  5
4358
  8
0
 10
256.5427656455748888
 20
25.8469810294340192
 30
0.0
 11
256.4396885599542202
 21
25.8058199005859983
 31
0.0
  0
ARC
  5
4359
  8
0
 10
256.4353084509659766
 20
25.8167887170846306
 30
0.0
 40
0.0118110240931704
 50
252.4323194244101956
 51
291.7679999712211156
  0
LINE
  5
435A
  8
0
 10
256.4317435039749853
 20
25.8055285464340187
 30
0.0
 11
256.2134768051396918
 21
25.8746313367371314
 31
0.0
  0
ARC
  5
435B
  8
0
 10
256.2170417526789947
 20
25.8858915091199187
 30
0.0
 40
0.0118110259100934
 50
120.589181699353901
 51
252.4323194244169883
  0
LINE
  5
435C
  8
0
 10
256.2110313709749789
 20
25.8960588905340217
 30
0.0
 11
256.4637040640000123
 21
26.0454247173319899
 31
0.0
  0
ARC
  5
435D
  8
0
 10
256.4697144405894846
 20
26.03525734456991
 30
0.0
 40
0.0118110158593971
 50
21.1716747022437985
 51
120.5891816993687939
  0
LINE
  5
435E
  8
0
 10
256.2162933401749001
 20
25.8324435498340215
 30
0.0
 11
256.3854977983750132
 21
25.7788737596340205
 31
0.0
  0
ARC
  5
435F
  8
0
 10
256.3819328512153106
 20
25.7676135894819716
 30
0.0
 40
0.0118110236687741
 50
17.3211980991560992
 51
72.4323179143603824
  0
LINE
  5
4360
  8
0
 10
256.393208253374894
 20
25.7711300630340183
 30
0.0
 11
256.4168257201711185
 21
25.6954017994263815
 31
0.0
  0
ARC
  5
4361
  8
0
 10
256.4055503181444919
 20
25.6918853259158304
 30
0.0
 40
0.0118110235293924
 50
304.7196124708275988
 51
17.3211980991495906
  0
LINE
  5
4362
  8
0
 10
256.4122774154748754
 20
25.6821772654340208
 30
0.0
 11
256.2194554866096041
 21
25.5485633592007702
 31
0.0
  0
ARC
  5
4363
  8
0
 10
256.2127283905946911
 20
25.5582714177841517
 30
0.0
 40
0.0118110212197333
 50
180.0000196473874894
 51
304.719612470819925
  0
LINE
  5
4364
  8
0
 10
256.2009173693750199
 20
25.558271413734019
 30
0.0
 11
256.2009172792194249
 21
25.8211833797339985
 31
0.0
  0
ARC
  5
4365
  8
0
 10
256.2127283207803998
 20
25.8211833837841382
 30
0.0
 40
0.0118110415609543
 50
72.4319778366181311
 51
180.0000196473964138
  0
LINE
  5
4366
  8
0
 10
256.4587112039749854
 20
25.7556945431340196
 30
0.0
 11
256.7042433523749878
 21
25.6779595601340205
 31
0.0
  0
ARC
  5
4367
  8
0
 10
256.7006784052318835
 20
25.666699390038179
 30
0.0
 40
0.0118110236101816
 50
298.3155442249534985
 51
72.4323179086484146
  0
LINE
  5
4368
  8
0
 10
256.7062806933749926
 20
25.6563015707340192
 30
0.0
 11
256.5168266644934079
 21
25.5542247766854587
 31
0.0
  0
ARC
  5
4369
  8
0
 10
256.5112243763584843
 20
25.5646225959741891
 30
0.0
 40
0.01181102359265
 50
197.3211981539409123
 51
298.3155442249500879
  0
LINE
  5
436A
  8
0
 10
256.4999489742750143
 20
25.561106122434019
 30
0.0
 11
256.4438708538829133
 21
25.7409178992870089
 31
0.0
  0
ARC
  5
436B
  8
0
 10
256.45514625625799
 20
25.7444343729180716
 30
0.0
 40
0.0118110238979104
 50
72.4323154304890267
 51
197.3211981539386954
  0
LINE
  5
436C
  8
0
 10
256.7414857154748802
 20
25.8758361845340197
 30
0.0
 11
256.8556143346750105
 21
25.7535863002340193
 31
0.0
  0
ARC
  5
436D
  8
0
 10
256.8469808356483099
 20
25.7455263390453695
 30
0.0
 40
0.0118110236561372
 50
298.3155445652375874
 51
43.0322607570354094
  0
LINE
  5
436E
  8
0
 10
256.8525831238749788
 20
25.7351285197340189
 30
0.0
 11
256.7835244541731754
 21
25.6979200858659986
 31
0.0
  0
ARC
  5
436F
  8
0
 10
256.7779221664823126
 20
25.7083179041830086
 30
0.0
 40
0.0118110225266538
 50
252.4323128643993925
 51
298.3155445652375874
  0
LINE
  5
4370
  8
0
 10
256.7743572186748793
 20
25.6970577354340186
 30
0.0
 11
256.5264868094038775
 21
25.7755330311196111
 31
0.0
  0
ARC
  5
4371
  8
0
 10
256.5300517546393166
 20
25.7867931917448203
 30
0.0
 40
0.0118110140054494
 50
111.7680449829297942
 51
252.4323128644012968
  0
LINE
  5
4372
  8
0
 10
256.525671640774874
 20
25.7977619954340192
 30
0.0
 11
256.7284720440072761
 21
25.8787451986220916
 31
0.0
  0
ARC
  5
4373
  8
0
 10
256.7328521202695129
 20
25.8677764890971211
 30
0.0
 40
0.0118109126110744
 50
43.0310000086743329
 51
111.7680449829297942
  0
LINE
  5
4374
  8
0
 10
257.0171154632749904
 20
25.9749913619340198
 30
0.0
 11
256.9797850849749921
 21
25.7064847264340202
 31
0.0
  0
ARC
  5
4375
  8
0
 10
256.9680865818270945
 20
25.7081111650031815
 30
0.0
 40
0.0118110235932247
 50
223.0322602489113137
 51
352.0849261625162967
  0
LINE
  5
4376
  8
0
 10
256.959453082774985
 20
25.7000512039340201
 30
0.0
 11
256.7869928854076989
 21
25.8847834796516914
 31
0.0
  0
ARC
  5
4377
  8
0
 10
256.7956263841064128
 20
25.8928434403908589
 30
0.0
 40
0.0118110231096595
 50
111.7680083703165934
 51
223.0322602489083863
  0
LINE
  5
4378
  8
0
 10
256.7912462738750037
 20
25.9038122553340209
 30
0.0
 11
257.0010368390437066
 21
25.9875866471639405
 31
0.0
  0
ARC
  5
4379
  8
0
 10
257.0054169531442767
 20
25.976617822531491
 30
0.0
 40
0.0118110335429118
 50
352.084824984963177
 51
111.768008370320004
  0
LINE
  5
437A
  8
0
 10
257.3563090955749999
 20
26.0561770428340189
 30
0.0
 11
257.6091025986748946
 21
25.9414690601340183
 31
0.0
  0
ARC
  5
437B
  8
0
 10
257.604222150541716
 20
25.9307135263753707
 30
0.0
 40
0.0118110236819413
 50
346.2757997436464734
 51
65.593277756957832
  0
LINE
  5
437C
  8
0
 10
257.6156959576749159
 20
25.9279113789340201
 30
0.0
 11
257.6104358879455276
 21
25.9063732454679396
 31
0.0
  0
ARC
  5
437D
  8
0
 10
257.5989620811060945
 20
25.9091753928375113
 30
0.0
 40
0.0118110233794075
 50
275.5215023990684244
 51
346.2757997436530104
  0
LINE
  5
437E
  8
0
 10
257.6000985295748933
 20
25.8974191707340218
 30
0.0
 11
257.2443053594683988
 21
25.8630254173805803
 31
0.0
  0
ARC
  5
437F
  8
0
 10
257.2431689113788025
 20
25.8747816355615008
 30
0.0
 40
0.0118110194385545
 50
147.6075998695083911
 51
275.5215023990651275
  0
LINE
  5
4380
  8
0
 10
257.233195698475015
 20
25.8811089734340207
 30
0.0
 11
257.3414553474760851
 21
26.0517489092387002
 31
0.0
  0
ARC
  5
4381
  8
0
 10
257.3514285441942775
 20
26.04542158163488
 30
0.0
 40
0.0118110002703227
 50
65.5926762114313107
 51
147.6075998695050089
  0
LINE
  5
4382
  8
0
 10
257.6674771110750157
 20
25.914980948434021
 30
0.0
 11
257.7651551179749276
 21
25.8706584204340189
 31
0.0
  0
ARC
  5
4383
  8
0
 10
257.7602746698004239
 20
25.8599028865784
 30
0.0
 40
0.0118110237872964
 50
9.8992158565862862
 51
65.5932777690605917
  0
LINE
  5
4384
  8
0
 10
257.7719098472750261
 20
25.8619333860340213
 30
0.0
 11
257.7757198709578006
 21
25.8401011705122094
 31
0.0
  0
LINE
  5
4385
  8
0
 10
257.7757198709578006
 20
25.8401011705122094
 30
0.0
 11
257.7757205189748788
 21
25.6832722492340295
 31
0.0
  0
ARC
  5
4386
  8
0
 10
257.7639095709391768
 20
25.6832722004311798
 30
0.0
 40
0.0118109480359059
 50
294.3674080558287756
 51
0.0002367461827763
  0
LINE
  5
4387
  8
0
 10
257.7687826066750176
 20
25.6725133893340107
 30
0.0
 11
257.5941956685339846
 21
25.5934369578507805
 31
0.0
  0
ARC
  5
4388
  8
0
 10
257.5893227161723189
 20
25.6041955848723504
 30
0.0
 40
0.0118107459589955
 50
166.2779010486858908
 51
294.3674080558341188
  0
LINE
  5
4389
  8
0
 10
257.5778490760749264
 20
25.6069972456340196
 30
0.0
 11
257.6511118495620281
 21
25.9070302499956497
 31
0.0
  0
ARC
  5
438A
  8
0
 10
257.6625871351409955
 20
25.9042281874363383
 30
0.0
 40
0.0118124397864039
 50
65.5456361028274301
 51
166.27790104869689
  0
LINE
  5
438B
  8
0
 10
257.3520552700750272
 20
25.8338877580340203
 30
0.0
 11
257.5819961969750125
 21
25.8561156556340102
 31
0.0
  0
ARC
  5
438C
  8
0
 10
257.5831326458392141
 20
25.8443594333437687
 30
0.0
 40
0.0118110236033465
 50
346.2757993089539923
 51
95.5215042213020524
  0
LINE
  5
438D
  8
0
 10
257.5946064528749275
 20
25.8415572858340212
 30
0.0
 11
257.5278882777993203
 21
25.5683698594303905
 31
0.0
  0
ARC
  5
438E
  8
0
 10
257.5164144715582779
 20
25.5711720067460497
 30
0.0
 40
0.0118110227852599
 50
294.3676393946777807
 51
346.2757993089524007
  0
LINE
  5
438F
  8
0
 10
257.5212875815748816
 20
25.5604131472340192
 30
0.0
 11
257.4635927717458799
 21
25.5342809019554089
 31
0.0
  0
ARC
  5
4390
  8
0
 10
257.4587196611183231
 20
25.5450397628163195
 30
0.0
 40
0.0118110242660529
 50
200.8489204028394113
 51
294.3676393946689132
  0
LINE
  5
4391
  8
0
 10
257.4476819974750015
 20
25.5408361601340204
 30
0.0
 11
257.342153911585001
 21
25.8179278847822005
 31
0.0
  0
ARC
  5
4392
  8
0
 10
257.3531916000379169
 20
25.8221314969130198
 30
0.0
 40
0.0118110508139465
 50
95.520911978512018
 51
200.848920402840406
  0
LINE
  5
4393
  8
0
 10
257.0422364792748908
 20
25.8039382380340108
 30
0.0
 11
257.2870430082750204
 21
25.8276031616340198
 31
0.0
  0
ARC
  5
4394
  8
0
 10
257.2881794571479759
 20
25.8158469392736087
 30
0.0
 40
0.0118110236740242
 50
20.8488912755496685
 51
95.5215042305652844
  0
LINE
  5
4395
  8
0
 10
257.299217122375012
 20
25.8200505361340191
 30
0.0
 11
257.3579221316484222
 21
25.6659048696904684
 31
0.0
  0
ARC
  5
4396
  8
0
 10
257.3468844661791195
 20
25.6617012727378189
 30
0.0
 40
0.0118110239331987
 50
248.7716298215671031
 51
20.8488912755449114
  0
LINE
  5
4397
  8
0
 10
257.3426078577750218
 20
25.6506916902340194
 30
0.0
 11
257.037436489952313
 21
25.769233736300901
 31
0.0
  0
ARC
  5
4398
  8
0
 10
257.0417130994981108
 20
25.7802433217436615
 30
0.0
 40
0.0118110270861009
 50
172.0849901254736096
 51
248.7716298215758002
  0
LINE
  5
4399
  8
0
 10
257.0300145910749734
 20
25.7818697477340208
 30
0.0
 11
257.0316744117121175
 21
25.7938084561779384
 31
0.0
  0
ARC
  5
439A
  8
0
 10
257.0433728960974804
 20
25.7921820335295209
 30
0.0
 40
0.0118110028171189
 50
95.521357807913148
 51
172.0849901254721885
  0
LINE
  5
439B
  8
0
 10
256.4364794301749271
 20
25.6323831285340198
 30
0.0
 11
256.4981960868748843
 21
25.4344916548340194
 31
0.0
  0
ARC
  5
439C
  8
0
 10
256.4869206846357201
 20
25.43097518130363
 30
0.0
 40
0.0118110237383156
 50
313.5011483145671036
 51
17.3211978838532197
  0
LINE
  5
439D
  8
0
 10
256.4950510285750056
 20
25.4224079303340211
 30
0.0
 11
256.4500917442638865
 21
25.3797414500349596
 31
0.0
  0
ARC
  5
439E
  8
0
 10
256.4419614007741188
 20
25.3883087005308887
 30
0.0
 40
0.0118110230852893
 50
256.5895700670200199
 51
313.5011483145668763
  0
LINE
  5
439F
  8
0
 10
256.4392221294748992
 20
25.3768197206340211
 30
0.0
 11
256.2099891250118162
 21
25.43147482453222
 31
0.0
  0
ARC
  5
43A0
  8
0
 10
256.2127283974737111
 20
25.4429638093058799
 30
0.0
 40
0.0118110280987741
 50
180.0000779652415872
 51
256.5895700670300812
  0
LINE
  5
43A1
  8
0
 10
256.2009173693750199
 20
25.4429637932340214
 30
0.0
 11
256.2009173167546123
 21
25.4816339124339883
 31
0.0
  0
ARC
  5
43A2
  8
0
 10
256.2127282398836883
 20
25.4816339285057012
 30
0.0
 40
0.0118109231291846
 50
124.7190480264874992
 51
180.0000779652449978
  0
LINE
  5
43A3
  8
0
 10
256.2060012953750174
 20
25.4913419727340198
 30
0.0
 11
256.4184783852355167
 21
25.6385726156182017
 31
0.0
  0
ARC
  5
43A4
  8
0
 10
256.4252051010274727
 20
25.6288649014643504
 30
0.0
 40
0.0118105215566246
 50
17.33086888298822
 51
124.7190480264954004
  0
LINE
  5
43A5
  8
0
 10
256.2009173693750199
 20
25.3782059599340215
 30
0.0
 11
256.2009173693750199
 21
25.1707659701340205
 31
0.0
  0
ARC
  5
43A6
  8
0
 10
256.2127283930108774
 20
25.1707659701340205
 30
0.0
 40
0.011811023636005
 50
180.0000000000046043
 51
313.5011482822097264
  0
LINE
  5
43A7
  8
0
 10
256.2208587368750159
 20
25.16219871923402
 30
0.0
 11
256.3955555508994735
 21
25.32798645984575
 31
0.0
  0
ARC
  5
43A8
  8
0
 10
256.3874252072595823
 20
25.3365537105095697
 30
0.0
 40
0.0118110233103993
 50
313.5011482822113749
 51
76.589570246979676
  0
LINE
  5
43A9
  8
0
 10
256.3901644785750022
 20
25.3480426906340206
 30
0.0
 11
256.2154676659031907
 21
25.3896949489407504
 31
0.0
  0
ARC
  5
43AA
  8
0
 10
256.212728394229714
 20
25.3782059673140594
 30
0.0
 40
0.0118110248547597
 50
76.5895702469864119
 51
180.0000358008578019
  0
LINE
  5
43AB
  8
0
 10
256.9000588556748994
 20
25.7059791568340188
 30
0.0
 11
256.9655499728748964
 21
25.6358277648340191
 31
0.0
  0
ARC
  5
43AC
  8
0
 10
256.9569164738010727
 20
25.627767803604911
 30
0.0
 40
0.011811023718199
 50
352.0849262383414953
 51
43.0322607444094629
  0
LINE
  5
43AD
  8
0
 10
256.9686149770748784
 20
25.6261413650340195
 30
0.0
 11
256.9508327032762054
 21
25.4982386013060491
 31
0.0
  0
ARC
  5
43AE
  8
0
 10
256.9391342005882279
 20
25.4998650397954805
 30
0.0
 40
0.0118110231266722
 50
304.0270956221924052
 51
352.084926238346327
  0
LINE
  5
43AF
  8
0
 10
256.9457434707749144
 20
25.4900763823340206
 30
0.0
 11
256.8896796230494033
 21
25.4522222517973411
 31
0.0
  0
ARC
  5
43B0
  8
0
 10
256.8830703514169045
 20
25.4620109114000108
 30
0.0
 40
0.0118110257102575
 50
235.9590994056181898
 51
304.0270956221860956
  0
LINE
  5
43B1
  8
0
 10
256.8764587214748758
 20
25.4522238445340214
 30
0.0
 11
256.685897425948383
 21
25.5809570783545297
 31
0.0
  0
ARC
  5
43B2
  8
0
 10
256.6925090671962266
 20
25.5907441619563585
 30
0.0
 40
0.0118110459070586
 50
118.3152962711128993
 51
235.9590994056260911
  0
LINE
  5
43B3
  8
0
 10
256.6869068134748773
 20
25.6011420251340205
 30
0.0
 11
256.8858235323252757
 21
25.7083161540255603
 31
0.0
  0
ARC
  5
43B4
  8
0
 10
256.8914259649702103
 20
25.6979179587629716
 30
0.0
 40
0.0118114231259378
 50
43.0386602709301229
 51
118.315296271127707
  0
LINE
  5
43B5
  8
0
 10
257.0370758062750269
 20
25.7271378117340213
 30
0.0
 11
257.1809409603749828
 21
25.6712542331340217
 31
0.0
  0
ARC
  5
43B6
  8
0
 10
257.1766643524396159
 20
25.6602446508011397
 30
0.0
 40
0.0118110236041535
 50
304.027097269948797
 51
68.7716316410359951
  0
LINE
  5
43B7
  8
0
 10
257.1832736231748981
 20
25.6504559931340204
 30
0.0
 11
257.0159300584285802
 21
25.5374661468394493
 31
0.0
  0
ARC
  5
43B8
  8
0
 10
257.0093207879586998
 20
25.5472548041132299
 30
0.0
 40
0.0118110231295612
 50
172.0849295151388958
 51
304.0270972699453864
  0
LINE
  5
43B9
  8
0
 10
256.9976222851748844
 20
25.5488812419340192
 30
0.0
 11
257.0211006853122058
 21
25.7177546694052204
 31
0.0
  0
ARC
  5
43BA
  8
0
 10
257.0327991898257096
 20
25.7161282313439692
 30
0.0
 40
0.0118110248758914
 50
68.7715897300335826
 51
172.0849295151390947
  0
LINE
  5
43BB
  8
0
 10
257.25239973937488
 20
25.643496487834021
 30
0.0
 11
257.3813657599749831
 21
25.5934003905340184
 31
0.0
  0
ARC
  5
43BC
  8
0
 10
257.3770891520588862
 20
25.5823908082646589
 30
0.0
 40
0.0118110235379128
 50
20.8488910543506698
 51
68.7716316170551352
  0
LINE
  5
43BD
  8
0
 10
257.3881268171750207
 20
25.5865944050340204
 30
0.0
 11
257.4921057144431984
 21
25.3135700617980994
 31
0.0
  0
ARC
  5
43BE
  8
0
 10
257.4810680491779067
 20
25.3093664649718697
 30
0.0
 40
0.0118110236977043
 50
242.5569113965505039
 51
20.8488910543434187
  0
LINE
  5
43BF
  8
0
 10
257.4756247342750157
 20
25.2988845470340209
 30
0.0
 11
257.1461271982608991
 21
25.4699943438178202
 31
0.0
  0
ARC
  5
43C0
  8
0
 10
257.1515705148898974
 20
25.4804762650796093
 30
0.0
 40
0.0118110274431181
 50
189.1030836920423042
 51
242.556911396556103
  0
LINE
  5
43C1
  8
0
 10
257.139908243875027
 20
25.4786076281340215
 30
0.0
 11
257.1273554035578854
 21
25.5569506289674884
 31
0.0
  0
ARC
  5
43C2
  8
0
 10
257.1390176380332946
 20
25.5588192600583604
 30
0.0
 40
0.0118109904374619
 50
124.0268103569730016
 51
189.1030836920427021
  0
LINE
  5
43C3
  8
0
 10
257.1324084348748897
 20
25.5686079233340209
 30
0.0
 11
257.241514230012001
 21
25.6422750161245396
 31
0.0
  0
ARC
  5
43C4
  8
0
 10
257.2481240045423192
 20
25.6324855066098003
 30
0.0
 40
0.0118120115086154
 50
68.7780363113332953
 51
124.0268103569804055
  0
LINE
  5
43C5
  8
0
 10
257.7757205189748788
 20
25.6141198021340202
 30
0.0
 11
257.7757206011352764
 21
25.4934254358490193
 31
0.0
  0
ARC
  5
43C6
  8
0
 10
257.7639127311817902
 20
25.4934254278110508
 30
0.0
 40
0.0118078699534606
 50
332.1919740296826262
 51
0.0000390029439993
  0
LINE
  5
43C7
  8
0
 10
257.774356976774925
 20
25.48791693193402
 30
0.0
 11
257.6373399277435965
 21
25.2281291890578991
 31
0.0
  0
ARC
  5
43C8
  8
0
 10
257.6268926580979155
 20
25.2336392798783606
 30
0.0
 40
0.0118112888331305
 50
242.5853664694490135
 51
332.1919740296856958
  0
LINE
  5
43C9
  8
0
 10
257.6214544274749869
 20
25.2231544245340196
 30
0.0
 11
257.5596319980242015
 21
25.2552201629710602
 31
0.0
  0
ARC
  5
43CA
  8
0
 10
257.5650168982239734
 20
25.265602197782421
 30
0.0
 40
0.011695460529046
 50
200.3806841841214919
 51
242.5853664694346037
  0
LINE
  5
43CB
  8
0
 10
257.5540535799750046
 20
25.2615291829340194
 30
0.0
 11
257.4701463273117952
 21
25.4818500670887396
 31
0.0
  0
ARC
  5
43CC
  8
0
 10
257.4811408514643745
 20
25.4860776224430694
 30
0.0
 40
0.0117792947843386
 50
114.222226364442605
 51
201.0324818144605103
  0
LINE
  5
43CD
  8
0
 10
257.4763080796748795
 20
25.4968198802340105
 30
0.0
 11
257.7599161094756255
 21
25.6252124707119897
 31
0.0
  0
ARC
  5
43CE
  8
0
 10
257.7639352492813032
 20
25.6141336941566102
 30
0.0
 40
0.0117852778813739
 50
359.9324619702945256
 51
109.9396732187817065
  0
LINE
  5
43CF
  8
0
 10
256.6365198922749187
 20
25.5668022778340109
 30
0.0
 11
256.7116003301749743
 21
25.5160818280340109
 31
0.0
  0
ARC
  5
43D0
  8
0
 10
256.7049886980856854
 20
25.5062947651342888
 30
0.0
 40
0.0118110236256965
 50
340.03150328440762
 51
55.9590800033402118
  0
LINE
  5
43D1
  8
0
 10
256.7160896492749771
 20
25.5022612602340217
 30
0.0
 11
256.6216103008040932
 21
25.2422366261504614
 31
0.0
  0
ARC
  5
43D2
  8
0
 10
256.6105093499950272
 20
25.2462701309125706
 30
0.0
 40
0.0118110232211236
 50
197.3211999273449067
 51
340.0315032843981271
  0
LINE
  5
43D3
  8
0
 10
256.5992339483750015
 20
25.2427536571340205
 30
0.0
 11
256.5190541469557957
 21
25.4998462788212201
 31
0.0
  0
ARC
  5
43D4
  8
0
 10
256.5303295464271969
 20
25.5033627519296111
 30
0.0
 40
0.011811020970243
 50
118.3154867039141038
 51
197.3211999273489141
  0
LINE
  5
43D5
  8
0
 10
256.524727269975017
 20
25.5137605745340217
 30
0.0
 11
256.6243060258665878
 21
25.567412934311271
 31
0.0
  0
ARC
  5
43D6
  8
0
 10
256.62990835949131
 20
25.5570150055948417
 30
0.0
 40
0.0118111415042686
 50
55.9600476477096009
 51
118.3154867039047957
  0
LINE
  5
43D7
  8
0
 10
257.0931123727750105
 20
25.5218184340340208
 30
0.0
 11
257.1209186752749929
 21
25.34827721163402
 31
0.0
  0
ARC
  5
43D8
  8
0
 10
257.109256407266173
 20
25.3464085803797197
 30
0.0
 40
0.011811023574273
 50
281.5814528907732779
 51
9.1030587384248403
  0
LINE
  5
43D9
  8
0
 10
257.1116275979749162
 20
25.3348380258340207
 30
0.0
 11
257.0693811149220096
 21
25.3261803190926393
 31
0.0
  0
ARC
  5
43DA
  8
0
 10
257.0670099240472837
 20
25.3377508744477815
 30
0.0
 40
0.0118110244005482
 50
235.9590832267963947
 51
281.5814528907799854
  0
LINE
  5
43DB
  8
0
 10
257.0603982920749786
 20
25.3279638105340084
 30
0.0
 11
256.9327287664801247
 21
25.4142107099882395
 31
0.0
  0
ARC
  5
43DC
  8
0
 10
256.9393403990795264
 20
25.4239977748302088
 30
0.0
 40
0.0118110255207076
 50
124.0270656427707934
 51
235.9590832267923872
  0
LINE
  5
43DD
  8
0
 10
256.9327311326749168
 20
25.4337864377340104
 30
0.0
 11
257.0748408874712823
 21
25.5297383810551288
 31
0.0
  0
ARC
  5
43DE
  8
0
 10
257.0814501392907232
 20
25.5199497397527288
 30
0.0
 40
0.0118109994563912
 50
9.1033871319983515
 51
124.0270656427665017
  0
LINE
  5
43DF
  8
0
 10
256.7654129614750218
 20
25.4797288052340214
 30
0.0
 11
256.9872836981750197
 21
25.3298444427340108
 31
0.0
  0
ARC
  5
43E0
  8
0
 10
256.9806720660822066
 20
25.3200573798360189
 30
0.0
 40
0.0118110236262337
 50
281.5814527601008876
 51
55.9590799845015781
  0
LINE
  5
43E1
  8
0
 10
256.9830432567749767
 20
25.30848682523402
 30
0.0
 11
256.6844808280170014
 21
25.24730147356901
 31
0.0
  0
ARC
  5
43E2
  8
0
 10
256.6821096374670788
 20
25.2588720274737391
 30
0.0
 40
0.0118110229144747
 50
160.0315099792535136
 51
281.5814527600958854
  0
LINE
  5
43E3
  8
0
 10
256.6710086864749201
 20
25.2629055308340185
 30
0.0
 11
256.7477003542454099
 21
25.4739752559287602
 31
0.0
  0
ARC
  5
43E4
  8
0
 10
256.7588013095837027
 20
25.4699417509892889
 30
0.0
 40
0.0118110275386953
 50
55.9589769012631209
 51
160.0315099792510978
  0
LINE
  5
43E5
  8
0
 10
257.1694189950749205
 20
25.4135365898340204
 30
0.0
 11
257.3995316864749157
 21
25.294037865534019
 31
0.0
  0
ARC
  5
43E6
  8
0
 10
257.3940883716878147
 20
25.2835559476462315
 30
0.0
 40
0.0118110235999421
 50
310.4562420611417224
 51
62.556911782907882
  0
LINE
  5
43E7
  8
0
 10
257.4017521565750144
 20
25.2745689192340208
 30
0.0
 11
257.2161470903870963
 21
25.1162922079578905
 31
0.0
  0
ARC
  5
43E8
  8
0
 10
257.2084833057327842
 20
25.1252792360971
 30
0.0
 40
0.0118110232411596
 50
189.1030624795336053
 51
310.4562420611380276
  0
LINE
  5
43E9
  8
0
 10
257.1968210381750168
 20
25.1234106041340084
 30
0.0
 11
257.152313394081375
 21
25.4011860377349095
 31
0.0
  0
ARC
  5
43EA
  8
0
 10
257.1639756684151052
 20
25.4030546707836784
 30
0.0
 40
0.0118110301034325
 50
62.5568632680552312
 51
189.1030624795390054
  0
LINE
  5
43EB
  8
0
 10
257.7757205189748788
 20
25.3583929046340195
 30
0.0
 11
257.7757205189748788
 21
24.97565829963402
 31
0.0
  0
ARC
  5
43EC
  8
0
 10
257.7639094953261747
 20
24.97565829963402
 30
0.0
 40
0.0118110236488143
 50
255.4658879068821022
 51
0.0000000000065138
  0
LINE
  5
43ED
  8
0
 10
257.7609454437749719
 20
24.964225247634019
 30
0.0
 11
257.5833725287345146
 21
25.0102615356063112
 31
0.0
  0
ARC
  5
43EE
  8
0
 10
257.5863365803161855
 20
25.0216945877243191
 30
0.0
 40
0.011811023770717
 50
152.1930684721336036
 51
255.4658879068888098
  0
LINE
  5
43EF
  8
0
 10
257.5758894398750272
 20
25.0272043553340104
 30
0.0
 11
257.7534623769441282
 21
25.3639026597894208
 31
0.0
  0
ARC
  5
43F0
  8
0
 10
257.7639095069744144
 20
25.3583928976703987
 30
0.0
 40
0.0118110120005987
 50
0.0000337808375767
 51
152.1930684721407943
  0
LINE
  5
43F1
  8
0
 10
257.4598685454748761
 20
25.2627046190340216
 30
0.0
 11
257.6029550413750258
 21
25.188399053334031
 31
0.0
  0
ARC
  5
43F2
  8
0
 10
257.5975117265647896
 20
25.177917135392601
 30
0.0
 40
0.0118110236581166
 50
332.1930723034552102
 51
62.5569118039766323
  0
LINE
  5
43F3
  8
0
 10
257.6079588672749878
 20
25.1724073685340208
 30
0.0
 11
257.5341339377973213
 21
25.0324269581168011
 31
0.0
  0
ARC
  5
43F4
  8
0
 10
257.5236867972276968
 20
25.0379367249012184
 30
0.0
 40
0.0118110234991509
 50
255.4658862072666068
 51
332.1930723034657831
  0
LINE
  5
43F5
  8
0
 10
257.5207227453749965
 20
25.0265036731340196
 30
0.0
 11
257.3855078877494975
 21
25.0615585174072883
 31
0.0
  0
ARC
  5
43F6
  8
0
 10
257.3884719421267846
 20
25.0729915789123794
 30
0.0
 40
0.0118110335589689
 50
211.8568257130770007
 51
255.4658862072666068
  0
LINE
  5
43F7
  8
0
 10
257.3784400087749873
 20
25.0667577336340202
 30
0.0
 11
257.328485788301407
 21
25.1471475072101214
 31
0.0
  0
ARC
  5
43F8
  8
0
 10
257.3385176934324932
 20
25.1533813349520301
 30
0.0
 40
0.0118110003333143
 50
130.4557892009320028
 51
211.8568257130891936
  0
LINE
  5
43F9
  8
0
 10
257.3308539946748965
 20
25.1623684062340196
 30
0.0
 11
257.4467622274841005
 21
25.2612088128462098
 31
0.0
  0
ARC
  5
43FA
  8
0
 10
257.4544265030140764
 20
25.2522210651941599
 30
0.0
 40
0.0118118892332354
 50
62.566046146458369
 51
130.4557892009270006
  0
LINE
  5
43FB
  8
0
 10
257.1308940395750255
 20
25.2860202134340213
 30
0.0
 11
257.1640189322749848
 21
25.0792852701340117
 31
0.0
  0
ARC
  5
43FC
  8
0
 10
257.1523566642889023
 20
25.0774166388832498
 30
0.0
 40
0.0118110235512943
 50
310.456242255210725
 51
9.1030587389193851
  0
LINE
  5
43FD
  8
0
 10
257.1600204491750219
 20
25.0684296105340216
 30
0.0
 11
257.0995744233791811
 21
25.0168836132463213
 31
0.0
  0
ARC
  5
43FE
  8
0
 10
257.0919106383515214
 20
25.0258706417617205
 30
0.0
 40
0.0118110237696668
 50
245.4651673071159053
 51
310.4562422552066892
  0
LINE
  5
43FF
  8
0
 10
257.0870061535749755
 20
25.0151260472340198
 30
0.0
 11
256.9063163623134187
 21
25.0976038297345987
 31
0.0
  0
ARC
  5
4400
  8
0
 10
256.911207590806498
 20
25.108319382803959
 30
0.0
 40
0.0117790998702727
 50
215.3028328525332995
 51
245.4651673071124947
  0
LINE
  5
4401
  8
0
 10
256.9015945611749885
 20
25.1015122648340103
 30
0.0
 11
256.8897877457357026
 21
25.1181858801838302
 31
0.0
  0
ARC
  5
4402
  8
0
 10
256.8994232443670853
 20
25.1250089087603889
 30
0.0
 40
0.0118066317310449
 50
147.2541490724082109
 51
215.3028328525385007
  0
LINE
  5
4403
  8
0
 10
256.8894929439749149
 20
25.13139527603402
 30
0.0
 11
256.9739631514098051
 21
25.2627398257718916
 31
0.0
  0
ARC
  5
4404
  8
0
 10
256.9840828621669857
 20
25.2562316450475315
 30
0.0
 40
0.012031831205321
 50
102.6045542684812943
 51
147.2541490724098878
  0
LINE
  5
4405
  8
0
 10
256.9814572661750276
 20
25.2679735021340193
 30
0.0
 11
257.1168389944069759
 21
25.2957177129705499
 31
0.0
  0
ARC
  5
4406
  8
0
 10
257.1192584228999749
 20
25.2841902342842886
 30
0.0
 40
0.0117786416489715
 50
8.9379188335068402
 51
101.8533903257357025
  0
LINE
  5
4407
  8
0
 10
256.9075484777749807
 20
25.2323508405340213
 30
0.0
 11
256.7192380943749868
 21
24.9391889377340199
 31
0.0
  0
ARC
  5
4408
  8
0
 10
256.7093005903893186
 20
24.9455722200354018
 30
0.0
 40
0.0118110235968258
 50
223.4083670031897952
 51
327.2856382801792279
  0
LINE
  5
4409
  8
0
 10
256.7007201849750118
 20
24.9374557601340108
 30
0.0
 11
256.5988301659302238
 21
25.0451699214430086
 31
0.0
  0
ARC
  5
440A
  8
0
 10
256.6074105721522187
 20
25.0532863821083609
 30
0.0
 40
0.0118110247085541
 50
160.0315128040923014
 51
223.4083670031758118
  0
LINE
  5
440B
  8
0
 10
256.5963096192750186
 20
25.0573198855340209
 30
0.0
 11
256.6457652690846203
 21
25.1934310474968512
 31
0.0
  0
ARC
  5
440C
  8
0
 10
256.6568661933292788
 20
25.1893975544747306
 30
0.0
 40
0.0118109942446395
 50
101.5812391375131938
 51
160.0315128040973889
  0
LINE
  5
440D
  8
0
 10
256.654495051674985
 20
25.2009680891340189
 30
0.0
 11
256.8952399674009257
 21
25.2503037779812196
 31
0.0
  0
ARC
  5
440E
  8
0
 10
256.8976110428852735
 20
25.2387335662139307
 30
0.0
 40
0.0118106646422689
 50
327.2877290682901048
 51
101.5812391375098969
  0
LINE
  5
440F
  8
0
 10
256.5190945241749887
 20
25.3674818271340108
 30
0.0
 11
256.5862772962748863
 21
25.1520635188340194
 31
0.0
  0
ARC
  5
4410
  8
0
 10
256.5750018941099029
 20
25.1485470453273408
 30
0.0
 40
0.0118110236604129
 50
340.0315038976224855
 51
17.3211978812675085
  0
LINE
  5
4411
  8
0
 10
256.58610284537491
 20
25.1445135405340103
 30
0.0
 11
256.5700897360478052
 21
25.1004425017348893
 31
0.0
  0
ARC
  5
4412
  8
0
 10
256.5589887847805812
 20
25.1044760065289907
 30
0.0
 40
0.0118110236626899
 50
223.4083659903558896
 51
340.0315038976290225
  0
LINE
  5
4413
  8
0
 10
256.5504083791749963
 20
25.0963595467340106
 30
0.0
 11
256.3968568599427158
 21
25.2586882404818311
 31
0.0
  0
ARC
  5
4414
  8
0
 10
256.4054372657146814
 20
25.2668047004341609
 30
0.0
 40
0.0118110238916664
 50
133.5011763691975091
 51
223.4083659903533885
  0
LINE
  5
4415
  8
0
 10
256.3973069174750208
 20
25.2753719475340191
 30
0.0
 11
256.4996887301495008
 21
25.3725326551402297
 31
0.0
  0
ARC
  5
4416
  8
0
 10
256.5078190904309849
 20
25.3639653953514994
 30
0.0
 40
0.01181104138486
 50
17.3209590457744405
 51
133.5011763691865951
  0
LINE
  5
4417
  8
0
 10
256.3683256017749272
 20
25.2315592660340187
 30
0.0
 11
256.4950594418750143
 21
25.0975811864340201
 31
0.0
  0
ARC
  5
4418
  8
0
 10
256.4864790364829901
 20
25.0894647264266801
 30
0.0
 40
0.0118110236533761
 50
326.1859905799473722
 51
43.4083674512082496
  0
LINE
  5
4419
  8
0
 10
256.4962922068750117
 20
25.0828919061340194
 30
0.0
 11
256.3432499279857097
 21
24.854400955059841
 31
0.0
  0
ARC
  5
441A
  8
0
 10
256.3334367575462238
 20
24.8609737753844016
 30
0.0
 40
0.0118110237106886
 50
203.4078073034266083
 51
326.185990579949987
  0
LINE
  5
441B
  8
0
 10
256.3225977751749269
 20
24.8562815752340214
 30
0.0
 11
256.2190377943338717
 21
25.0955051315028008
 31
0.0
  0
ARC
  5
441C
  8
0
 10
256.2298767766396281
 20
25.1001973316248588
 30
0.0
 40
0.0118110236394149
 50
133.5011489397878961
 51
203.4078073034264094
  0
LINE
  5
441D
  8
0
 10
256.2217464326749905
 20
25.10876458243402
 30
0.0
 11
256.3516148506632817
 21
25.2320100589483793
 31
0.0
  0
ARC
  5
441E
  8
0
 10
256.3597451945161083
 20
25.2234428082571114
 30
0.0
 40
0.0118110234769014
 50
43.4083533672935076
 51
133.5011489397807907
  0
LINE
  5
441F
  8
0
 10
256.2235673752750245
 20
24.9859409683340203
 30
0.0
 11
256.3025819063748827
 21
24.8034174014340216
 31
0.0
  0
ARC
  5
4420
  8
0
 10
256.2917429240513911
 20
24.7987252012954507
 30
0.0
 40
0.0118110236623099
 50
326.1859907913204211
 51
23.4078073425844586
  0
LINE
  5
4421
  8
0
 10
256.3015560944750177
 20
24.7921523810340183
 30
0.0
 11
256.2337867553488877
 21
24.6909732755835201
 31
0.0
  0
ARC
  5
4422
  8
0
 10
256.2239735852597846
 20
24.6975460956209503
 30
0.0
 40
0.0118110232597736
 50
257.7285604863278081
 51
326.1859907913204211
  0
LINE
  5
4423
  8
0
 10
256.2214632310748925
 20
24.6860049348340205
 30
0.0
 11
256.2102180396403242
 21
24.6884509117940993
 31
0.0
  0
ARC
  5
4424
  8
0
 10
256.2127283941463816
 20
24.6999920740581693
 30
0.0
 40
0.01181102477147
 50
180.0000083639573916
 51
257.7285604863245112
  0
LINE
  5
4425
  8
0
 10
256.2009173693750199
 20
24.6999920723340196
 30
0.0
 11
256.2009173283174732
 21
24.9812487682340212
 31
0.0
  0
ARC
  5
4426
  8
0
 10
256.212728371221317
 20
24.9812487699581816
 30
0.0
 40
0.0118110429037569
 50
23.4077576173601614
 51
180.0000083639530999
  0
LINE
  5
4427
  8
0
 10
256.5394464365750196
 20
25.0506569843340188
 30
0.0
 11
256.6828132557748745
 21
24.8990951670340195
 31
0.0
  0
ARC
  5
4428
  8
0
 10
256.674232850434521
 20
24.8909787070771316
 30
0.0
 40
0.0118110235813256
 50
327.2856379913532123
 51
43.4083674449669772
  0
LINE
  5
4429
  8
0
 10
256.6841703543749986
 20
24.8845954247340195
 30
0.0
 11
256.6262213462053978
 21
24.7943803181356195
 31
0.0
  0
ARC
  5
442A
  8
0
 10
256.6162838406709739
 20
24.800763601502549
 30
0.0
 40
0.0118110254757136
 50
288.6179909215496195
 51
327.2856379913520186
  0
LINE
  5
442B
  8
0
 10
256.6200545919750198
 20
24.7895706681340187
 30
0.0
 11
256.5117174672323017
 21
24.7530733228061806
 31
0.0
  0
ARC
  5
442C
  8
0
 10
256.5079467198243037
 20
24.7642662446104715
 30
0.0
 40
0.0118110132728931
 50
219.9918262957949935
 51
288.6179909215460953
  0
LINE
  5
442D
  8
0
 10
256.4988978757750147
 20
24.7566755624340189
 30
0.0
 11
256.4080049670625954
 21
24.86502890104126
 31
0.0
  0
ARC
  5
442E
  8
0
 10
256.4170539212743734
 20
24.8726196756282185
 30
0.0
 40
0.0118111570625687
 50
146.187830470404009
 51
219.9918262958028095
  0
LINE
  5
442F
  8
0
 10
256.4072404289750011
 20
24.8791922550340203
 30
0.0
 11
256.521047404209412
 21
25.0491169993588016
 31
0.0
  0
ARC
  5
4430
  8
0
 10
256.5308615231892873
 20
25.0425440002342015
 30
0.0
 40
0.0118119113120525
 50
43.3810919800816421
 51
146.1878304703976141
  0
LINE
  5
4431
  8
0
 10
256.3895990363749888
 20
24.8257108431340185
 30
0.0
 11
256.548263591975001
 21
24.6365677251340109
 31
0.0
  0
ARC
  5
4432
  8
0
 10
256.5392147543713008
 20
24.6289770191529911
 30
0.0
 40
0.0118110236333323
 50
257.7285642983234766
 51
39.9919348623834168
  0
LINE
  5
4433
  8
0
 10
256.5367044008750099
 20
24.6174358578340211
 30
0.0
 11
256.2876387857888858
 21
24.6716108858386107
 31
0.0
  0
ARC
  5
4434
  8
0
 10
256.2901491392981939
 20
24.6831520472167298
 30
0.0
 40
0.011811023693879
 50
146.1859888161496883
 51
257.7285642983118237
  0
LINE
  5
4435
  8
0
 10
256.2803359690748835
 20
24.6897248678340198
 30
0.0
 11
256.3707370325060992
 21
24.8246929546670003
 31
0.0
  0
ARC
  5
4436
  8
0
 10
256.3805502020156837
 20
24.8181201345277103
 30
0.0
 40
0.0118110228349413
 50
39.9919547341254713
 51
146.1859888161530989
  0
LINE
  5
4437
  8
0
 10
256.8723550438750181
 20
25.0746775664340191
 30
0.0
 11
256.9775677920749786
 21
24.9260519625340216
 31
0.0
  0
ARC
  5
4438
  8
0
 10
256.9679277585763089
 20
24.9192277385072209
 30
0.0
 40
0.0118110236399166
 50
288.6179841688564807
 51
35.2948525338849919
  0
LINE
  5
4439
  8
0
 10
256.9716985079750202
 20
24.9080348064340207
 30
0.0
 11
256.7155978847850974
 21
24.8217579252230003
 31
0.0
  0
ARC
  5
443A
  8
0
 10
256.7118271351369003
 20
24.8329508580368703
 30
0.0
 40
0.011811024421475
 50
147.2856345320815024
 51
288.6179841688547754
  0
LINE
  5
443B
  8
0
 10
256.7018896308749163
 20
24.8393341414340192
 30
0.0
 11
256.8527775217435192
 21
25.0742366148621798
 31
0.0
  0
ARC
  5
443C
  8
0
 10
256.8627150215883717
 20
25.0678533343022885
 30
0.0
 40
0.0118110191716814
 50
35.294916050074427
 51
147.2856345320907963
  0
LINE
  5
443D
  8
0
 10
256.9885531108748751
 20
25.0167883282340213
 30
0.0
 11
257.2571982127748811
 21
24.8941623991340215
 31
0.0
  0
ARC
  5
443E
  8
0
 10
257.2522937278304767
 20
24.8834178048436314
 30
0.0
 40
0.0118110236235083
 50
317.1709283339778835
 51
65.4651660880593909
  0
LINE
  5
443F
  8
0
 10
257.2609557556750133
 20
24.8753885114340214
 30
0.0
 11
257.1578550602375799
 21
24.7641631458759086
 31
0.0
  0
ARC
  5
4440
  8
0
 10
257.149193032350297
 20
24.7721924393252984
 30
0.0
 40
0.0118110236820194
 50
215.2948521782136027
 51
317.1709283339886269
  0
LINE
  5
4441
  8
0
 10
257.1395529987750024
 20
24.7653682153340213
 30
0.0
 11
256.9740085938196898
 21
24.9992195109567916
 31
0.0
  0
ARC
  5
4442
  8
0
 10
256.9836486267032001
 20
25.0060437344583306
 30
0.0
 40
0.0118110228344006
 50
65.4651684614682949
 51
215.2948521782188891
  0
LINE
  5
4443
  8
0
 10
257.3000739161748811
 20
25.1182769571340216
 30
0.0
 11
257.453274797375002
 21
24.8717351213340194
 31
0.0
  0
ARC
  5
4444
  8
0
 10
257.4432428677013149
 20
24.8655012890062892
 30
0.0
 40
0.0118110235995104
 50
245.4651661315330955
 51
31.8567817697489417
  0
LINE
  5
4445
  8
0
 10
257.4383383827749867
 20
24.8547566947340215
 30
0.0
 11
257.150239269783583
 21
24.9862626149337501
 31
0.0
  0
ARC
  5
4446
  8
0
 10
257.1551437547479964
 20
24.997007209289599
 30
0.0
 40
0.0118110236913814
 50
130.4562415929073893
 51
245.4651661315313049
  0
LINE
  5
4447
  8
0
 10
257.1474799698750076
 20
25.0059942378340203
 30
0.0
 11
257.2823782029965969
 21
25.121030151349629
 31
0.0
  0
ARC
  5
4448
  8
0
 10
257.2900419877578884
 20
25.1120431229362708
 30
0.0
 40
0.0118110235191518
 50
31.8567926923405089
 51
130.4562415929028134
  0
LINE
  5
4449
  8
0
 10
257.4396387402749724
 20
25.0068532984340202
 30
0.0
 11
257.6899284969750283
 21
24.9419649591340189
 31
0.0
  0
ARC
  5
444A
  8
0
 10
257.6869644453685169
 20
24.930531907164589
 30
0.0
 40
0.0118110236330944
 50
320.3429471954445944
 51
75.4658876101078846
  0
LINE
  5
444B
  8
0
 10
257.6960574942748963
 20
24.9229942191340186
 30
0.0
 11
257.5760497067772121
 21
24.7782234782320998
 31
0.0
  0
ARC
  5
444C
  8
0
 10
257.566956657879075
 20
24.7857611662557495
 30
0.0
 40
0.0118110236222521
 50
211.8567816669713864
 51
320.3429471954391943
  0
LINE
  5
444D
  8
0
 10
257.5569247281749767
 20
24.7795273339340199
 30
0.0
 11
257.4266427594096172
 21
24.9891864144040809
 31
0.0
  0
ARC
  5
444E
  8
0
 10
257.4366746889393767
 20
24.9954202466175097
 30
0.0
 40
0.0118110234170654
 50
75.4658886963406559
 51
211.8567816669662989
  0
LINE
  5
444F
  8
0
 10
257.757275915075013
 20
24.9245049473340217
 30
0.0
 11
257.7668735469749208
 21
24.9220167336340204
 31
0.0
  0
ARC
  5
4450
  8
0
 10
257.7639094953394192
 20
24.9105836816695891
 30
0.0
 40
0.0118110236355542
 50
359.9999998274495283
 51
75.4658874673865654
  0
LINE
  5
4451
  8
0
 10
257.7757205189748788
 20
24.9105836816340194
 30
0.0
 11
257.7757205184739178
 21
24.7442246189340196
 31
0.0
  0
ARC
  5
4452
  8
0
 10
257.7639094944988756
 20
24.7442246189695894
 30
0.0
 40
0.0118110239750493
 50
290.2643839009332964
 51
359.9999998274465725
  0
LINE
  5
4453
  8
0
 10
257.7680002730750175
 20
24.7331446452340202
 30
0.0
 11
257.5524743855007728
 21
24.6535714707378801
 31
0.0
  0
ARC
  5
4454
  8
0
 10
257.548383604605192
 20
24.6646514507561605
 30
0.0
 40
0.0118110306722869
 50
140.3429229052603091
 51
290.2643839009331828
  0
LINE
  5
4455
  8
0
 10
257.5392905534749843
 20
24.67218914713402
 30
0.0
 11
257.7452189198318138
 21
24.9206094960812798
 31
0.0
  0
ARC
  5
4456
  8
0
 10
257.7543120493448896
 20
24.9130717347278114
 30
0.0
 40
0.0118111324844218
 50
75.4669559982359885
 51
140.3429229052607923
  0
LINE
  5
4457
  8
0
 10
257.5133338862748928
 20
24.7750849934340209
 30
0.0
 11
257.5346003626750075
 21
24.7408601944340205
 31
0.0
  0
ARC
  5
4458
  8
0
 10
257.5245680997866202
 20
24.7346263847933905
 30
0.0
 40
0.0118112946495159
 50
320.3438937832962097
 51
31.8558351603254799
  0
LINE
  5
4459
  8
0
 10
257.5336614818750149
 20
24.727088674034011
 30
0.0
 11
257.4395661017859993
 21
24.6135734077658483
 31
0.0
  0
ARC
  5
445A
  8
0
 10
257.4305052457219745
 20
24.6210841569655017
 30
0.0
 40
0.0117690469517315
 50
290.2421353428495081
 51
320.3438937832935949
  0
LINE
  5
445B
  8
0
 10
257.4345771979607775
 20
24.61004198004618
 30
0.0
 11
257.3466850799172789
 21
24.5776305715485286
 31
0.0
  0
ARC
  5
445C
  8
0
 10
257.3425914293562187
 20
24.5887315892154987
 30
0.0
 40
0.0118317609914492
 50
217.3940210175871073
 51
290.2421353428546809
  0
LINE
  5
445D
  8
0
 10
257.3331913555750248
 20
24.5815462443340209
 30
0.0
 11
257.2411679806809843
 21
24.7030395394163307
 31
0.0
  0
ARC
  5
445E
  8
0
 10
257.2505651490312175
 20
24.7101680486259205
 30
0.0
 40
0.0117950165983315
 50
169.292765982022587
 51
217.1832469683783131
  0
LINE
  5
445F
  8
0
 10
257.2389754913749016
 20
24.7123594527340202
 30
0.0
 11
257.2575662854546863
 21
24.8110085022773283
 31
0.0
  0
ARC
  5
4460
  8
0
 10
257.2692821369749936
 20
24.8089668140339903
 30
0.0
 40
0.0118924206000834
 50
136.3793497829969112
 51
170.114500162992897
  0
LINE
  5
4461
  8
0
 10
257.2606729370173753
 20
24.8171711631135103
 30
0.0
 11
257.3039867237749831
 21
24.8638974023340182
 31
0.0
  0
ARC
  5
4462
  8
0
 10
257.3126420802889811
 20
24.8559014411235708
 30
0.0
 40
0.0117834881110831
 50
65.3683558581342652
 51
137.2677387019506057
  0
LINE
  5
4463
  8
0
 10
257.3175532365750087
 20
24.8666127032340185
 30
0.0
 11
257.5082252429750156
 21
24.7795791509340191
 31
0.0
  0
ARC
  5
4464
  8
0
 10
257.5032605223738074
 20
24.7687815301002416
 30
0.0
 40
0.0118843201874249
 50
32.0365035240931704
 51
65.307139875091579
  0
LINE
  5
4465
  8
0
 10
257.0155617385748883
 20
24.8723809641340203
 30
0.0
 11
257.1150734939748759
 21
24.7318086951340206
 31
0.0
  0
ARC
  5
4466
  8
0
 10
257.1054334604074256
 20
24.7249844710588107
 30
0.0
 40
0.0118110237240963
 50
317.1709286858575751
 51
35.294852532559581
  0
LINE
  5
4467
  8
0
 10
257.1140954883749146
 20
24.7169551776340199
 30
0.0
 11
256.9701676387019802
 21
24.5616853433893212
 31
0.0
  0
ARC
  5
4468
  8
0
 10
256.9615056110491764
 20
24.5697146365223986
 30
0.0
 40
0.0118110232950048
 50
237.3484870477005018
 51
317.1709286858603036
  0
LINE
  5
4469
  8
0
 10
256.9551332333749087
 20
24.5597701368340218
 30
0.0
 11
256.7972408039952938
 21
24.6609466890422802
 31
0.0
  0
ARC
  5
446A
  8
0
 10
256.8036131869367864
 20
24.6708911969506417
 30
0.0
 40
0.0118110330578113
 50
159.1410583184764107
 51
237.3484870477080051
  0
LINE
  5
446B
  8
0
 10
256.7925762504748946
 20
24.675096733234021
 30
0.0
 11
256.8478816377555063
 21
24.8202392321397802
 31
0.0
  0
ARC
  5
446C
  8
0
 10
256.8589177063424245
 20
24.8160340265531616
 30
0.0
 40
0.0118101043128921
 50
108.6128483883357063
 51
159.1410583184720053
  0
LINE
  5
446D
  8
0
 10
256.8551482536748836
 20
24.8272264253340182
 30
0.0
 11
257.0021553939412229
 21
24.8767364962181787
 31
0.0
  0
ARC
  5
446E
  8
0
 10
257.0059273878850945
 20
24.8655365517849702
 30
0.0
 40
0.0118180664078199
 50
35.3906565873138419
 51
108.6128483883372979
  0
LINE
  5
446F
  8
0
 10
256.7926178114748836
 20
24.7857737511340197
 30
0.0
 11
256.700408931574998
 21
24.5437846244340214
 31
0.0
  0
ARC
  5
4470
  8
0
 10
256.689372016972527
 20
24.5479901916300705
 30
0.0
 40
0.0118110236382781
 50
219.9919349373390958
 51
339.1408804305372087
  0
LINE
  5
4471
  8
0
 10
256.6803231793750228
 20
24.5403994856340191
 30
0.0
 11
256.542371700576723
 21
24.7048506616677201
 31
0.0
  0
ARC
  5
4472
  8
0
 10
256.5514205382262958
 20
24.7124413677074699
 30
0.0
 40
0.0118110237062772
 50
108.6179827944550027
 51
219.9919349373344915
  0
LINE
  5
4473
  8
0
 10
256.5476497890750238
 20
24.7236342999340195
 30
0.0
 11
256.7778101488844982
 21
24.8011722465466597
 31
0.0
  0
ARC
  5
4474
  8
0
 10
256.7815808975316827
 20
24.78997931581657
 30
0.0
 40
0.0118110221271858
 50
339.1408906856503904
 51
108.6179827944566938
  0
LINE
  5
4475
  8
0
 10
256.2009173693750199
 20
24.635527026934021
 30
0.0
 11
256.2009173693750199
 21
24.3689042851340183
 31
0.0
  0
ARC
  5
4476
  8
0
 10
256.2127283929841042
 20
24.3689042851340183
 30
0.0
 40
0.0118110236091464
 50
179.9999999999953104
 51
316.9524108241635076
  0
LINE
  5
4477
  8
0
 10
256.2213597353750174
 20
24.3608420145340183
 30
0.0
 11
256.4283492795256052
 21
24.5824418237603304
 31
0.0
  0
ARC
  5
4478
  8
0
 10
256.4197179372508799
 20
24.5905040942519086
 30
0.0
 40
0.0118110234503016
 50
316.9524108241608928
 51
77.728562974650643
  0
LINE
  5
4479
  8
0
 10
256.4222282909748856
 20
24.6020452553340192
 30
0.0
 11
256.2152387475223918
 21
24.6470681925897317
 31
0.0
  0
ARC
  5
447A
  8
0
 10
256.2127283936276854
 20
24.635527030723491
 30
0.0
 40
0.0118110242527581
 50
77.7285629746473461
 51
180.0000183828626064
  0
LINE
  5
447B
  8
0
 10
256.4938702826748909
 20
24.5864621852340193
 30
0.0
 11
256.6078902264048907
 21
24.5616644679885283
 31
0.0
  0
ARC
  5
447C
  8
0
 10
256.6053932371199835
 20
24.5501833072451205
 30
0.0
 40
0.0117495535023879
 50
39.9631268525394034
 51
77.7300571820682364
  0
LINE
  5
447D
  8
0
 10
256.6143987758749745
 20
24.5577299806340186
 30
0.0
 11
256.6727045100482769
 21
24.4881530264351817
 31
0.0
  0
ARC
  5
447E
  8
0
 10
256.6636111741706259
 20
24.4805327787462303
 30
0.0
 40
0.0118641026726226
 50
339.5387707662042089
 51
39.9631268525416985
  0
LINE
  5
447F
  8
0
 10
256.6747267581749838
 20
24.4763854031340209
 30
0.0
 11
256.6435815886749197
 21
24.3946493231340185
 31
0.0
  0
ARC
  5
4480
  8
0
 10
256.6325585252512838
 20
24.3988401228218699
 30
0.0
 40
0.0117928253301212
 50
287.1483765439969034
 51
339.1839640178654918
  0
LINE
  5
4481
  8
0
 10
256.6360356070749731
 20
24.3875715545340199
 30
0.0
 11
256.5576077574750116
 21
24.3633068888340212
 31
0.0
  0
ARC
  5
4482
  8
0
 10
256.5541051607169152
 20
24.3745571639885412
 30
0.0
 40
0.0117829060550658
 50
213.8413657255622127
 51
287.2931579244544196
  0
LINE
  5
4483
  8
0
 10
256.5443184836749992
 20
24.3679953176340192
 30
0.0
 11
256.4396694136750057
 21
24.5234770017340082
 31
0.0
  0
ARC
  5
4484
  8
0
 10
256.4494302722767998
 20
24.53007489304429
 30
0.0
 40
0.0117816183262918
 50
136.8385907227400082
 51
214.0568839560282015
  0
LINE
  5
4485
  8
0
 10
256.4408364119748853
 20
24.5381341793340191
 30
0.0
 11
256.4827285867750106
 21
24.5829832946340083
 31
0.0
  0
ARC
  5
4486
  8
0
 10
256.4913524054061895
 20
24.5749451197576896
 30
0.0
 40
0.0117890840664793
 50
77.6679432880745537
 51
137.01303088871299
  0
LINE
  5
4487
  8
0
 10
256.7870722546750244
 20
24.6207029960340193
 30
0.0
 11
256.9618451314748881
 21
24.5087095885340212
 31
0.0
  0
ARC
  5
4488
  8
0
 10
256.9554727551259816
 20
24.4987650875905487
 30
0.0
 40
0.0118110236366886
 50
287.1914601791506811
 51
57.3484957458201592
  0
LINE
  5
4489
  8
0
 10
256.9589636881750039
 20
24.4874817518340215
 30
0.0
 11
256.7124550563494836
 21
24.4112148438697112
 31
0.0
  0
ARC
  5
448A
  8
0
 10
256.7089641232395252
 20
24.4224981798239504
 30
0.0
 40
0.0118110238436487
 50
159.1408786609094079
 51
287.1914601791642099
  0
LINE
  5
448B
  8
0
 10
256.6979272085749244
 20
24.4267037474340185
 30
0.0
 11
256.7696629696346804
 21
24.6149640601011583
 31
0.0
  0
ARC
  5
448C
  8
0
 10
256.7806998833364105
 20
24.610758492858011
 30
0.0
 40
0.0118110228132056
 50
57.3485220532382627
 51
159.1408786609050026
  0
LINE
  5
448D
  8
0
 10
257.2003555056749065
 20
24.7200170458340196
 30
0.0
 11
257.1502281793748921
 21
24.4540324635340198
 31
0.0
  0
ARC
  5
448E
  8
0
 10
257.1386214749635997
 20
24.4562198574583682
 30
0.0
 40
0.0118110236420486
 50
237.3484955334025983
 51
349.3272447308634128
  0
LINE
  5
448F
  8
0
 10
257.1322490985750164
 20
24.4462753565340201
 30
0.0
 11
257.0090184633705803
 21
24.5252408064954111
 31
0.0
  0
ARC
  5
4490
  8
0
 10
257.0153908397106761
 20
24.5351853073439017
 30
0.0
 40
0.0118110235519404
 50
137.1709307869465135
 51
237.348495533394896
  0
LINE
  5
4491
  8
0
 10
257.0067288115748738
 20
24.5432146003340215
 30
0.0
 11
257.1800867653586238
 21
24.7302337407574697
 31
0.0
  0
ARC
  5
4492
  8
0
 10
257.1887487971515043
 20
24.7222044443774003
 30
0.0
 40
0.0118110285385374
 50
349.3272264058516043
 51
137.1709307869496115
  0
LINE
  5
4493
  8
0
 10
257.2442529998749023
 20
24.6337612978340204
 30
0.0
 11
257.3627399502749995
 21
24.4773296299340188
 31
0.0
  0
ARC
  5
4494
  8
0
 10
257.3533248419818733
 20
24.4701982895583612
 30
0.0
 40
0.0118110236526472
 50
309.0235871148561841
 51
37.1415925851128321
  0
LINE
  5
4495
  8
0
 10
257.3607615380748825
 20
24.4610224609340214
 30
0.0
 11
257.1861185841607949
 21
24.3194803042281507
 31
0.0
  0
ARC
  5
4496
  8
0
 10
257.1786818880743226
 20
24.3286561328444115
 30
0.0
 40
0.0118110236422686
 50
169.3272444090104045
 51
309.0235871148436217
  0
LINE
  5
4497
  8
0
 10
257.1670751836750242
 20
24.3308435268340197
 30
0.0
 11
257.2232311888487857
 21
24.6288173511185704
 31
0.0
  0
ARC
  5
4498
  8
0
 10
257.2348378925902921
 20
24.6266299572529412
 30
0.0
 40
0.0118110229728496
 50
37.1415963329349523
 51
169.3272444089994906
  0
LINE
  5
4499
  8
0
 10
257.3782613833748769
 20
24.5472835459340217
 30
0.0
 11
257.6966769417750243
 21
24.6648440477340216
 31
0.0
  0
ARC
  5
449A
  8
0
 10
257.7007677194703774
 20
24.6537640740672614
 30
0.0
 40
0.0118110236055121
 50
329.4187045091575214
 51
110.2643800092291997
  0
LINE
  5
449B
  8
0
 10
257.7109359260750239
 20
24.6477550930340215
 30
0.0
 11
257.532359198690699
 21
24.3455732341201916
 31
0.0
  0
ARC
  5
449C
  8
0
 10
257.5221909921669976
 20
24.3515822151056902
 30
0.0
 40
0.0118110235116895
 50
217.1415949043835951
 51
329.4187045091694017
  0
LINE
  5
449D
  8
0
 10
257.5127758842750154
 20
24.3444508744340204
 30
0.0
 11
257.3729370453822867
 21
24.5290722263345593
 31
0.0
  0
ARC
  5
449E
  8
0
 10
257.3823521547132032
 20
24.5362035680960702
 30
0.0
 40
0.0118110253166723
 50
110.2643440703613038
 51
217.141594904380014
  0
ARC
  5
449F
  8
0
 10
257.7639075343333275
 20
24.6367884894428215
 30
0.0
 40
0.0118129868194829
 50
0.0347907056344953
 51
149.3839139514657006
  0
LINE
  5
44A0
  8
0
 10
257.7757205189748788
 20
24.6367956624340216
 30
0.0
 11
257.7759102548985197
 21
24.3243252454390202
 31
0.0
  0
ARC
  5
44A1
  8
0
 10
257.7641974197862851
 20
24.3243181332598617
 30
0.0
 40
0.0117128372714723
 50
287.8680361293593819
 51
0.034790705644673
  0
LINE
  5
44A2
  8
0
 10
257.7677912192750114
 20
24.3131702562340202
 30
0.0
 11
257.5351770335540209
 21
24.2322303376394395
 31
0.0
  0
ARC
  5
44A3
  8
0
 10
257.5314499703604838
 20
24.2434368991375209
 30
0.0
 40
0.0118100813146149
 50
149.4389675075977095
 51
288.3960243198773128
  0
LINE
  5
44A4
  8
0
 10
257.5212804506750217
 20
24.2494418046340208
 30
0.0
 11
257.7537412887750179
 21
24.6428046434340082
 31
0.0
  0
LINE
  5
44A5
  8
0
 10
257.4007942926749024
 20
24.4270886184340199
 30
0.0
 11
257.4969732483748999
 21
24.3001089434340116
 31
0.0
  0
ARC
  5
44A6
  8
0
 10
257.4875581401180966
 20
24.2929776030840898
 30
0.0
 40
0.0118110236082682
 50
329.4187049856957969
 51
37.1415925915076315
  0
LINE
  5
44A7
  8
0
 10
257.4977263467749253
 20
24.2869686221340189
 30
0.0
 11
257.4495053795525905
 21
24.2053706333926506
 31
0.0
  0
ARC
  5
44A8
  8
0
 10
257.4393371747461856
 20
24.2113796132491395
 30
0.0
 40
0.0118110214587622
 50
289.187007090806901
 51
329.418704985698696
  0
LINE
  5
44A9
  8
0
 10
257.4432188962750274
 20
24.2002246831340209
 30
0.0
 11
257.3360306659564003
 21
24.1629250445925905
 31
0.0
  0
ARC
  5
44AA
  8
0
 10
257.3321489417264729
 20
24.1740799824705199
 30
0.0
 40
0.0118110296781524
 50
210.0654291488301055
 51
289.187007090810198
  0
LINE
  5
44AB
  8
0
 10
257.321927040474975
 20
24.1681627908340211
 30
0.0
 11
257.2439614878302905
 21
24.3028476597901992
 31
0.0
  0
ARC
  5
44AC
  8
0
 10
257.254183314961324
 20
24.308764808520241
 30
0.0
 40
0.0118109440345836
 50
129.0218270328809922
 51
210.06542914884011
  0
LINE
  5
44AD
  8
0
 10
257.2467469508749218
 20
24.3179408037340217
 30
0.0
 11
257.3839459039360236
 21
24.4291288921601613
 31
0.0
  0
ARC
  5
44AE
  8
0
 10
257.3913824314593057
 20
24.4199526952758106
 30
0.0
 40
0.0118112036162175
 50
37.1688244135524926
 51
129.0218270328936967
  0
LINE
  5
44AF
  8
0
 10
257.1376477685749933
 20
24.3872785479340202
 30
0.0
 11
257.1146317550749245
 21
24.2651514532340187
 31
0.0
  0
ARC
  5
44B0
  8
0
 10
257.1030250505622803
 20
24.2673388471813603
 30
0.0
 40
0.0118110237458057
 50
309.0235874952126096
 51
349.3272447122927815
  0
LINE
  5
44B1
  8
0
 10
257.1104617467748881
 20
24.2581630185340202
 30
0.0
 11
256.9857480794179878
 21
24.1570868440172113
 31
0.0
  0
ARC
  5
44B2
  8
0
 10
256.9783113843334945
 20
24.166262671272591
 30
0.0
 40
0.0118110219540965
 50
253.1797896470826004
 51
309.0235874952131212
  0
LINE
  5
44B3
  8
0
 10
256.9748936352750093
 20
24.1549569545340113
 30
0.0
 11
256.886165800028607
 21
24.1817796215434804
 31
0.0
  0
ARC
  5
44B4
  8
0
 10
256.8895835582281961
 20
24.1930853685203111
 30
0.0
 40
0.0118110535438449
 50
198.5830160744447994
 51
253.1797896470876879
  0
LINE
  5
44B5
  8
0
 10
256.8783882985749187
 20
24.1893214414340214
 30
0.0
 11
256.811587635765477
 21
24.3880104032602389
 31
0.0
  0
ARC
  5
44B6
  8
0
 10
256.8227828470980967
 20
24.3917743141007612
 30
0.0
 40
0.011811002565295
 50
107.1880803577314936
 51
198.5830160744390867
  0
LINE
  5
44B7
  8
0
 10
256.8192925858749049
 20
24.4030578356340193
 30
0.0
 11
257.0213806930065061
 21
24.4655684872874204
 31
0.0
  0
ARC
  5
44B8
  8
0
 10
257.0248781275432179
 20
24.4542617754449694
 30
0.0
 40
0.0118352769729521
 50
57.4822187537026608
 51
107.1880803577349042
  0
LINE
  5
44B9
  8
0
 10
257.0312403146750171
 20
24.4642415728340197
 30
0.0
 11
257.132564474621006
 21
24.3996467477671395
 31
0.0
  0
ARC
  5
44BA
  8
0
 10
257.1263199844884753
 20
24.3898515711983883
 30
0.0
 40
0.0116163307901882
 50
347.2028191859645858
 51
57.4822187536972393
  0
LINE
  5
44BB
  8
0
 10
256.7737832234749931
 20
24.3769145808340184
 30
0.0
 11
256.8154470667748797
 21
24.2529901513340214
 31
0.0
  0
ARC
  5
44BC
  8
0
 10
256.8042518230258224
 20
24.2492262697236605
 30
0.0
 40
0.0118110239767553
 50
338.6606804759559282
 51
18.5828315571193095
  0
LINE
  5
44BD
  8
0
 10
256.815253103575003
 20
24.2449283500340194
 30
0.0
 11
256.7543762216881191
 21
24.0891032753568801
 31
0.0
  0
ARC
  5
44BE
  8
0
 10
256.7433749404693231
 20
24.0934011953081288
 30
0.0
 40
0.0118110246956985
 50
213.9430542830666013
 51
338.6606804759471743
  0
LINE
  5
44BF
  8
0
 10
256.7335765977749134
 20
24.0868062893340209
 30
0.0
 11
256.5810501264380719
 21
24.3134215954471493
 31
0.0
  0
ARC
  5
44C0
  8
0
 10
256.5908484611023255
 20
24.3200164960165317
 30
0.0
 40
0.011811015016178
 50
107.1916309312060065
 51
213.943054283070893
  0
LINE
  5
44C1
  8
0
 10
256.5873574969749029
 20
24.3312998131340201
 30
0.0
 11
256.7590968885896245
 21
24.3844345472850108
 31
0.0
  0
ARC
  5
44C2
  8
0
 10
256.7625878406494735
 20
24.3731512691711814
 30
0.0
 40
0.0118109741883975
 50
18.5799958543365413
 51
107.1916309311974942
  0
LINE
  5
44C3
  8
0
 10
256.4151346112749934
 20
24.4894203308340117
 30
0.0
 11
256.6042700434749122
 21
24.2084135764340189
 31
0.0
  0
ARC
  5
44C4
  8
0
 10
256.5944717027419983
 20
24.2018186694420798
 30
0.0
 40
0.0118110236369077
 50
254.5959615832861118
 51
33.9430636917686996
  0
LINE
  5
44C5
  8
0
 10
256.5913344105749729
 20
24.1904319369340186
 30
0.0
 11
256.2321560633475883
 21
24.2893933742493395
 31
0.0
  0
ARC
  5
44C6
  8
0
 10
256.2352933553813159
 20
24.3007801062734785
 30
0.0
 40
0.0118110231349504
 50
136.9524162393607867
 51
254.5959615832844065
  0
LINE
  5
44C7
  8
0
 10
256.226662012574991
 20
24.3088423757340202
 30
0.0
 11
256.3967049106685749
 21
24.4908877107861613
 31
0.0
  0
ARC
  5
44C8
  8
0
 10
256.405336256396879
 20
24.4828254385963184
 30
0.0
 40
0.0118110271333132
 50
33.94296600054831
 51
136.9524162393580866
  0
LINE
  5
44C9
  8
0
 10
256.2009173693750199
 20
24.2416579108340215
 30
0.0
 11
256.2009173693750199
 21
24.1673166818340199
 31
0.0
  0
ARC
  5
44CA
  8
0
 10
256.212728392648728
 20
24.1673166818340199
 30
0.0
 40
0.0118110232738076
 50
180.0000000000009948
 51
214.3138450547679099
  0
LINE
  5
44CB
  8
0
 10
256.2029729350750245
 20
24.1606585050340215
 30
0.0
 11
256.3443678256866178
 21
23.9534889002085016
 31
0.0
  0
ARC
  5
44CC
  8
0
 10
256.3541232824971985
 20
23.9601470764876012
 30
0.0
 40
0.0118110223497796
 50
214.3138450547754985
 51
327.9396860193617158
  0
LINE
  5
44CD
  8
0
 10
256.3641330033750023
 20
23.9538776477340214
 30
0.0
 11
256.4936942730196847
 21
24.1607341567853986
 31
0.0
  0
ARC
  5
44CE
  8
0
 10
256.4836845394278839
 20
24.1670035935022298
 30
0.0
 40
0.0118110373517961
 50
327.9396860193642738
 51
74.5962446867907687
  0
LINE
  5
44CF
  8
0
 10
256.4868217789748996
 20
24.1783903547340202
 30
0.0
 11
256.2158653166605973
 21
24.2530433058064183
 31
0.0
  0
ARC
  5
44D0
  8
0
 10
256.2127281462792894
 20
24.241656795615441
 30
0.0
 40
0.0118107769570824
 50
74.5962446867857096
 51
179.9945899140730035
  0
LINE
  5
44D1
  8
0
 10
256.5502107177749167
 20
24.1609253254340217
 30
0.0
 11
256.6515985427749911
 21
24.13299077763401
 31
0.0
  0
ARC
  5
44D2
  8
0
 10
256.6484612506574763
 20
24.1216040451031013
 30
0.0
 40
0.0118110236457434
 50
33.9430638908890003
 51
74.5959618449311535
  0
LINE
  5
44D3
  8
0
 10
256.6582595913749856
 20
24.1281989521340208
 30
0.0
 11
256.7252862917961806
 21
24.0286144629502196
 31
0.0
  0
ARC
  5
44D4
  8
0
 10
256.7154879515852031
 20
24.0220195562601404
 30
0.0
 40
0.0118110230353331
 50
338.6606753769848979
 51
33.9430638908795075
  0
LINE
  5
44D5
  8
0
 10
256.7264892308750177
 20
24.01772163593402
 30
0.0
 11
256.6263531857534872
 21
23.7614059027964188
 31
0.0
  0
ARC
  5
44D6
  8
0
 10
256.6153519104938141
 20
23.7657038215480583
 30
0.0
 40
0.0118110187085507
 50
225.0448180381723944
 51
338.6606753769905822
  0
LINE
  5
44D7
  8
0
 10
256.6070067944750122
 20
23.7573456398340106
 30
0.0
 11
256.4170868747261238
 21
23.9469686725495983
 31
0.0
  0
ARC
  5
44D8
  8
0
 10
256.425431920789606
 20
23.9553267841987783
 30
0.0
 40
0.0118109196992924
 50
147.9377909355777092
 51
225.0448180381748102
  0
LINE
  5
44D9
  8
0
 10
256.415422494274992
 20
23.9615964895340205
 30
0.0
 11
256.5370701838133982
 21
24.155803959264869
 31
0.0
  0
ARC
  5
44DA
  8
0
 10
256.5470827575222756
 20
24.1495322825899308
 30
0.0
 40
0.0118146333243863
 50
74.6477202622028528
 51
147.9377909355727923
  0
LINE
  5
44DB
  8
0
 10
256.8467273999750091
 20
24.1599503084340199
 30
0.0
 11
256.9250465479750005
 21
23.9269987860340194
 31
0.0
  0
ARC
  5
44DC
  8
0
 10
256.9138513045734271
 20
23.9232349045370007
 30
0.0
 40
0.0118110236111618
 50
282.4889565828052014
 51
18.5828315732691891
  0
LINE
  5
44DD
  8
0
 10
256.9164054553750134
 20
23.9117033568340212
 30
0.0
 11
256.7310379659442106
 21
23.8706458566697108
 31
0.0
  0
ARC
  5
44DE
  8
0
 10
256.7284838150841892
 20
23.8821774046365398
 30
0.0
 40
0.0118110238814003
 50
158.6606771296040961
 51
282.4889565828052014
  0
LINE
  5
44DF
  8
0
 10
256.7174825348749891
 20
23.8864753249340183
 30
0.0
 11
256.824530887076719
 21
24.1604843425531293
 31
0.0
  0
ARC
  5
44E0
  8
0
 10
256.8355321625771239
 20
24.1561864240952708
 30
0.0
 40
0.0118110188260096
 50
18.5828539212088515
 51
158.6606771296077056
  0
LINE
  5
44E1
  8
0
 10
257.2148634886750074
 20
24.2745299907340204
 30
0.0
 11
257.3346857607750167
 21
24.0675370804340183
 31
0.0
  0
ARC
  5
44E2
  8
0
 10
257.3244638536891102
 20
24.0616199109500712
 30
0.0
 40
0.0118110236293606
 50
253.1798009442298962
 51
30.0653219652467811
  0
LINE
  5
44E3
  8
0
 10
257.321046106374979
 20
24.0503141919340209
 30
0.0
 11
257.0477594336297216
 21
24.1329294409460502
 31
0.0
  0
ARC
  5
44E4
  8
0
 10
257.0511771808892263
 20
24.1442351597811786
 30
0.0
 40
0.0118110234403538
 50
129.0235887063712141
 51
253.1798009442246951
  0
LINE
  5
44E5
  8
0
 10
257.0437404846749132
 20
24.1534109880340218
 30
0.0
 11
257.197204881994594
 21
24.2777886541283188
 31
0.0
  0
ARC
  5
44E6
  8
0
 10
257.2046415786431908
 20
24.2686128253395808
 30
0.0
 40
0.0118110241301644
 50
30.0652976364453615
 51
129.0235887063689972
  0
LINE
  5
44E7
  8
0
 10
257.7687281899749223
 20
24.260489324434019
 30
0.0
 11
257.7746468923288035
 21
24.2475747427637494
 31
0.0
  0
ARC
  5
44E8
  8
0
 10
257.7639118405617182
 20
24.2426549104545188
 30
0.0
 40
0.0118087292454417
 50
359.9998081557732235
 51
24.6218015782752992
  0
LINE
  5
44E9
  8
0
 10
257.7757205698071061
 20
24.2426548709151994
 30
0.0
 11
257.7757197167708796
 21
23.98788896673544
 31
0.0
  0
ARC
  5
44EA
  8
0
 10
257.7639089220112965
 20
23.9878890062816907
 30
0.0
 40
0.011810794759724
 50
242.582777750238705
 51
359.9998081557732235
  0
LINE
  5
44EB
  8
0
 10
257.7584704451750213
 20
23.9774048352340188
 30
0.0
 11
257.5898094667628015
 21
24.0648947111737783
 31
0.0
  0
ARC
  5
44EC
  8
0
 10
257.595247181775278
 20
24.0753774135950103
 30
0.0
 40
0.0118091402993542
 50
160.1014010397979064
 51
242.5827777502512106
  0
LINE
  5
44ED
  8
0
 10
257.584143089074928
 20
24.0793967319340183
 30
0.0
 11
257.6352738596693257
 21
24.2206547186459602
 31
0.0
  0
ARC
  5
44EE
  8
0
 10
257.6466169250904841
 20
24.2165488999989016
 30
0.0
 40
0.0120632864474323
 50
110.5653529736908069
 51
160.1014010397991001
  0
LINE
  5
44EF
  8
0
 10
257.6423793875749197
 20
24.2278434188340199
 30
0.0
 11
257.7540769826633209
 21
24.2667122564040696
 31
0.0
  0
ARC
  5
44F0
  8
0
 10
257.758007514935116
 20
24.2556074691158088
 30
0.0
 40
0.0117798720136228
 50
24.4830142618347502
 51
109.4913843057378955
  0
LINE
  5
44F1
  8
0
 10
257.5807781994749917
 20
24.1860253451340199
 30
0.0
 11
257.4860019067750159
 21
23.9234800622340202
 31
0.0
  0
ARC
  5
44F2
  8
0
 10
257.4748925736598721
 20
23.9274904234006307
 30
0.0
 40
0.0118110236198575
 50
210.0653218947309995
 51
340.1509108209414194
  0
LINE
  5
44F3
  8
0
 10
257.4646706665749889
 20
23.9215732539340209
 30
0.0
 11
257.3540627489780945
 21
24.1126483723516394
 31
0.0
  0
ARC
  5
44F4
  8
0
 10
257.3642846560891257
 20
24.1185655418333305
 30
0.0
 40
0.0118110236499574
 50
109.1870171854137936
 51
210.0653218947309995
  0
LINE
  5
44F5
  8
0
 10
257.3604029318750008
 20
24.1297204733340216
 30
0.0
 11
257.5657871404426942
 21
24.201190643773991
 31
0.0
  0
ARC
  5
44F6
  8
0
 10
257.5696688653827096
 20
24.1900357101873311
 30
0.0
 40
0.0118110258586091
 50
340.150894695925615
 51
109.1870171854154989
  0
LINE
  5
44F7
  8
0
 10
256.9176290707749786
 20
24.1311384676340204
 30
0.0
 11
257.2079605177750068
 21
24.0433705410340188
 31
0.0
  0
ARC
  5
44F8
  8
0
 10
257.2045425872702253
 20
24.0320647482255403
 30
0.0
 40
0.0118111472755142
 50
330.7183234143930122
 51
73.1790538913600983
  0
LINE
  5
44F9
  8
0
 10
257.2148445738749842
 20
24.0262878743340202
 30
0.0
 11
257.1863871157748918
 21
23.9755408095340314
 31
0.0
  0
ARC
  5
44FA
  8
0
 10
257.1760704205706247
 20
23.9813378066659091
 30
0.0
 40
0.0118338233756836
 50
282.538359385767194
 51
330.6681732136441951
  0
LINE
  5
44FB
  8
0
 10
257.1786394630748873
 20
23.9697862095340106
 30
0.0
 11
256.9782565452749168
 21
23.9254029062340194
 31
0.0
  0
ARC
  5
44FC
  8
0
 10
256.9756816930120067
 20
23.936897810539211
 30
0.0
 40
0.0117797576019792
 50
198.4459808555101858
 51
282.6258069703779938
  0
LINE
  5
44FD
  8
0
 10
256.9645071511749848
 20
23.9331705724340189
 30
0.0
 11
256.9034531068924139
 21
24.1162152164582011
 31
0.0
  0
ARC
  5
44FE
  8
0
 10
256.914512697696523
 20
24.1199041129582987
 30
0.0
 40
0.0116585807945772
 50
74.4961603121258378
 51
198.4459808555035067
  0
LINE
  5
44FF
  8
0
 10
256.2224838510749123
 20
24.0622323336340216
 30
0.0
 11
256.3273827761748862
 21
23.9085360457340208
 31
0.0
  0
ARC
  5
4500
  8
0
 10
256.3176273181226179
 20
23.9018778689001401
 30
0.0
 40
0.0118110236881681
 50
327.9397037517674107
 51
34.3138438818748526
  0
LINE
  5
4501
  8
0
 10
256.3276370420750254
 20
23.8956084425340194
 30
0.0
 11
256.2719693617327721
 21
23.8067297986593402
 31
0.0
  0
ARC
  5
4502
  8
0
 10
256.2619596380864095
 20
23.8129992248338596
 30
0.0
 40
0.0118110233272175
 50
246.2254207354849882
 51
327.9397037517740046
  0
LINE
  5
4503
  8
0
 10
256.2571981502749168
 20
23.8021905012340191
 30
0.0
 11
256.2079669083307749
 21
23.8238779795280102
 31
0.0
  0
ARC
  5
4504
  8
0
 10
256.212728398465913
 20
23.8346867084024083
 30
0.0
 40
0.0118110290908865
 50
180.0000459315278079
 51
246.2254207354779965
  0
LINE
  5
4505
  8
0
 10
256.2009173693750199
 20
23.8346866989340214
 30
0.0
 11
256.2009171922990731
 21
24.0555741568339485
 31
0.0
  0
ARC
  5
4506
  8
0
 10
256.2127282931346031
 20
24.0555741663023994
 30
0.0
 40
0.0118111008354307
 50
34.3135326508843903
 51
180.0000459315284047
  0
LINE
  5
4507
  8
0
 10
256.3994753393748738
 20
23.9089188851340104
 30
0.0
 11
256.5400220746749937
 21
23.7685915381340216
 31
0.0
  0
ARC
  5
4508
  8
0
 10
256.5316769457252803
 20
23.7602333623784787
 30
0.0
 40
0.0118110236282567
 50
286.8866718135199108
 51
45.0447532253840421
  0
LINE
  5
4509
  8
0
 10
256.535107807274926
 20
23.7489316161340085
 30
0.0
 11
256.4463409336610198
 21
23.7219847313801004
 31
0.0
  0
ARC
  5
450A
  8
0
 10
256.4429100720757901
 20
23.7332864777413413
 30
0.0
 40
0.0118110237502957
 50
246.2254269962826072
 51
286.8866718135113274
  0
LINE
  5
450B
  8
0
 10
256.4381485852749165
 20
23.7224777532340205
 30
0.0
 11
256.3154527568897265
 21
23.776528031505471
 31
0.0
  0
ARC
  5
450C
  8
0
 10
256.3202142436646795
 20
23.7873367559541187
 30
0.0
 40
0.0118110236861905
 50
147.9396967980623003
 51
246.2254269962791966
  0
LINE
  5
450D
  8
0
 10
256.3102045204748833
 20
23.7936061835340205
 30
0.0
 11
256.3811204993637034
 21
23.9068301277239783
 31
0.0
  0
ARC
  5
450E
  8
0
 10
256.3911302211038219
 20
23.9005607010521004
 30
0.0
 40
0.0118110219755615
 50
45.0448184222581389
 51
147.9396967980663931
  0
LINE
  5
450F
  8
0
 10
256.2174898798750178
 20
23.7766620009340208
 30
0.0
 11
256.3551649209750281
 21
23.7160130400340208
 31
0.0
  0
ARC
  5
4510
  8
0
 10
256.3504034341040096
 20
23.7052043156812609
 30
0.0
 40
0.0118110236370849
 50
286.8866719081515271
 51
66.2254263831586911
  0
LINE
  5
4511
  8
0
 10
256.3538342956749148
 20
23.6939025694340195
 30
0.0
 11
256.2161592546430029
 21
23.6521086734097388
 31
0.0
  0
ARC
  5
4512
  8
0
 10
256.2127283930585122
 20
23.6634104197015382
 30
0.0
 40
0.0118110236836474
 50
179.9999993573476047
 51
286.8866719081548808
  0
LINE
  5
4513
  8
0
 10
256.2009173693750199
 20
23.6634104198340083
 30
0.0
 11
256.2009173705239959
 21
23.7658532765340205
 31
0.0
  0
ARC
  5
4514
  8
0
 10
256.2127283939458948
 20
23.7658532764015398
 30
0.0
 40
0.0118110234218687
 50
66.2254309157057577
 51
179.9999993573499921
  0
LINE
  5
4515
  8
0
 10
256.2009173693750199
 20
23.5975797533340206
 30
0.0
 11
256.2009173693750199
 21
23.2861669799340092
 31
0.0
  0
ARC
  5
4516
  8
0
 10
256.2127283929750092
 20
23.2861669799340092
 30
0.0
 40
0.0118110236000018
 50
179.9999999999911893
 51
270.0000004850954838
  0
LINE
  5
4517
  8
0
 10
256.2127283930748831
 20
23.2743559563340199
 30
0.0
 11
256.2395601578749051
 21
23.2743559565611911
 31
0.0
  0
ARC
  5
4518
  8
0
 10
256.2395601577749176
 20
23.2861669805144906
 30
0.0
 40
0.0118110239533085
 50
270.0000004850938922
 51
334.9986010113859152
  0
LINE
  5
4519
  8
0
 10
256.2502644588749945
 20
23.2811751647340195
 30
0.0
 11
256.3823136075308184
 21
23.5643374265984491
 31
0.0
  0
ARC
  5
451A
  8
0
 10
256.3716093072270041
 20
23.5693292420076297
 30
0.0
 40
0.0118110230748062
 50
334.9986010113839257
 51
64.6861966693258097
  0
LINE
  5
451B
  8
0
 10
256.3766594131748775
 20
23.5800061655340194
 30
0.0
 11
256.2781717533013079
 21
23.6265901010373014
 31
0.0
  0
ARC
  5
451C
  8
0
 10
256.2731214807532183
 20
23.6159128252853208
 30
0.0
 40
0.0118114127136946
 50
64.6861966693240902
 51
106.8850486118726053
  0
LINE
  5
451D
  8
0
 10
256.2696908263749265
 20
23.6272150410340203
 30
0.0
 11
256.2092970120946234
 21
23.6088832105339215
 31
0.0
  0
ARC
  5
451E
  8
0
 10
256.2127272099273796
 20
23.59758249886427
 30
0.0
 40
0.0118098408716045
 50
106.8850486118793981
 51
180.0133200183765894
  0
LINE
  5
451F
  8
0
 10
256.3090650687748848
 20
23.2743559563340199
 30
0.0
 11
256.4675194085749013
 21
23.2743559563340199
 31
0.0
  0
ARC
  5
4520
  8
0
 10
256.4675194085749013
 20
23.2861669799878612
 30
0.0
 40
0.0118110236538378
 50
270.0000000000017053
 51
31.4399845325944902
  0
LINE
  5
4521
  8
0
 10
256.4775964203749936
 20
23.2923276709340215
 30
0.0
 11
256.3877078188104974
 21
23.4393580132391683
 31
0.0
  0
ARC
  5
4522
  8
0
 10
256.3776308069236052
 20
23.4331973222398702
 30
0.0
 40
0.0118110237556963
 50
31.4399845325974212
 51
154.9986047732544137
  0
LINE
  5
4523
  8
0
 10
256.3669265056749964
 20
23.4381891372340192
 30
0.0
 11
256.2983607714219261
 21
23.29115879343329
 31
0.0
  0
ARC
  5
4524
  8
0
 10
256.3090650716191021
 20
23.2861669789295007
 30
0.0
 40
0.0118110225954813
 50
154.9986047732463135
 51
269.9999862029577002
  0
LINE
  5
4525
  8
0
 10
256.4336515799748781
 20
23.5530492154340116
 30
0.0
 11
256.6669694140750266
 21
23.4426913443340084
 31
0.0
  0
ARC
  5
4526
  8
0
 10
256.6619192982108189
 20
23.4320144249295588
 30
0.0
 40
0.0118110235886186
 50
324.5961416745388988
 51
64.686144634570141
  0
LINE
  5
4527
  8
0
 10
256.6715463310749783
 20
23.4251718730340208
 30
0.0
 11
256.6147617551274038
 21
23.3452796066440911
 31
0.0
  0
ARC
  5
4528
  8
0
 10
256.605136532034976
 20
23.3521208722183502
 30
0.0
 40
0.0118088032516528
 50
298.4099246540848185
 51
324.5961416745388988
  0
LINE
  5
4529
  8
0
 10
256.6107548839748915
 20
23.3417342483340207
 30
0.0
 11
256.5325196637418799
 21
23.2994151072669204
 31
0.0
  0
ARC
  5
452A
  8
0
 10
256.5269003220055879
 20
23.3098035609836707
 30
0.0
 40
0.0118108836322807
 50
211.4357926675752992
 51
298.4099246540844774
  0
LINE
  5
452B
  8
0
 10
256.5168229789749148
 20
23.3036436803340195
 30
0.0
 11
256.3996741845998031
 21
23.4952948914025193
 31
0.0
  0
ARC
  5
452C
  8
0
 10
256.4097707071612149
 20
23.5014664957396384
 30
0.0
 40
0.0118333624945029
 50
155.4065622062925058
 51
211.4357926675652948
  0
LINE
  5
452D
  8
0
 10
256.3990108225750078
 20
23.5063912649340203
 30
0.0
 11
256.4177652977427897
 21
23.5473669899510689
 31
0.0
  0
ARC
  5
452E
  8
0
 10
256.4284785083250995
 20
23.5424635833182698
 30
0.0
 40
0.0117820319803138
 50
63.9557940050140701
 51
155.4065622062902889
  0
LINE
  5
452F
  8
0
 10
256.3594236021748998
 20
23.6544551439340083
 30
0.0
 11
256.5788069539748903
 21
23.7210531625340195
 31
0.0
  0
ARC
  5
4530
  8
0
 10
256.58223781556012
 20
23.7097514161769389
 30
0.0
 40
0.0118110237463066
 50
45.0447540355324492
 51
106.8866718192497984
  0
LINE
  5
4531
  8
0
 10
256.5905829444748747
 20
23.7181095921340201
 30
0.0
 11
256.7526551792457212
 21
23.5562903507548391
 31
0.0
  0
ARC
  5
4532
  8
0
 10
256.7443098868232028
 20
23.5479320110345789
 30
0.0
 40
0.0118112551617327
 50
324.6009619165282061
 51
45.0447540355164833
  0
LINE
  5
4533
  8
0
 10
256.7539376840750265
 20
23.54109013493402
 30
0.0
 11
256.708619086603278
 21
23.4773184059846791
 31
0.0
  0
ARC
  5
4534
  8
0
 10
256.6989937329979057
 20
23.4841585455379409
 30
0.0
 40
0.0118082573285756
 50
244.6401188499964974
 51
324.6009619165293998
  0
LINE
  5
4535
  8
0
 10
256.6939362267750084
 20
23.4734881860340217
 30
0.0
 11
256.3579321604269126
 21
23.6327464243204695
 31
0.0
  0
ARC
  5
4536
  8
0
 10
256.3629381498446946
 20
23.6433080933340101
 30
0.0
 40
0.0116879759754196
 50
107.4995143183787008
 51
244.6401188499986006
  0
LINE
  5
4537
  8
0
 10
256.8133115815750216
 20
23.8389033667340193
 30
0.0
 11
256.8695397985749196
 21
23.71380639863402
 31
0.0
  0
ARC
  5
4538
  8
0
 10
256.858766964907602
 20
23.7089642570669206
 30
0.0
 40
0.01181102367202
 50
324.5959745009554922
 51
24.2028236400778098
  0
LINE
  5
4539
  8
0
 10
256.8683939778749163
 20
23.7021216770340111
 30
0.0
 11
256.7909445004531221
 21
23.5931558892941915
 31
0.0
  0
ARC
  5
453A
  8
0
 10
256.781317487488991
 20
23.5999984693247384
 30
0.0
 40
0.0118110236679558
 50
225.0450011290701866
 51
324.595974500956288
  0
LINE
  5
453B
  8
0
 10
256.77297239467498
 20
23.5916402574340083
 30
0.0
 11
256.6556582976758136
 21
23.7087702178432203
 31
0.0
  0
ARC
  5
453C
  8
0
 10
256.6640033945380992
 20
23.7171284337885311
 30
0.0
 40
0.0118110293974999
 50
158.6607373312207017
 51
225.045001129083488
  0
LINE
  5
453D
  8
0
 10
256.6530021046748971
 20
23.7214263445340201
 30
0.0
 11
256.6898888824238725
 21
23.8158448092633108
 31
0.0
  0
ARC
  5
453E
  8
0
 10
256.700890026195907
 20
23.8115469555917301
 30
0.0
 40
0.0118108725534637
 50
102.4879667544045958
 51
158.6607373312153868
  0
LINE
  5
453F
  8
0
 10
256.6983361072748835
 20
23.823078399934019
 30
0.0
 11
256.7999849860083827
 21
23.8455910173465995
 31
0.0
  0
ARC
  5
4540
  8
0
 10
256.8025390909168095
 20
23.8340587332345706
 30
0.0
 40
0.0118117326723738
 50
24.2145309971423615
 51
102.4879667543895039
  0
LINE
  5
4541
  8
0
 10
256.61560130677492
 20
23.2743559563340199
 30
0.0
 11
256.8717937301748862
 21
23.2743559563340199
 31
0.0
  0
ARC
  5
4542
  8
0
 10
256.8717937301748862
 20
23.2861669801199191
 30
0.0
 40
0.0118110237859011
 50
270.0000000000017053
 51
307.1501179213880732
  0
LINE
  5
4543
  8
0
 10
256.8789264714749834
 20
23.2767529329340199
 30
0.0
 11
257.0109694481221254
 21
23.3767979374158905
 31
0.0
  0
ARC
  5
4544
  8
0
 10
257.0038367072521055
 20
23.3862119840343787
 30
0.0
 40
0.0118110230740201
 50
307.150117921392507
 51
24.2028330948485397
  0
LINE
  5
4545
  8
0
 10
257.0146095395750194
 20
23.3910541271340193
 30
0.0
 11
256.974852773670591
 21
23.4795052455697189
 31
0.0
  0
ARC
  5
4546
  8
0
 10
256.9640799402449147
 20
23.474663101974361
 30
0.0
 40
0.0118110242831943
 50
24.2028330948478008
 51
118.4093870002897972
  0
LINE
  5
4547
  8
0
 10
256.9584606290749207
 20
23.4850517321340213
 30
0.0
 11
256.6099817141584936
 21
23.2965560951764914
 31
0.0
  0
ARC
  5
4548
  8
0
 10
256.6156011479428116
 20
23.2861672383349507
 30
0.0
 40
0.0118112820019934
 50
118.4093870002807023
 51
270.0007704846340175
  0
LINE
  5
4549
  8
0
 10
256.9438047648749261
 20
23.521884805134011
 30
0.0
 11
256.736307713374913
 21
23.4096472503340216
 31
0.0
  0
ARC
  5
454A
  8
0
 10
256.7306883878042072
 20
23.4200358719449717
 30
0.0
 40
0.0118110236155012
 50
144.5959745670774907
 51
298.4094681766948725
  0
LINE
  5
454B
  8
0
 10
256.7210613748749211
 20
23.4268784519340194
 30
0.0
 11
256.87907912161279
 21
23.6491979415600717
 31
0.0
  0
ARC
  5
454C
  8
0
 10
256.8887061348979728
 20
23.6423553613179607
 30
0.0
 40
0.0118110240522989
 50
24.2028193483021603
 51
144.595974567079196
  0
LINE
  5
454D
  8
0
 10
256.8994789692749237
 20
23.6471975022340217
 30
0.0
 11
256.9489582647037196
 21
23.5371155645162808
 31
0.0
  0
ARC
  5
454E
  8
0
 10
256.9381854292751086
 20
23.5322734231275597
 30
0.0
 40
0.0118110252052445
 50
298.4095193177619194
 51
24.202819348306349
  0
LINE
  5
454F
  8
0
 10
256.862794278174988
 20
23.8595046430340183
 30
0.0
 11
257.1322197882749947
 21
23.9191803593340211
 31
0.0
  0
ARC
  5
4550
  8
0
 10
257.1347739390246261
 20
23.9076488116414296
 30
0.0
 40
0.011811023589786
 50
330.7175758602058977
 51
102.4889563480333976
  0
LINE
  5
4551
  8
0
 10
257.1450757423748996
 20
23.9018718638340211
 30
0.0
 11
257.0019141350639984
 21
23.6465774116420988
 31
0.0
  0
ARC
  5
4552
  8
0
 10
256.9916123301474045
 20
23.652354360327859
 30
0.0
 40
0.0118110253855566
 50
261.7936254361162014
 51
330.7175758602082851
  0
LINE
  5
4553
  8
0
 10
256.9899264355750006
 20
23.6406642756340197
 30
0.0
 11
256.9489312809004105
 21
23.6465764234558904
 31
0.0
  0
ARC
  5
4554
  8
0
 10
256.9506171715786991
 20
23.6582664811477486
 30
0.0
 40
0.011810998104225
 50
204.2026679586795979
 51
261.7936254361130182
  0
LINE
  5
4555
  8
0
 10
256.9398443480749847
 20
23.6534243793340195
 30
0.0
 11
256.8545761108312036
 21
23.8431311855189385
 31
0.0
  0
ARC
  5
4556
  8
0
 10
256.8653488944120227
 20
23.8479732693883015
 30
0.0
 40
0.0118109543338099
 50
102.4913436121084942
 51
204.2026679586792
  0
LINE
  5
4557
  8
0
 10
256.9761016615748872
 20
23.2743559563340199
 30
0.0
 11
257.1082132048749145
 21
23.2743559563340199
 31
0.0
  0
ARC
  5
4558
  8
0
 10
257.1082132048749145
 20
23.2861669799548991
 30
0.0
 40
0.0118110236208828
 50
270.0000000000017053
 51
341.3522455066938051
  0
LINE
  5
4559
  8
0
 10
257.1194041761748963
 20
23.2823904153340102
 30
0.0
 11
257.1647873241494722
 21
23.4168728239438302
 31
0.0
  0
ARC
  5
455A
  8
0
 10
257.1535963529555033
 20
23.4206493885290001
 30
0.0
 40
0.0118110235091558
 50
341.3522455066940893
 51
127.1501176024463007
  0
LINE
  5
455B
  8
0
 10
257.1464636118749922
 20
23.43006343553402
 30
0.0
 11
256.968968918353994
 21
23.2955810294693393
 31
0.0
  0
ARC
  5
455C
  8
0
 10
256.9761016603152939
 20
23.2861669813017613
 30
0.0
 40
0.0118110249677347
 50
127.1501176024463007
 51
270.0000061105292843
  0
LINE
  5
455D
  8
0
 10
256.9828923713749873
 20
23.6019013141340217
 30
0.0
 11
257.228095702974997
 21
23.5665390342340189
 31
0.0
  0
ARC
  5
455E
  8
0
 10
257.2264098043385161
 20
23.5548489519323212
 30
0.0
 40
0.0118110235980194
 50
307.1501182253996944
 51
81.7936042664993863
  0
LINE
  5
455F
  8
0
 10
257.2335425455750055
 20
23.5454349049340195
 30
0.0
 11
257.0624874615822932
 21
23.4158315949521807
 31
0.0
  0
ARC
  5
4560
  8
0
 10
257.0553547203767266
 20
23.42524564190985
 30
0.0
 40
0.0118110235470447
 50
204.2028266183156973
 51
307.1501182253953175
  0
LINE
  5
4561
  8
0
 10
257.0445818870750259
 20
23.4204034998340198
 30
0.0
 11
256.9704336305011907
 21
23.5853690863803287
 31
0.0
  0
ARC
  5
4562
  8
0
 10
256.9812064665749176
 20
23.5902112297021205
 30
0.0
 40
0.0118110265861926
 50
81.7935761481578112
 51
204.2028266183120024
  0
LINE
  5
4563
  8
0
 10
257.1746979027749944
 20
23.2743582305340198
 30
0.0
 11
257.4272636008749942
 21
23.2743931393340091
 31
0.0
  0
ARC
  5
4564
  8
0
 10
257.4272619683941912
 20
23.2862041628360288
 30
0.0
 40
0.0118110236148342
 50
270.0079192341297016
 51
45.246595868471907
  0
LINE
  5
4565
  8
0
 10
257.4355776012749857
 20
23.2945916850340211
 30
0.0
 11
257.2463380953482215
 21
23.4822092222147916
 31
0.0
  0
ARC
  5
4566
  8
0
 10
257.2380224622230003
 20
23.4738216997703013
 30
0.0
 40
0.0118110239619685
 50
45.2465958684769731
 51
161.3522489176432089
  0
LINE
  5
4567
  8
0
 10
257.2268314903748774
 20
23.4775982638340217
 30
0.0
 11
257.1635053105417796
 21
23.28994581473059
 31
0.0
  0
ARC
  5
4568
  8
0
 10
257.1746962797208198
 20
23.2861692515675607
 30
0.0
 40
0.0118110211450683
 50
161.3522489176409067
 51
270.0078735063632962
  0
LINE
  5
4569
  8
0
 10
257.1482333544749963
 20
23.7973398606340183
 30
0.0
 11
257.3524705821749876
 21
23.6101711783340207
 31
0.0
  0
ARC
  5
456A
  8
0
 10
257.3444907127109218
 20
23.6014635975747105
 30
0.0
 40
0.0118110236365374
 50
261.7936042959894962
 51
47.4969893773424801
  0
LINE
  5
456B
  8
0
 10
257.3428048140748956
 20
23.5897735152340111
 30
0.0
 11
257.0567433185540267
 21
23.6310282019887303
 31
0.0
  0
ARC
  5
456C
  8
0
 10
257.0584292171909055
 20
23.6427182843354586
 30
0.0
 40
0.0118110236426324
 50
150.7175760532209097
 51
261.7936042959847214
  0
LINE
  5
456D
  8
0
 10
257.0481274137749779
 20
23.6484952321340209
 30
0.0
 11
257.1299516825761771
 21
23.7944092270725598
 31
0.0
  0
ARC
  5
456E
  8
0
 10
257.1402534858315221
 20
23.788632279364009
 30
0.0
 40
0.0118110234586032
 50
47.4969939860589321
 51
150.7175760532236097
  0
LINE
  5
456F
  8
0
 10
257.2697126592748873
 20
24.024702713334019
 30
0.0
 11
257.3740559449748844
 21
23.9931594756340196
 31
0.0
  0
ARC
  5
4570
  8
0
 10
257.3706381977435171
 20
23.9818537568231314
 30
0.0
 40
0.011811023409042
 50
30.0653216139189006
 51
73.1798010403184804
  0
LINE
  5
4571
  8
0
 10
257.38086010467498
 20
23.9877709261340186
 30
0.0
 11
257.457158582221723
 21
23.8559653455401097
 31
0.0
  0
ARC
  5
4572
  8
0
 10
257.4469366734711002
 20
23.8500481751761484
 30
0.0
 40
0.0118110255110425
 50
340.1509209636744799
 51
30.0653216139228903
  0
LINE
  5
4573
  8
0
 10
257.4580460090750194
 20
23.8460378153340109
 30
0.0
 11
257.4226565997212219
 21
23.7480035139721792
 31
0.0
  0
ARC
  5
4574
  8
0
 10
257.4115473189759769
 20
23.7520138540108796
 30
0.0
 40
0.0118109671874049
 50
297.3753803268443221
 51
340.1509209636765263
  0
LINE
  5
4575
  8
0
 10
257.416978217275016
 20
23.7415255610340203
 30
0.0
 11
257.3287362410341075
 21
23.6958333592889012
 31
0.0
  0
ARC
  5
4576
  8
0
 10
257.323305184249989
 20
23.7063219583366482
 30
0.0
 40
0.0118113118567514
 50
227.5001102364219037
 51
297.3753803268533034
  0
LINE
  5
4577
  8
0
 10
257.3153255943748832
 20
23.6976137304340106
 30
0.0
 11
257.1639152512613009
 21
23.8363552119832889
 31
0.0
  0
ARC
  5
4578
  8
0
 10
257.1718918655723769
 20
23.8450601926153105
 30
0.0
 40
0.0118069074559602
 50
150.6459999955438036
 51
227.5001102364346082
  0
LINE
  5
4579
  8
0
 10
257.1616008746750026
 20
23.8508479875340207
 30
0.0
 11
257.2562033151056085
 21
24.019055891758299
 31
0.0
  0
ARC
  5
457A
  8
0
 10
257.2665768138405156
 20
24.0132216932963196
 30
0.0
 40
0.0119015691274319
 50
74.723246489410883
 51
150.6459999955476121
  0
LINE
  5
457B
  8
0
 10
257.4496422313749235
 20
23.3360872090340195
 30
0.0
 11
257.2742489310750216
 21
23.5099772145340182
 31
0.0
  0
ARC
  5
457C
  8
0
 10
257.2825645639384788
 20
23.5183647367945987
 30
0.0
 40
0.0118110236471445
 50
127.1501182096511968
 51
225.2465961417157985
  0
LINE
  5
457D
  8
0
 10
257.2754318226748751
 20
23.5277787838340195
 30
0.0
 11
257.3069056302512081
 21
23.5516255444334099
 31
0.0
  0
ARC
  5
457E
  8
0
 10
257.314038371699894
 20
23.5422114971495695
 30
0.0
 40
0.0118110239538062
 50
81.7936053068285815
 51
127.1501182096471041
  0
LINE
  5
457F
  8
0
 10
257.3157242701749965
 20
23.5539015798340188
 30
0.0
 11
257.4941476217329068
 21
23.5281700547098609
 31
0.0
  0
ARC
  5
4580
  8
0
 10
257.4924617233186837
 20
23.5164799724462696
 30
0.0
 40
0.0118110235285877
 50
348.6571256501293874
 51
81.7936053068318643
  0
LINE
  5
4581
  8
0
 10
257.5040420510749755
 20
23.5141569817340184
 30
0.0
 11
257.4695381444274744
 21
23.3421517534123488
 31
0.0
  0
ARC
  5
4582
  8
0
 10
257.4579578320111182
 20
23.3444747410474598
 30
0.0
 40
0.0118110078831439
 50
225.2467404734765068
 51
348.6571256501289895
  0
LINE
  5
4583
  8
0
 10
257.7757205189748788
 20
23.3547385506340213
 30
0.0
 11
257.7757205189748788
 21
23.2861669799340092
 31
0.0
  0
ARC
  5
4584
  8
0
 10
257.7639094953748895
 20
23.2861669799340092
 30
0.0
 40
0.0118110235999964
 50
269.9999999999820943
 51
359.999999999991303
  0
LINE
  5
4585
  8
0
 10
257.7639094953748895
 20
23.2743559563340199
 30
0.0
 11
257.5105084728749034
 21
23.2743559563341016
 31
0.0
  0
ARC
  5
4586
  8
0
 10
257.5105084728749034
 20
23.2861669799557909
 30
0.0
 40
0.0118110236216893
 50
168.6571417416338932
 51
269.9999999999852776
  0
LINE
  5
4587
  8
0
 10
257.498928144374986
 20
23.2884899674340211
 30
0.0
 11
257.5014619434857082
 21
23.3011212133318999
 31
0.0
  0
ARC
  5
4588
  8
0
 10
257.5130422713629059
 20
23.2987982259786008
 30
0.0
 40
0.0118110229864478
 50
138.5886670847733058
 51
168.6571417416272141
  0
LINE
  5
4589
  8
0
 10
257.5041842373947247
 20
23.3066107478637115
 30
0.0
 11
257.6293822067029851
 21
23.4485633569168499
 31
0.0
  0
ARC
  5
458A
  8
0
 10
257.6382402420662174
 20
23.4407508338012605
 30
0.0
 40
0.0118110248466884
 50
55.6109758626750406
 51
138.5886670847849018
  0
LINE
  5
458B
  8
0
 10
257.6449112143748721
 20
23.4504975479340203
 30
0.0
 11
257.7705805224962887
 21
23.364485332626149
 31
0.0
  0
ARC
  5
458C
  8
0
 10
257.7639096229420943
 20
23.3547387247922913
 30
0.0
 40
0.0118108960341511
 50
359.9991551416576954
 51
55.6109758626790125
  0
LINE
  5
458D
  8
0
 10
257.7757205189748788
 20
23.5832378156340212
 30
0.0
 11
257.7757205189748788
 21
23.4310721590340201
 31
0.0
  0
ARC
  5
458E
  8
0
 10
257.7639094953614176
 20
23.4310721590340201
 30
0.0
 40
0.0118110236135749
 50
235.6109430949240107
 51
359.9999999999910187
  0
LINE
  5
458F
  8
0
 10
257.7572385181749723
 20
23.4213254497340202
 30
0.0
 11
257.673550960991804
 21
23.4786040416743198
 31
0.0
  0
ARC
  5
4590
  8
0
 10
257.6802219381760892
 20
23.4883507509709908
 30
0.0
 40
0.0118110236095391
 50
138.588665365744788
 51
235.6109430949277055
  0
LINE
  5
4591
  8
0
 10
257.6713639039750205
 20
23.4961632735340196
 30
0.0
 11
257.7550514664246748
 21
23.5910503326628991
 31
0.0
  0
ARC
  5
4592
  8
0
 10
257.7639094983713903
 20
23.5832378120881785
 30
0.0
 40
0.0118110206035793
 50
0.0000172009870781
 51
138.588665365741889
  0
LINE
  5
4593
  8
0
 10
257.7727675300748729
 20
23.6706572154340193
 30
0.0
 11
257.5466276734749727
 21
23.4142541381340195
 31
0.0
  0
ARC
  5
4594
  8
0
 10
257.5377696387806736
 20
23.4220666601856493
 30
0.0
 40
0.0118110236411322
 50
168.6571414135449913
 51
318.5886688087795164
  0
LINE
  5
4595
  8
0
 10
257.526189310275015
 20
23.4243896477340208
 30
0.0
 11
257.5987994047234793
 21
23.7863583320431289
 31
0.0
  0
ARC
  5
4596
  8
0
 10
257.610379736468019
 20
23.7840353438451011
 30
0.0
 40
0.0118110269442363
 50
117.3756393555740942
 51
168.6571414135474924
  0
LINE
  5
4597
  8
0
 10
257.6049487632748765
 20
23.7945236653340189
 30
0.0
 11
257.7584784999751264
 21
23.874023124348831
 31
0.0
  0
ARC
  5
4598
  8
0
 10
257.7639094791094863
 20
23.8635347913856997
 30
0.0
 40
0.0118110398655003
 50
359.9998042525684241
 51
117.3756393555779027
  0
LINE
  5
4599
  8
0
 10
257.7757205189748788
 20
23.8635347510340203
 30
0.0
 11
257.775719886712011
 21
23.6784697374350905
 31
0.0
  0
ARC
  5
459A
  8
0
 10
257.7639068592039848
 20
23.6784697777935591
 30
0.0
 40
0.0118130275079779
 50
318.5969796400253244
 51
359.9998042525804181
  0
LINE
  5
459B
  8
0
 10
257.5031836768749827
 20
23.5666442935340186
 30
0.0
 11
257.4534376697405946
 21
23.573816347676221
 31
0.0
  0
ARC
  5
459C
  8
0
 10
257.4551155192568217
 20
23.5854540615507808
 30
0.0
 40
0.0117580424912022
 50
227.4735411691193008
 51
261.7960000819049924
  0
LINE
  5
459D
  8
0
 10
257.4471678984750156
 20
23.5767887925340212
 30
0.0
 11
257.364815129068802
 21
23.6523211943911313
 31
0.0
  0
ARC
  5
459E
  8
0
 10
257.3727930879682049
 20
23.6610195409736797
 30
0.0
 40
0.0118029259706609
 50
117.5519462521462941
 51
227.4735411691281115
  0
LINE
  5
459F
  8
0
 10
257.3673336136749867
 20
23.6714839187340189
 30
0.0
 11
257.5329895858495775
 21
23.7579099387335617
 31
0.0
  0
ARC
  5
45A0
  8
0
 10
257.5385482880798236
 20
23.7472553670896502
 30
0.0
 40
0.0120174484563065
 50
347.1779970545097171
 51
117.5519462521372986
  0
LINE
  5
45A1
  8
0
 10
257.5502660718750008
 20
23.7445884193340113
 30
0.0
 11
257.5164253330856923
 21
23.5759070225581304
 31
0.0
  0
ARC
  5
45A2
  8
0
 10
257.5048964386070907
 20
23.5782920489395806
 30
0.0
 40
0.0117730097570162
 50
261.6348046945303167
 51
348.3118800830479813
  0
LINE
  5
45A3
  8
0
 10
257.482805261874887
 20
23.7986749631340189
 30
0.0
 11
257.5625664137750164
 21
24.0196259372340215
 31
0.0
  0
ARC
  5
45A4
  8
0
 10
257.5736757468362157
 20
24.0156155760875691
 30
0.0
 40
0.0118110235623292
 50
62.5802199058088604
 51
160.150910824129312
  0
LINE
  5
45A5
  8
0
 10
257.5791147970750217
 20
24.026099707434021
 30
0.0
 11
257.7524215630418212
 21
23.9361900930208904
 31
0.0
  0
ARC
  5
45A6
  8
0
 10
257.7469825130048093
 20
23.9257059620632191
 30
0.0
 40
0.0118110231243316
 50
297.3756242438788036
 51
62.5802199058034887
  0
LINE
  5
45A7
  8
0
 10
257.7524134816749211
 20
23.9152176425340208
 30
0.0
 11
257.4993455736124019
 21
23.7841762610909484
 31
0.0
  0
ARC
  5
45A8
  8
0
 10
257.4939146004064128
 20
23.7946645893796713
 30
0.0
 40
0.0118110329885196
 50
160.1508623065842869
 51
297.3756242438767003
  0
ENDSEC
  0
EOF
