  0
SECTION
  2
HEADER
  9
$ACADVER
  1
AC1009
  9
$INSBASE
 10
4588.1766632451272017
 20
282.6349249168313236
 30
0.0
  9
$EXTMIN
 10
4581.1194928672512106
 20
276.5892629203848969
 30
-0.0015258207003583
  9
$EXTMAX
 10
4595.1166138750104437
 20
283.6362051343605799
 30
0.0000000349246037
  9
$LIMMIN
 10
0.0
 20
0.0
  9
$LIMMAX
 10
11.6929133858000007
 20
8.2677165353999982
  9
$ORTHOMODE
 70
     0
  9
$REGENMODE
 70
     1
  9
$FILLMODE
 70
     1
  9
$QTEXTMODE
 70
     0
  9
$MIRRTEXT
 70
     0
  9
$DRAGMODE
 70
     2
  9
$LTSCALE
 40
0.6431102362
  9
$OSMODE
 70
  4095
  9
$ATTMODE
 70
     1
  9
$TEXTSIZE
 40
0.2
  9
$TRACEWID
 40
0.05
  9
$TEXTSTYLE
  7
STANDARD
  9
$CLAYER
  8
0
  9
$CELTYPE
  6
BYLAYER
  9
$CECOLOR
 62
   256
  9
$DIMSCALE
 40
1.0
  9
$DIMASZ
 40
0.1875
  9
$DIMEXO
 40
0.0625
  9
$DIMDLI
 40
0.4443307087
  9
$DIMRND
 40
0.0
  9
$DIMDLE
 40
0.0
  9
$DIMEXE
 40
0.125
  9
$DIMTP
 40
0.01
  9
$DIMTM
 40
0.01
  9
$DIMTXT
 40
2.0
  9
$DIMCEN
 40
0.1052362205
  9
$DIMTSZ
 40
0.0
  9
$DIMTOL
 70
     1
  9
$DIMLIM
 70
     0
  9
$DIMTIH
 70
     1
  9
$DIMTOH
 70
     1
  9
$DIMSE1
 70
     0
  9
$DIMSE2
 70
     0
  9
$DIMTAD
 70
     0
  9
$DIMZIN
 70
     0
  9
$DIMBLK
  1

  9
$DIMASO
 70
     1
  9
$DIMSHO
 70
     1
  9
$DIMPOST
  1
\X
  9
$DIMAPOST
  1

  9
$DIMALT
 70
     1
  9
$DIMALTD
 70
     2
  9
$DIMALTF
 40
25.3999999999999986
  9
$DIMLFAC
 40
1.0
  9
$DIMTOFL
 70
     0
  9
$DIMTVP
 40
0.0
  9
$DIMTIX
 70
     0
  9
$DIMSOXD
 70
     0
  9
$DIMSAH
 70
     0
  9
$DIMBLK1
  1

  9
$DIMBLK2
  1

  9
$DIMSTYLE
  2
STANDARD
  9
$DIMCLRD
 70
     0
  9
$DIMCLRE
 70
     0
  9
$DIMCLRT
 70
     0
  9
$DIMTFAC
 40
1.0
  9
$DIMGAP
 40
0.09
  9
$LUNITS
 70
     2
  9
$LUPREC
 70
     4
  9
$SKETCHINC
 40
0.1
  9
$FILLETRAD
 40
0.0
  9
$AUNITS
 70
     0
  9
$AUPREC
 70
     0
  9
$MENU
  1
.
  9
$ELEVATION
 40
0.0
  9
$PELEVATION
 40
0.0
  9
$THICKNESS
 40
0.0
  9
$LIMCHECK
 70
     0
  9
$BLIPMODE
 70
     0
  9
$CHAMFERA
 40
0.0
  9
$CHAMFERB
 40
0.0
  9
$SKPOLY
 70
     0
  9
$TDCREATE
 40
2458060.468368056230247
  9
$TDUPDATE
 40
2460059.522465277928859
  9
$TDINDWG
 40
0.5301459491
  9
$TDUSRTIMER
 40
0.5301459491
  9
$USRTIMER
 70
     1
  9
$ANGBASE
 50
0.0
  9
$ANGDIR
 70
     0
  9
$PDMODE
 70
     0
  9
$PDSIZE
 40
0.3125
  9
$PLINEWID
 40
0.0
  9
$COORDS
 70
     1
  9
$SPLFRAME
 70
     0
  9
$SPLINETYPE
 70
     6
  9
$SPLINESEGS
 70
     8
  9
$ATTDIA
 70
     1
  9
$ATTREQ
 70
     1
  9
$HANDLING
 70
     1
  9
$HANDSEED
  5
2227F
  9
$SURFTAB1
 70
     6
  9
$SURFTAB2
 70
     6
  9
$SURFTYPE
 70
     6
  9
$SURFU
 70
     6
  9
$SURFV
 70
     6
  9
$UCSNAME
  2

  9
$UCSORG
 10
0.0
 20
0.0
 30
0.0
  9
$UCSXDIR
 10
1.0
 20
0.0
 30
0.0
  9
$UCSYDIR
 10
0.0
 20
1.0
 30
0.0
  9
$PUCSNAME
  2

  9
$PUCSORG
 10
0.0
 20
0.0
 30
0.0
  9
$PUCSXDIR
 10
1.0
 20
0.0
 30
0.0
  9
$PUCSYDIR
 10
0.0
 20
1.0
 30
0.0
  9
$USERI1
 70
     0
  9
$USERI2
 70
     0
  9
$USERI3
 70
     0
  9
$USERI4
 70
     0
  9
$USERI5
 70
     0
  9
$USERR1
 40
0.0
  9
$USERR2
 40
0.0
  9
$USERR3
 40
0.0
  9
$USERR4
 40
0.0
  9
$USERR5
 40
0.0
  9
$WORLDVIEW
 70
     1
  9
$SHADEDGE
 70
     3
  9
$SHADEDIF
 70
    70
  9
$TILEMODE
 70
     1
  9
$MAXACTVP
 70
    64
  9
$PLIMCHECK
 70
     0
  9
$PEXTMIN
 10
1.0000000000000000E+20
 20
1.0000000000000000E+20
 30
1.0000000000000000E+20
  9
$PEXTMAX
 10
-1.0000000000000000E+20
 20
-1.0000000000000000E+20
 30
-1.0000000000000000E+20
  9
$PLIMMIN
 10
0.0
 20
0.0
  9
$PLIMMAX
 10
12.0
 20
9.0
  9
$UNITMODE
 70
     0
  9
$VISRETAIN
 70
     1
  9
$PLINEGEN
 70
     0
  9
$PSLTSCALE
 70
     1
  0
ENDSEC
  0
SECTION
  2
TABLES
  0
TABLE
  2
VPORT
 70
     1
  0
VPORT
  2
*ACTIVE
 70
     0
 10
0.0
 20
0.0
 11
1.0
 21
1.0
 12
676.7526969258177587
 22
147.5331289248335906
 13
0.0
 23
0.0
 14
1.0
 24
1.0
 15
0.0
 25
0.0
 16
0.0
 26
0.0
 36
60.4960186965801583
 17
3911.3653564453120453
 27
132.5796051025390057
 37
0.0
 40
7.1075849738247312
 41
2.525132275132274
 42
50.0
 43
0.0
 44
0.0
 50
0.0
 51
0.0
 71
     0
 72
   100
 73
     1
 74
     1
 75
     0
 76
     0
 77
     0
 78
     0
  0
ENDTAB
  0
TABLE
  2
LTYPE
 70
     2
  0
LTYPE
  2
CONTINUOUS
 70
     0
  3
Solid line
 72
    65
 73
     0
 40
0.0
  0
LTYPE
  2
PHANTOM2
 70
     0
  3
___ _ _ ___ _ _ ___ _ _ ___ _ _
 72
    65
 73
     6
 40
1.25
 49
0.625
 49
-0.125
 49
0.125
 49
-0.125
 49
0.125
 49
-0.125
  0
ENDTAB
  0
TABLE
  2
LAYER
 70
     2
  0
LAYER
  2
0
 70
     0
 62
   255
  6
CONTINUOUS
  0
LAYER
  2
DEFPOINTS
 70
     0
 62
     7
  6
CONTINUOUS
  0
ENDTAB
  0
TABLE
  2
STYLE
 70
     1
  0
STYLE
  2
STANDARD
 70
     0
 40
0.0
 41
0.8
 50
0.0
 71
     0
 42
0.2
  3
txt
  4

  0
ENDTAB
  0
TABLE
  2
VIEW
 70
     0
  0
ENDTAB
  0
TABLE
  2
UCS
 70
     0
  0
ENDTAB
  0
TABLE
  2
APPID
 70
    11
  0
APPID
  2
ACAD
 70
     0
  0
APPID
  2
ACAD_MLEADERVER
 70
     0
  0
APPID
  2
ACAD_EXEMPT_FROM_CAD_STANDARDS
 70
     0
  0
APPID
  2
ACAD_NAV_VCDISPLAY
 70
     0
  0
APPID
  2
ACAECLAYERSTANDARD
 70
     0
  0
APPID
  2
ACCMTRANSPARENCY
 70
     0
  0
APPID
  2
ACAD_DSTYLE_DIMJAG
 70
     0
  0
APPID
  2
ACAD_DSTYLE_DIMTALN
 70
     0
  0
APPID
  2
ACDBATTR
 70
     0
  0
APPID
  2
ACADANNOTATIVE
 70
     0
  0
APPID
  2
DCO15
 70
     0
  0
ENDTAB
  0
TABLE
  2
DIMSTYLE
 70
     1
  0
DIMSTYLE
  2
STANDARD
 70
     0
  3

  4

  5

  6

  7

 40
1.0
 41
0.1875
 42
0.0625
 43
0.38
 44
0.125
 45
0.0
 46
0.0
 47
0.01
 48
0.01
140
0.15625
141
0.09
142
0.0
143
25.3999999999999986
144
1.0
145
0.0
146
1.0
147
0.09
 71
     1
 72
     0
 73
     1
 74
     1
 75
     0
 76
     0
 77
     0
 78
     4
170
     0
171
     2
172
     0
173
     0
174
     0
175
     0
176
     0
177
     0
178
     0
  0
ENDTAB
  0
ENDSEC
  0
SECTION
  2
BLOCKS
  0
BLOCK
  8
0
  2
$MODEL_SPACE
 70
     0
 10
0.0
 20
0.0
 30
0.0
  3
$MODEL_SPACE
  1

  0
ENDBLK
  5
21
  8
0
  0
BLOCK
 67
     1
  8
0
  2
$PAPER_SPACE
 70
     0
 10
0.0
 20
0.0
 30
0.0
  3
$PAPER_SPACE
  1

  0
ENDBLK
  5
1D
 67
     1
  8
0
  0
BLOCK
  8
0
  2
_FILLED
 70
     0
 10
0.0
 20
0.0
 30
0.0
  3
_FILLED
  1

  0
SOLID
  5
1FEC6
  8
0
  6
BYBLOCK
 62
     0
 10
0.0
 20
0.0
 30
0.0
 11
-1.0
 21
0.1666666667
 31
0.0
 12
-1.0
 22
-0.1666666667
 32
0.0
 13
-1.0
 23
-0.1666666667
 33
0.0
  0
ENDBLK
  5
1FEC7
  8
0
  6
BYBLOCK
 62
     0
  0
ENDSEC
  0
SECTION
  2
ENTITIES
  0
ATTDEF
  5
1FDFB
  8
DEFPOINTS
 10
4588.1672954791865777
 20
282.6336884839878962
 30
0.0
 40
0.001
  1
K-37331A-4ND
  3

  2
MODELNUMBER
 70
     0
1001
ACDBATTR
1070
     0
1070
     1
  0
ATTDEF
  5
1FDFC
  8
DEFPOINTS
 10
4588.1671696695311766
 20
282.6320216436087094
 30
0.0
 40
0.001
  1
STRAYT
  3

  2
TRADENAME
 70
     0
1001
ACDBATTR
1070
     0
1070
     1
  0
ATTDEF
  5
1FDFD
  8
DEFPOINTS
 10
4588.1672954791865777
 20
282.6303551506545091
 30
0.0
 40
0.001
  1
BATHROOM SINK FAUCET
  3

  2
PRODUCT
 70
     0
1001
ACDBATTR
1070
     0
1070
     1
  0
LINE
  5
2217E
  8
0
 10
4587.1924112766782855
 20
281.8475741874813139
 30
0.0
 11
4587.1924112766782855
 21
283.5915781244813161
 31
0.0
  0
LINE
  5
2217F
  8
0
 10
4585.08217505617813
 20
281.7570143449813145
 30
0.0
 11
4585.08217505617813
 21
283.5128379669812944
 31
0.0
  0
LINE
  5
22180
  8
0
 10
4587.3892616703769818
 20
276.6192190693813018
 30
0.0
 11
4587.3892616703769818
 21
283.3947277307813124
 31
0.0
  0
LINE
  5
22181
  8
0
 10
4585.0545750561777822
 20
283.5404379669813011
 30
0.0
 11
4583.4680514340780064
 21
283.5404379669813011
 31
0.0
  0
LINE
  5
22182
  8
0
 10
4585.0545750561777822
 20
281.7294143449813077
 30
0.0
 11
4583.4680514340780064
 21
281.7294143449813077
 31
0.0
  0
ARC
  5
22183
  8
0
 10
4585.0545750561777822
 20
283.5128379669812944
 30
0.0
 40
0.0276
 50
0.0
 51
90.0
  0
ARC
  5
22184
  8
0
 10
4585.0545750561777822
 20
281.7570143449813145
 30
0.0
 40
0.0276
 50
270.0
 51
359.9999999999968168
  0
LINE
  5
22185
  8
0
 10
4581.4459620965762952
 20
283.3451574094813168
 30
0.0
 11
4584.8583272068608494
 21
283.3451574094813168
 31
0.0
  0
LINE
  5
22186
  8
0
 10
4581.4459620965762952
 20
281.9246924241812735
 30
0.0
 11
4584.8603551753931242
 21
281.9246924241812735
 31
0.0
  0
LINE
  5
22187
  8
0
 10
4581.4183620965750379
 20
283.3175574094813101
 30
0.0
 11
4581.4183620965750379
 21
281.9522924241812802
 31
0.0
  0
ARC
  5
22188
  8
0
 10
4581.4459620965762952
 20
283.3175574094813101
 30
0.0
 40
0.0276
 50
90.0
 51
180.0000000000032117
  0
ARC
  5
22189
  8
0
 10
4581.4459620965762952
 20
281.9522924241812802
 30
0.0
 40
0.0276
 50
179.9999999999967031
 51
270.0
  0
ARC
  5
2218A
  8
0
 10
4583.4680514340780064
 20
281.9263143449812787
 30
0.0
 40
0.1969
 50
180.47196682323289
 51
270.0
  0
ARC
  5
2218B
  8
0
 10
4583.4680514340780064
 20
283.3435379669812733
 30
0.0
 40
0.1969
 50
90.0
 51
179.5287543598064985
  0
ARC
  5
2218C
  8
0
 10
4564.0992752808851947
 20
282.6040878552574895
 30
0.0
 40
20.7989089541835703
 50
358.2017859858303268
 51
1.9684285201284439
  0
ARC
  5
2218D
  8
0
 10
4584.8603551753931242
 20
281.9522924241812802
 30
0.0
 40
0.0276
 50
270.0
 51
358.2017859858303268
  0
ARC
  5
2218E
  8
0
 10
4584.8583272068608494
 20
283.3175574094813101
 30
0.0
 40
0.0276
 50
1.9684285201284439
 51
90.0
  0
LINE
  5
2218F
  8
0
 10
4584.8726160905252982
 20
283.3580175926812785
 30
0.0
 11
4583.6256094525879234
 21
283.3580175926812785
 31
0.0
  0
LINE
  5
22190
  8
0
 10
4584.8726160927781166
 20
281.9118347192812735
 30
0.0
 11
4583.6256094525679146
 21
281.9118347192812735
 31
0.0
  0
ARC
  5
22191
  8
0
 10
4565.2136365937631126
 20
282.6349261241456929
 30
0.0
 40
19.698878129215089
 50
357.9738465098736242
 51
2.0261536756963259
  0
ARC
  5
22192
  8
0
 10
4584.8726160927781166
 20
281.9394347192812802
 30
0.0
 40
0.0276
 50
270.0
 51
357.9738465098521942
  0
ARC
  5
22193
  8
0
 10
4584.8726160905252982
 20
283.3304175926812718
 30
0.0
 40
0.0276
 50
2.026153675683307
 51
90.0
  0
ARC
  5
22194
  8
0
 10
4583.6256141929152363
 20
283.1808243052104217
 30
0.0
 40
0.1771932875343228
 50
90.0015327969611434
 51
111.9634164589016052
  0
ARC
  5
22195
  8
0
 10
4583.6256141822168502
 20
282.0890279458413943
 30
0.0
 40
0.1771932266231966
 50
248.0387224175867971
 51
269.9984706644073071
  0
LINE
  5
22196
  8
0
 10
4587.2200112766768143
 20
283.6191781244813228
 30
0.0
 11
4589.133315213577589
 21
283.6191781244813228
 31
0.0
  0
LINE
  5
22197
  8
0
 10
4587.4168616703782391
 20
276.591619069381295
 30
0.0
 11
4588.9364648198779832
 21
276.591619069381295
 31
0.0
  0
ARC
  5
22198
  8
0
 10
4587.4168616703782391
 20
276.6192190693813018
 30
0.0
 40
0.0276
 50
180.0
 51
270.0
  0
ARC
  5
22199
  8
0
 10
4587.2200112766768143
 20
283.5915781244813161
 30
0.0
 40
0.0276
 50
90.0
 51
180.0000000000065086
  0
LINE
  5
2219A
  8
0
 10
4587.4168616703782391
 20
283.4223277307813191
 30
0.0
 11
4588.9364648198779832
 21
283.4223277307813191
 31
0.0
  0
ARC
  5
2219B
  8
0
 10
4587.4168616703782391
 20
283.3947277307813124
 30
0.0
 40
0.0276
 50
90.0
 51
180.0000000000032117
  0
ARC
  5
2219C
  8
0
 10
4587.3893112766781996
 20
281.8475741874813139
 30
0.0
 40
0.1969
 50
180.0
 51
269.9855651007649726
  0
LINE
  5
2219D
  8
0
 10
4589.1609152135779368
 20
281.8475741874813139
 30
0.0
 11
4589.1609152135779368
 21
283.5915781244813161
 31
0.0
  0
LINE
  5
2219E
  8
0
 10
4591.2711514340780923
 20
281.7570143449813145
 30
0.0
 11
4591.2711514340780923
 21
283.5128379669812944
 31
0.0
  0
LINE
  5
2219F
  8
0
 10
4588.9640648198792405
 20
276.6192190693813018
 30
0.0
 11
4588.9640648198792405
 21
283.3947277307813124
 31
0.0
  0
LINE
  5
221A0
  8
0
 10
4591.2987514340766211
 20
283.5404379669813011
 30
0.0
 11
4592.8852750561782159
 21
283.5404379669813011
 31
0.0
  0
LINE
  5
221A1
  8
0
 10
4591.2987514340766211
 20
281.7294143449813077
 30
0.0
 11
4592.8852750561782159
 21
281.7294143449813077
 31
0.0
  0
ARC
  5
221A2
  8
0
 10
4591.2987514340766211
 20
283.5128379669812944
 30
0.0
 40
0.0276
 50
90.0
 51
180.0
  0
ARC
  5
221A3
  8
0
 10
4591.2987514340766211
 20
281.7570143449813145
 30
0.0
 40
0.0276
 50
180.0000000000032117
 51
270.0
  0
LINE
  5
221A4
  8
0
 10
4594.9073643936799272
 20
283.3451574094813168
 30
0.0
 11
4591.4949992833953729
 21
283.3451574094813168
 31
0.0
  0
LINE
  5
221A5
  8
0
 10
4594.9073643936799272
 20
281.9246924241812735
 30
0.0
 11
4591.4929713148621886
 21
281.9246924241812735
 31
0.0
  0
LINE
  5
221A6
  8
0
 10
4594.934964393680275
 20
283.3175574094813101
 30
0.0
 11
4594.934964393680275
 21
281.9522924241812802
 31
0.0
  0
ARC
  5
221A7
  8
0
 10
4594.9073643936799272
 20
283.3175574094813101
 30
0.0
 40
0.0276
 50
359.9999999999968168
 51
90.0
  0
ARC
  5
221A8
  8
0
 10
4594.9073643936799272
 20
281.9522924241812802
 30
0.0
 40
0.0276
 50
270.0
 51
0.0000000000032569
  0
ARC
  5
221A9
  8
0
 10
4592.8852750561782159
 20
281.9263143449812787
 30
0.0
 40
0.1969
 50
270.0
 51
359.5280331767669963
  0
ARC
  5
221AA
  8
0
 10
4592.8852750561782159
 20
283.3435379669812733
 30
0.0
 40
0.1969
 50
0.4712456401934903
 51
90.0
  0
ARC
  5
221AB
  8
0
 10
4612.2540512093701182
 20
282.6040878552574895
 30
0.0
 40
20.7989089541835703
 50
178.0315714798715021
 51
181.7982140141697016
  0
ARC
  5
221AC
  8
0
 10
4591.4929713148621886
 20
281.9522924241812802
 30
0.0
 40
0.0276
 50
181.7982140141697016
 51
270.0
  0
ARC
  5
221AD
  8
0
 10
4591.4949992833953729
 20
283.3175574094813101
 30
0.0
 40
0.0276
 50
90.0
 51
178.0315714798715021
  0
LINE
  5
221AE
  8
0
 10
4591.4807103997291051
 20
283.3580175926812785
 30
0.0
 11
4592.7277170376682989
 21
283.3580175926812785
 31
0.0
  0
LINE
  5
221AF
  8
0
 10
4591.4807103974781057
 20
281.9118347192812735
 30
0.0
 11
4592.7277170376873983
 21
281.9118347192812735
 31
0.0
  0
ARC
  5
221B0
  8
0
 10
4611.1396898964931097
 20
282.6349261241456929
 30
0.0
 40
19.698878129215089
 50
177.9738463243037074
 51
182.0261534901264042
  0
ARC
  5
221B1
  8
0
 10
4591.4807103974781057
 20
281.9394347192812802
 30
0.0
 40
0.0276
 50
182.0261534901478058
 51
270.0
  0
ARC
  5
221B2
  8
0
 10
4591.4807103997291051
 20
283.3304175926812718
 30
0.0
 40
0.0276
 50
90.0
 51
177.9738463243166962
  0
ARC
  5
221B3
  8
0
 10
4592.7277122973400765
 20
283.1808243052104217
 30
0.0
 40
0.1771932875343228
 50
68.0365835410983948
 51
89.9984672030388708
  0
ARC
  5
221B4
  8
0
 10
4592.7277123080393721
 20
282.0890279458413943
 30
0.0
 40
0.1771932266231966
 50
270.0015293355926929
 51
291.9612775824131745
  0
ARC
  5
221B5
  8
0
 10
4588.9364648198779832
 20
276.6192190693813018
 30
0.0
 40
0.0276
 50
270.0
 51
0.0
  0
ARC
  5
221B6
  8
0
 10
4589.133315213577589
 20
283.5915781244813161
 30
0.0
 40
0.0276
 50
359.9999999999935199
 51
90.0
  0
ARC
  5
221B7
  8
0
 10
4588.9364648198779832
 20
283.3947277307813124
 30
0.0
 40
0.0276
 50
359.9999999999968168
 51
90.0
  0
ARC
  5
221B8
  8
0
 10
4588.9640152135780227
 20
281.8475741874813139
 30
0.0
 40
0.1969
 50
270.0144348992350274
 51
0.0
  0
ENDSEC
  0
EOF
