  0
SECTION
  2
HEADER
  9
$ACADVER
  1
AC1009
  9
$INSBASE
 10
568.7723625347662164
 20
109.2662250361727985
 30
0.0
  9
$EXTMIN
 10
561.9908329643245679
 20
109.2570584714316055
 30
-0.0000000000112498
  9
$EXTMAX
 10
575.5372965798326277
 20
114.7045443324021932
 30
0.0000000000002956
  9
$LIMMIN
 10
0.0
 20
0.0
  9
$LIMMAX
 10
11.6929133858000007
 20
8.2677165353999982
  9
$ORTHOMODE
 70
     0
  9
$REGENMODE
 70
     1
  9
$FILLMODE
 70
     1
  9
$QTEXTMODE
 70
     0
  9
$MIRRTEXT
 70
     0
  9
$DRAGMODE
 70
     2
  9
$LTSCALE
 40
0.6431102362
  9
$OSMODE
 70
  4095
  9
$ATTMODE
 70
     1
  9
$TEXTSIZE
 40
0.2
  9
$TRACEWID
 40
0.05
  9
$TEXTSTYLE
  7
STANDARD
  9
$CLAYER
  8
0
  9
$CELTYPE
  6
BYLAYER
  9
$CECOLOR
 62
   256
  9
$DIMSCALE
 40
1.0
  9
$DIMASZ
 40
0.1875
  9
$DIMEXO
 40
0.0625
  9
$DIMDLI
 40
0.4443307087
  9
$DIMRND
 40
0.0
  9
$DIMDLE
 40
0.0
  9
$DIMEXE
 40
0.125
  9
$DIMTP
 40
0.01
  9
$DIMTM
 40
0.01
  9
$DIMTXT
 40
1.0
  9
$DIMCEN
 40
0.1052362205
  9
$DIMTSZ
 40
0.0
  9
$DIMTOL
 70
     1
  9
$DIMLIM
 70
     0
  9
$DIMTIH
 70
     0
  9
$DIMTOH
 70
     1
  9
$DIMSE1
 70
     0
  9
$DIMSE2
 70
     0
  9
$DIMTAD
 70
     0
  9
$DIMZIN
 70
     0
  9
$DIMBLK
  1

  9
$DIMASO
 70
     1
  9
$DIMSHO
 70
     1
  9
$DIMPOST
  1
\X
  9
$DIMAPOST
  1

  9
$DIMALT
 70
     1
  9
$DIMALTD
 70
     2
  9
$DIMALTF
 40
25.3999999999999986
  9
$DIMLFAC
 40
1.0
  9
$DIMTOFL
 70
     0
  9
$DIMTVP
 40
0.0
  9
$DIMTIX
 70
     0
  9
$DIMSOXD
 70
     0
  9
$DIMSAH
 70
     0
  9
$DIMBLK1
  1

  9
$DIMBLK2
  1

  9
$DIMSTYLE
  2
STANDARD
  9
$DIMCLRD
 70
     0
  9
$DIMCLRE
 70
     0
  9
$DIMCLRT
 70
     0
  9
$DIMTFAC
 40
1.0
  9
$DIMGAP
 40
0.09
  9
$LUNITS
 70
     2
  9
$LUPREC
 70
     4
  9
$SKETCHINC
 40
0.1
  9
$FILLETRAD
 40
0.0
  9
$AUNITS
 70
     0
  9
$AUPREC
 70
     0
  9
$MENU
  1
.
  9
$ELEVATION
 40
0.0
  9
$PELEVATION
 40
0.0
  9
$THICKNESS
 40
0.0
  9
$LIMCHECK
 70
     0
  9
$BLIPMODE
 70
     0
  9
$CHAMFERA
 40
0.0
  9
$CHAMFERB
 40
0.0
  9
$SKPOLY
 70
     0
  9
$TDCREATE
 40
2458172.5207638889551163
  9
$TDUPDATE
 40
2459092.4921643519774079
  9
$TDINDWG
 40
0.3474775694
  9
$TDUSRTIMER
 40
0.3474775694
  9
$USRTIMER
 70
     1
  9
$ANGBASE
 50
0.0
  9
$ANGDIR
 70
     0
  9
$PDMODE
 70
     0
  9
$PDSIZE
 40
0.3125
  9
$PLINEWID
 40
0.0
  9
$COORDS
 70
     1
  9
$SPLFRAME
 70
     0
  9
$SPLINETYPE
 70
     6
  9
$SPLINESEGS
 70
     8
  9
$ATTDIA
 70
     1
  9
$ATTREQ
 70
     1
  9
$HANDLING
 70
     1
  9
$HANDSEED
  5
94E8
  9
$SURFTAB1
 70
     6
  9
$SURFTAB2
 70
     6
  9
$SURFTYPE
 70
     6
  9
$SURFU
 70
     6
  9
$SURFV
 70
     6
  9
$UCSNAME
  2

  9
$UCSORG
 10
0.0
 20
0.0
 30
0.0
  9
$UCSXDIR
 10
1.0
 20
0.0
 30
0.0
  9
$UCSYDIR
 10
0.0
 20
1.0
 30
0.0
  9
$PUCSNAME
  2

  9
$PUCSORG
 10
0.0
 20
0.0
 30
0.0
  9
$PUCSXDIR
 10
1.0
 20
0.0
 30
0.0
  9
$PUCSYDIR
 10
0.0
 20
1.0
 30
0.0
  9
$USERI1
 70
     0
  9
$USERI2
 70
     0
  9
$USERI3
 70
     0
  9
$USERI4
 70
     0
  9
$USERI5
 70
     0
  9
$USERR1
 40
0.0
  9
$USERR2
 40
0.0
  9
$USERR3
 40
0.0
  9
$USERR4
 40
0.0
  9
$USERR5
 40
0.0
  9
$WORLDVIEW
 70
     1
  9
$SHADEDGE
 70
     3
  9
$SHADEDIF
 70
    70
  9
$TILEMODE
 70
     1
  9
$MAXACTVP
 70
    64
  9
$PLIMCHECK
 70
     0
  9
$PEXTMIN
 10
1.0000000000000000E+20
 20
1.0000000000000000E+20
 30
1.0000000000000000E+20
  9
$PEXTMAX
 10
-1.0000000000000000E+20
 20
-1.0000000000000000E+20
 30
-1.0000000000000000E+20
  9
$PLIMMIN
 10
0.0
 20
0.0
  9
$PLIMMAX
 10
12.0
 20
9.0
  9
$UNITMODE
 70
     0
  9
$VISRETAIN
 70
     1
  9
$PLINEGEN
 70
     0
  9
$PSLTSCALE
 70
     1
  0
ENDSEC
  0
SECTION
  2
TABLES
  0
TABLE
  2
VPORT
 70
     1
  0
VPORT
  2
*ACTIVE
 70
     0
 10
0.0
 20
0.0
 11
1.0
 21
1.0
 12
102.0218630642486062
 22
22.8476542819871611
 13
0.0
 23
0.0
 14
1.0
 24
1.0
 15
0.0
 25
0.0
 16
0.0
 26
0.0
 36
24.1179433675886514
 17
466.74220170783002
 27
89.133147119929788
 37
0.0
 40
5.5118262451552624
 41
2.6528599605522678
 42
50.0
 43
0.0
 44
0.0
 50
0.0
 51
0.0
 71
     0
 72
   100
 73
     1
 74
     1
 75
     0
 76
     0
 77
     0
 78
     0
  0
ENDTAB
  0
TABLE
  2
LTYPE
 70
     2
  0
LTYPE
  2
CONTINUOUS
 70
     0
  3
Solid line
 72
    65
 73
     0
 40
0.0
  0
LTYPE
  2
PHANTOM2
 70
     0
  3
___ _ _ ___ _ _ ___ _ _ ___ _ _
 72
    65
 73
     6
 40
1.25
 49
0.625
 49
-0.125
 49
0.125
 49
-0.125
 49
0.125
 49
-0.125
  0
ENDTAB
  0
TABLE
  2
LAYER
 70
     2
  0
LAYER
  2
0
 70
     0
 62
   255
  6
CONTINUOUS
  0
LAYER
  2
DEFPOINTS
 70
     0
 62
     7
  6
CONTINUOUS
  0
ENDTAB
  0
TABLE
  2
STYLE
 70
     1
  0
STYLE
  2
STANDARD
 70
     0
 40
0.0
 41
0.8
 50
0.0
 71
     0
 42
0.2
  3
txt
  4

  0
ENDTAB
  0
TABLE
  2
VIEW
 70
     0
  0
ENDTAB
  0
TABLE
  2
UCS
 70
     0
  0
ENDTAB
  0
TABLE
  2
APPID
 70
    11
  0
APPID
  2
ACAD
 70
     0
  0
APPID
  2
ACAD_MLEADERVER
 70
     0
  0
APPID
  2
ACAD_EXEMPT_FROM_CAD_STANDARDS
 70
     0
  0
APPID
  2
ACAD_DSTYLE_DIMJAG
 70
     0
  0
APPID
  2
ACAD_DSTYLE_DIMTALN
 70
     0
  0
APPID
  2
ACAD_NAV_VCDISPLAY
 70
     0
  0
APPID
  2
ACAECLAYERSTANDARD
 70
     0
  0
APPID
  2
ACCMTRANSPARENCY
 70
     0
  0
APPID
  2
DCO15
 70
     0
  0
APPID
  2
ACDBATTR
 70
     0
  0
APPID
  2
ACADANNOTATIVE
 70
     0
  0
ENDTAB
  0
TABLE
  2
DIMSTYLE
 70
     1
  0
DIMSTYLE
  2
STANDARD
 70
     0
  3

  4

  5

  6

  7

 40
1.0
 41
0.1875
 42
0.0625
 43
0.38
 44
0.125
 45
0.0
 46
0.0
 47
0.01
 48
0.01
140
0.15625
141
0.09
142
0.0
143
25.3999999999999986
144
1.0
145
0.0
146
1.0
147
0.09
 71
     1
 72
     0
 73
     1
 74
     1
 75
     0
 76
     0
 77
     0
 78
     4
170
     0
171
     2
172
     0
173
     0
174
     0
175
     0
176
     0
177
     0
178
     0
  0
ENDTAB
  0
ENDSEC
  0
SECTION
  2
BLOCKS
  0
BLOCK
  8
0
  2
$MODEL_SPACE
 70
     0
 10
0.0
 20
0.0
 30
0.0
  3
$MODEL_SPACE
  1

  0
ENDBLK
  5
21
  8
0
  0
BLOCK
 67
     1
  8
0
  2
$PAPER_SPACE
 70
     0
 10
0.0
 20
0.0
 30
0.0
  3
$PAPER_SPACE
  1

  0
ENDBLK
  5
1D
 67
     1
  8
0
  0
ENDSEC
  0
SECTION
  2
ENTITIES
  0
ATTDEF
  5
829
  8
DEFPOINTS
 10
568.7659224363740122
 20
109.2632442565077042
 30
0.0
 40
0.001
  1
K-37331T-4
  3

  2
MODELNUMBER
 70
     0
1001
ACDBATTR
1070
     0
1070
     1
  0
ATTDEF
  5
82A
  8
DEFPOINTS
 10
568.7659224363740122
 20
109.2615775898409964
 30
0.0
 40
0.001
  1
STRAYT
  3

  2
TRADENAME
 70
     0
1001
ACDBATTR
1070
     0
1070
     1
  0
ATTDEF
  5
82B
  8
DEFPOINTS
 10
568.7659224363740122
 20
109.2599109231743029
 30
0.0
 40
0.001
  1
BATHROOM SINK FAUCET
  3

  2
PRODUCT
 70
     0
1001
ACDBATTR
1070
     0
1070
     1
  0
LINE
  5
93E2
  8
0
 10
567.7881105662662549
 20
109.2662250361727985
 30
0.0
 11
569.7566145032660643
 21
109.2662250361727985
 31
0.0
  0
LINE
  5
93E3
  8
0
 10
571.8668507237662197
 20
109.2662250361727985
 30
0.0
 11
573.6778743457660994
 21
109.2662250361727985
 31
0.0
  0
LINE
  5
93E4
  8
0
 10
567.8157105662661479
 20
109.3843352723728941
 30
0.0
 11
569.7290145032661712
 21
109.3843352723728941
 31
0.0
  0
ARC
  5
93E5
  8
0
 10
567.8157105662661479
 20
109.3567352723729016
 30
0.0
 40
0.0276
 50
90.0
 51
180.0
  0
LINE
  5
93E6
  8
0
 10
571.8944507237662265
 20
109.3843352723728941
 30
0.0
 11
573.6502743457662064
 21
109.3843352723728941
 31
0.0
  0
ARC
  5
93E7
  8
0
 10
571.8944507237662265
 20
109.3567352723729016
 30
0.0
 40
0.0276
 50
90.0
 51
180.0
  0
LINE
  5
93E8
  8
0
 10
573.412126314366219
 20
109.4237053511727993
 30
0.0
 11
572.1325987552661445
 21
109.4237053511727993
 31
0.0
  0
LINE
  5
93E9
  8
0
 10
572.0365110569662193
 20
109.4433903905728016
 30
0.0
 11
573.5082140125662136
 21
109.4433903905728016
 31
0.0
  0
LINE
  5
93EA
  8
0
 10
567.7881105662662549
 20
109.2662250361727985
 30
0.0
 11
567.7881105662662549
 21
109.3567352723729016
 31
0.0
  0
LINE
  5
93EB
  8
0
 10
568.6971530395662739
 20
113.761091249404501
 30
0.0
 11
568.7023625347661664
 21
113.7687379919022987
 31
0.0
  0
LINE
  5
93EC
  8
0
 10
567.9849609599662017
 20
109.3843352723728941
 30
0.0
 11
567.9849609599662017
 21
114.5023959023727969
 31
0.0
  0
ARC
  5
93ED
  8
0
 10
568.1818609599662295
 20
114.5023959023727969
 30
0.0
 40
0.1969
 50
90.0
 51
180.0
  0
LINE
  5
93EE
  8
0
 10
568.6971530395662739
 20
113.7740990519728967
 30
0.0
 11
568.6971530395662739
 21
113.761091249404501
 31
0.0
  0
LINE
  5
93EF
  8
0
 10
568.7023625347661664
 20
113.7687379919022987
 30
0.0
 11
568.7023625347661664
 21
113.7740990519728967
 31
0.0
  0
LINE
  5
93F0
  8
0
 10
573.8712826771874234
 20
111.714094916372801
 30
0.0
 11
575.5030250873475097
 21
111.714094916372801
 31
0.0
  0
ARC
  5
93F1
  8
0
 10
573.8712826771874234
 20
111.3410949163727963
 30
0.0
 40
0.373
 50
90.0
 51
180.2999999992267135
  0
LINE
  5
93F2
  8
0
 10
568.8423625347661527
 20
113.7740990519728967
 30
0.0
 11
568.8423625347661527
 21
113.7687379919022987
 31
0.0
  0
LINE
  5
93F3
  8
0
 10
568.8475720299661589
 20
113.761091249404501
 30
0.0
 11
568.8475720299661589
 21
113.7740990519728967
 31
0.0
  0
LINE
  5
93F4
  8
0
 10
572.0784637521874174
 20
112.2120559434728051
 30
0.0
 11
575.5030250873475097
 21
112.2120559434728051
 31
0.0
  0
ARC
  5
93F5
  8
0
 10
572.0784637521874174
 20
112.1844559434728978
 30
0.0
 40
0.0276
 50
90.0
 51
179.6999999989656089
  0
LINE
  5
93F6
  8
0
 10
569.5597641095662311
 20
109.3843352723728941
 30
0.0
 11
569.5597641095662311
 21
114.5023959023727969
 31
0.0
  0
ARC
  5
93F7
  8
0
 10
569.3628641095662033
 20
114.5023959023727969
 30
0.0
 40
0.1969
 50
0.0
 51
90.0
  0
LINE
  5
93F8
  8
0
 10
569.7566145032660643
 20
109.3567352723729016
 30
0.0
 11
569.7566145032660643
 21
109.2662250361727985
 31
0.0
  0
ARC
  5
93F9
  8
0
 10
569.7290145032661712
 20
109.3567352723729016
 30
0.0
 40
0.0276
 50
0.0
 51
90.0
  0
LINE
  5
93FA
  8
0
 10
573.3924412749662451
 20
109.4433903905728016
 30
0.0
 11
573.412126314366219
 21
109.4237053511727993
 31
0.0
  0
LINE
  5
93FB
  8
0
 10
568.8423625347661527
 20
113.7687379919022987
 30
0.0
 11
568.8475720299661589
 21
113.761091249404501
 31
0.0
  0
LINE
  5
93FC
  8
0
 10
569.3629137158660569
 20
113.7740990519728967
 30
0.0
 11
568.1818113536661485
 21
113.7740990519728967
 31
0.0
  0
LINE
  5
93FD
  8
0
 10
568.1818609599662295
 20
114.6992959023728957
 30
0.0
 11
569.3628641095662033
 21
114.6992959023728957
 31
0.0
  0
LINE
  5
93FE
  8
0
 10
571.8668507237662197
 20
109.2662250361727985
 30
0.0
 11
571.8668507237662197
 21
109.3567352723729016
 31
0.0
  0
LINE
  5
93FF
  8
0
 10
572.1325987552661445
 20
109.4237053511727993
 30
0.0
 11
572.1325987552661445
 21
109.3843352723728941
 31
0.0
  0
LINE
  5
9400
  8
0
 10
572.0508641305212905
 20
112.1846004560751027
 30
0.0
 11
572.0365110569662193
 21
109.4433903905728016
 31
0.0
  0
LINE
  5
9401
  8
0
 10
572.1522837946662321
 20
109.4433903905728016
 30
0.0
 11
572.1325987552661445
 21
109.4237053511727993
 31
0.0
  0
LINE
  5
9402
  8
0
 10
573.4982877901791198
 20
111.3391419018687998
 30
0.0
 11
573.5082140125662136
 21
109.4433903905728016
 31
0.0
  0
LINE
  5
9403
  8
0
 10
573.412126314366219
 20
109.4237053511727993
 30
0.0
 11
573.412126314366219
 21
109.3843352723728941
 31
0.0
  0
LINE
  5
9404
  8
0
 10
573.6778743457660994
 20
109.3567352723729016
 30
0.0
 11
573.6778743457660994
 21
109.2662250361727985
 31
0.0
  0
ARC
  5
9405
  8
0
 10
573.6502743457662064
 20
109.3567352723729016
 30
0.0
 40
0.0276
 50
0.0
 51
90.0
  0
ARC
  5
9406
  8
0
 10
568.7723625347662164
 20
115.3824053041821998
 30
0.0
 40
1.6230575259022639
 50
267.3440680878065905
 51
272.6559319121934095
  0
ARC
  5
9407
  8
0
 10
568.7723625347662164
 20
115.2741857278728048
 30
0.0
 40
1.507074280099999
 50
267.3377900987305225
 51
272.6622099012694775
  0
ARC
  5
9408
  8
0
 10
568.1818113536661485
 20
113.9709494456728009
 30
0.0
 40
0.1968503937
 50
180.0
 51
270.0000000050025051
  0
ARC
  5
9409
  8
0
 10
569.3629137158660569
 20
113.9709494456728009
 30
0.0
 40
0.1968503937
 50
269.999999990099127
 51
0.0
  0
LINE
  5
940A
  8
0
 10
575.5306250873474028
 20
111.741694916372893
 30
0.0
 11
575.5306250873474028
 21
112.1844559434728978
 31
0.0
  0
ARC
  5
940B
  8
0
 10
575.5030250873475097
 20
111.741694916372893
 30
0.0
 40
0.0276
 50
270.0
 51
0.0
  0
ARC
  5
940C
  8
0
 10
575.5030250873475097
 20
112.1844559434728978
 30
0.0
 40
0.0276
 50
0.0
 51
90.0
  0
LINE
  5
940D
  8
0
 10
565.6778743457662131
 20
109.2662250361727985
 30
0.0
 11
563.8668507237662197
 21
109.2662250361727985
 31
0.0
  0
LINE
  5
940E
  8
0
 10
565.6502743457662064
 20
109.3843352723728941
 30
0.0
 11
563.8944507237662265
 21
109.3843352723728941
 31
0.0
  0
ARC
  5
940F
  8
0
 10
565.6502743457662064
 20
109.3567352723729016
 30
0.0
 40
0.0276
 50
0.0
 51
90.0
  0
LINE
  5
9410
  8
0
 10
564.1325987551661001
 20
109.4237053511727993
 30
0.0
 11
565.4121263142661746
 21
109.4237053511727993
 31
0.0
  0
LINE
  5
9411
  8
0
 10
565.5082140125662136
 20
109.4433903905728016
 30
0.0
 11
564.0365110569661056
 21
109.4433903905728016
 31
0.0
  0
LINE
  5
9412
  8
0
 10
563.6734423923448958
 20
111.714094916372801
 30
0.0
 11
562.0416999821848094
 21
111.714094916372801
 31
0.0
  0
ARC
  5
9413
  8
0
 10
563.6734423923448958
 20
111.3410949163727963
 30
0.0
 40
0.373
 50
359.7000000007732865
 51
90.0
  0
LINE
  5
9414
  8
0
 10
565.4662613173449017
 20
112.2120559434728051
 30
0.0
 11
562.0416999821848094
 21
112.2120559434728051
 31
0.0
  0
ARC
  5
9415
  8
0
 10
565.4662613173449017
 20
112.1844559434728978
 30
0.0
 40
0.0276
 50
0.3000000010343621
 51
90.0
  0
LINE
  5
9416
  8
0
 10
564.1522837945661877
 20
109.4433903905728016
 30
0.0
 11
564.1325987551661001
 21
109.4237053511727993
 31
0.0
  0
LINE
  5
9417
  8
0
 10
565.6778743457662131
 20
109.2662250361727985
 30
0.0
 11
565.6778743457662131
 21
109.3567352723729016
 31
0.0
  0
LINE
  5
9418
  8
0
 10
565.4121263142661746
 20
109.4237053511727993
 30
0.0
 11
565.4121263142661746
 21
109.3843352723728941
 31
0.0
  0
LINE
  5
9419
  8
0
 10
565.4938609390110287
 20
112.1846004560751027
 30
0.0
 11
565.5082140125662136
 21
109.4433903905728016
 31
0.0
  0
LINE
  5
941A
  8
0
 10
565.392441274866087
 20
109.4433903905728016
 30
0.0
 11
565.4121263142661746
 21
109.4237053511727993
 31
0.0
  0
LINE
  5
941B
  8
0
 10
564.046437279353313
 20
111.3391419018687998
 30
0.0
 11
564.0365110569661056
 21
109.4433903905728016
 31
0.0
  0
LINE
  5
941C
  8
0
 10
564.1325987551661001
 20
109.4237053511727993
 30
0.0
 11
564.1325987551661001
 21
109.3843352723728941
 31
0.0
  0
LINE
  5
941D
  8
0
 10
563.8668507237662197
 20
109.3567352723729016
 30
0.0
 11
563.8668507237662197
 21
109.2662250361727985
 31
0.0
  0
ARC
  5
941E
  8
0
 10
563.8944507237662265
 20
109.3567352723729016
 30
0.0
 40
0.0276
 50
90.0
 51
180.0
  0
LINE
  5
941F
  8
0
 10
562.0140999821849164
 20
111.741694916372893
 30
0.0
 11
562.0140999821849164
 21
112.1844559434728978
 31
0.0
  0
ARC
  5
9420
  8
0
 10
562.0416999821848094
 20
111.741694916372893
 30
0.0
 40
0.0276
 50
180.0
 51
270.0
  0
ARC
  5
9421
  8
0
 10
562.0416999821848094
 20
112.1844559434728978
 30
0.0
 40
0.0276
 50
90.0
 51
180.0
  0
ENDSEC
  0
EOF
