  0
SECTION
  2
HEADER
  9
$ACADVER
  1
AC1009
  9
$INSBASE
 10
3359.7403927439090694
 20
188.6652219365782059
 30
0.0
  9
$EXTMIN
 10
3354.9583874242489401
 20
184.0195408341780876
 30
0.0
  9
$EXTMAX
 10
3362.0892977707931095
 20
191.3682458852771049
 30
0.0
  9
$LIMMIN
 10
0.0
 20
0.0
  9
$LIMMAX
 10
11.6929133858000007
 20
8.2677165353999982
  9
$ORTHOMODE
 70
     0
  9
$REGENMODE
 70
     1
  9
$FILLMODE
 70
     1
  9
$QTEXTMODE
 70
     0
  9
$MIRRTEXT
 70
     0
  9
$DRAGMODE
 70
     2
  9
$LTSCALE
 40
0.6431102362
  9
$OSMODE
 70
  4095
  9
$ATTMODE
 70
     1
  9
$TEXTSIZE
 40
0.2
  9
$TRACEWID
 40
0.05
  9
$TEXTSTYLE
  7
STANDARD
  9
$CLAYER
  8
0
  9
$CELTYPE
  6
BYLAYER
  9
$CECOLOR
 62
   256
  9
$DIMSCALE
 40
1.0
  9
$DIMASZ
 40
0.1875
  9
$DIMEXO
 40
0.0625
  9
$DIMDLI
 40
0.4443307087
  9
$DIMRND
 40
0.0
  9
$DIMDLE
 40
0.0
  9
$DIMEXE
 40
0.125
  9
$DIMTP
 40
0.01
  9
$DIMTM
 40
0.01
  9
$DIMTXT
 40
2.0
  9
$DIMCEN
 40
0.1052362205
  9
$DIMTSZ
 40
0.0
  9
$DIMTOL
 70
     1
  9
$DIMLIM
 70
     0
  9
$DIMTIH
 70
     1
  9
$DIMTOH
 70
     1
  9
$DIMSE1
 70
     0
  9
$DIMSE2
 70
     0
  9
$DIMTAD
 70
     0
  9
$DIMZIN
 70
     0
  9
$DIMBLK
  1

  9
$DIMASO
 70
     1
  9
$DIMSHO
 70
     1
  9
$DIMPOST
  1
\X
  9
$DIMAPOST
  1

  9
$DIMALT
 70
     1
  9
$DIMALTD
 70
     2
  9
$DIMALTF
 40
25.3999999999999986
  9
$DIMLFAC
 40
1.0
  9
$DIMTOFL
 70
     0
  9
$DIMTVP
 40
0.0
  9
$DIMTIX
 70
     0
  9
$DIMSOXD
 70
     0
  9
$DIMSAH
 70
     0
  9
$DIMBLK1
  1

  9
$DIMBLK2
  1

  9
$DIMSTYLE
  2
STANDARD
  9
$DIMCLRD
 70
     0
  9
$DIMCLRE
 70
     0
  9
$DIMCLRT
 70
     0
  9
$DIMTFAC
 40
1.0
  9
$DIMGAP
 40
0.09
  9
$LUNITS
 70
     2
  9
$LUPREC
 70
     4
  9
$SKETCHINC
 40
0.1
  9
$FILLETRAD
 40
0.0
  9
$AUNITS
 70
     0
  9
$AUPREC
 70
     0
  9
$MENU
  1
.
  9
$ELEVATION
 40
0.0
  9
$PELEVATION
 40
0.0
  9
$THICKNESS
 40
0.0
  9
$LIMCHECK
 70
     0
  9
$BLIPMODE
 70
     0
  9
$CHAMFERA
 40
0.0
  9
$CHAMFERB
 40
0.0
  9
$SKPOLY
 70
     0
  9
$TDCREATE
 40
2458060.468368056230247
  9
$TDUPDATE
 40
2459423.7705902778543532
  9
$TDINDWG
 40
0.4411065972
  9
$TDUSRTIMER
 40
0.4411065972
  9
$USRTIMER
 70
     1
  9
$ANGBASE
 50
0.0
  9
$ANGDIR
 70
     0
  9
$PDMODE
 70
     0
  9
$PDSIZE
 40
0.3125
  9
$PLINEWID
 40
0.0
  9
$COORDS
 70
     1
  9
$SPLFRAME
 70
     0
  9
$SPLINETYPE
 70
     6
  9
$SPLINESEGS
 70
     8
  9
$ATTDIA
 70
     1
  9
$ATTREQ
 70
     1
  9
$HANDLING
 70
     1
  9
$HANDSEED
  5
8EC6
  9
$SURFTAB1
 70
     6
  9
$SURFTAB2
 70
     6
  9
$SURFTYPE
 70
     6
  9
$SURFU
 70
     6
  9
$SURFV
 70
     6
  9
$UCSNAME
  2

  9
$UCSORG
 10
0.0
 20
0.0
 30
0.0
  9
$UCSXDIR
 10
1.0
 20
0.0
 30
0.0
  9
$UCSYDIR
 10
0.0
 20
1.0
 30
0.0
  9
$PUCSNAME
  2

  9
$PUCSORG
 10
0.0
 20
0.0
 30
0.0
  9
$PUCSXDIR
 10
1.0
 20
0.0
 30
0.0
  9
$PUCSYDIR
 10
0.0
 20
1.0
 30
0.0
  9
$USERI1
 70
     0
  9
$USERI2
 70
     0
  9
$USERI3
 70
     0
  9
$USERI4
 70
     0
  9
$USERI5
 70
     0
  9
$USERR1
 40
0.0
  9
$USERR2
 40
0.0
  9
$USERR3
 40
0.0
  9
$USERR4
 40
0.0
  9
$USERR5
 40
0.0
  9
$WORLDVIEW
 70
     1
  9
$SHADEDGE
 70
     3
  9
$SHADEDIF
 70
    70
  9
$TILEMODE
 70
     1
  9
$MAXACTVP
 70
    64
  9
$PLIMCHECK
 70
     0
  9
$PEXTMIN
 10
1.0000000000000000E+20
 20
1.0000000000000000E+20
 30
1.0000000000000000E+20
  9
$PEXTMAX
 10
-1.0000000000000000E+20
 20
-1.0000000000000000E+20
 30
-1.0000000000000000E+20
  9
$PLIMMIN
 10
0.0
 20
0.0
  9
$PLIMMAX
 10
12.0
 20
9.0
  9
$UNITMODE
 70
     0
  9
$VISRETAIN
 70
     1
  9
$PLINEGEN
 70
     0
  9
$PSLTSCALE
 70
     1
  0
ENDSEC
  0
SECTION
  2
TABLES
  0
TABLE
  2
VPORT
 70
     1
  0
VPORT
  2
*ACTIVE
 70
     0
 10
0.0
 20
0.0
 11
1.0
 21
1.0
 12
275.1223742635374947
 22
-9.8235624160937434
 13
0.0
 23
0.0
 14
1.0
 24
1.0
 15
0.0
 25
0.0
 16
0.0
 26
0.0
 36
95.5902297660485658
 17
3089.811279296875
 27
197.161570589386713
 37
0.0
 40
18.3271484964602003
 41
2.0416666666666661
 42
50.0
 43
0.0
 44
0.0
 50
0.0
 51
0.0
 71
     0
 72
   100
 73
     1
 74
     1
 75
     0
 76
     0
 77
     0
 78
     0
  0
ENDTAB
  0
TABLE
  2
LTYPE
 70
     2
  0
LTYPE
  2
CONTINUOUS
 70
     0
  3
Solid line
 72
    65
 73
     0
 40
0.0
  0
LTYPE
  2
PHANTOM2
 70
     0
  3
___ _ _ ___ _ _ ___ _ _ ___ _ _
 72
    65
 73
     6
 40
1.25
 49
0.625
 49
-0.125
 49
0.125
 49
-0.125
 49
0.125
 49
-0.125
  0
ENDTAB
  0
TABLE
  2
LAYER
 70
     2
  0
LAYER
  2
0
 70
     0
 62
   255
  6
CONTINUOUS
  0
LAYER
  2
DEFPOINTS
 70
     0
 62
     7
  6
CONTINUOUS
  0
ENDTAB
  0
TABLE
  2
STYLE
 70
     1
  0
STYLE
  2
STANDARD
 70
     0
 40
0.0
 41
0.8
 50
0.0
 71
     0
 42
0.2
  3
txt
  4

  0
ENDTAB
  0
TABLE
  2
VIEW
 70
     0
  0
ENDTAB
  0
TABLE
  2
UCS
 70
     0
  0
ENDTAB
  0
TABLE
  2
APPID
 70
     9
  0
APPID
  2
ACAD
 70
     0
  0
APPID
  2
ACAD_MLEADERVER
 70
     0
  0
APPID
  2
ACAD_EXEMPT_FROM_CAD_STANDARDS
 70
     0
  0
APPID
  2
ACAD_NAV_VCDISPLAY
 70
     0
  0
APPID
  2
ACAECLAYERSTANDARD
 70
     0
  0
APPID
  2
ACCMTRANSPARENCY
 70
     0
  0
APPID
  2
ACAD_DSTYLE_DIMJAG
 70
     0
  0
APPID
  2
ACAD_DSTYLE_DIMTALN
 70
     0
  0
APPID
  2
ACDBATTR
 70
     0
  0
ENDTAB
  0
TABLE
  2
DIMSTYLE
 70
     1
  0
DIMSTYLE
  2
STANDARD
 70
     0
  3

  4

  5

  6

  7

 40
1.0
 41
0.1875
 42
0.0625
 43
0.38
 44
0.125
 45
0.0
 46
0.0
 47
0.01
 48
0.01
140
0.15625
141
0.09
142
0.0
143
25.3999999999999986
144
1.0
145
0.0
146
1.0
147
0.09
 71
     1
 72
     0
 73
     1
 74
     1
 75
     0
 76
     0
 77
     0
 78
     4
170
     0
171
     2
172
     0
173
     0
174
     0
175
     0
176
     0
177
     0
178
     0
  0
ENDTAB
  0
ENDSEC
  0
SECTION
  2
BLOCKS
  0
BLOCK
  8
0
  2
$MODEL_SPACE
 70
     0
 10
0.0
 20
0.0
 30
0.0
  3
$MODEL_SPACE
  1

  0
ENDBLK
  5
21
  8
0
  0
BLOCK
 67
     1
  8
0
  2
$PAPER_SPACE
 70
     0
 10
0.0
 20
0.0
 30
0.0
  3
$PAPER_SPACE
  1

  0
ENDBLK
  5
1D
 67
     1
  8
0
  0
BLOCK
  8
0
  2
_FILLED
 70
     0
 10
0.0
 20
0.0
 30
0.0
  3
_FILLED
  1

  0
SOLID
  5
7FAE
  8
0
  6
BYBLOCK
 62
     0
 10
0.0
 20
0.0
 30
0.0
 11
-1.0
 21
0.1666666667
 31
0.0
 12
-1.0
 22
-0.1666666667
 32
0.0
 13
-1.0
 23
-0.1666666667
 33
0.0
  0
ENDBLK
  5
7FAF
  8
0
  6
BYBLOCK
 62
     0
  0
ENDSEC
  0
SECTION
  2
ENTITIES
  0
ATTDEF
  5
3930
  8
DEFPOINTS
 10
3359.7427168185090522
 20
188.6695630533536132
 30
0.0
 40
0.001
  1
K-37333IN-4
  3

  2
MODELNUMBER
 70
     0
1001
ACDBATTR
1070
     0
1070
     1
  0
ATTDEF
  5
3931
  8
DEFPOINTS
 10
3359.7427168185090522
 20
188.6678963866868912
 30
0.0
 40
0.001
  1
STRAYT
  3

  2
TRADENAME
 70
     0
1001
ACDBATTR
1070
     0
1070
     1
  0
ATTDEF
  5
3932
  8
DEFPOINTS
 10
3359.7427168185090522
 20
188.6662297200203113
 30
0.0
 40
0.001
  1
BATHROOM SINK FAUCET
  3

  2
PRODUCT
 70
     0
1001
ACDBATTR
1070
     0
1070
     1
  0
LINE
  5
8E27
  8
0
 10
3360.6183454997149056
 20
189.5707219365781953
 30
0.0
 11
3358.8624399881027784
 21
189.5707219365781953
 31
0.0
  0
LINE
  5
8E28
  8
0
 10
3360.6459045549090661
 20
189.5431628813780947
 30
0.0
 11
3360.6459045549090661
 21
187.9418535053742971
 31
0.0
  0
LINE
  5
8E29
  8
0
 10
3360.3703140037091543
 20
189.2675434955781952
 30
0.0
 11
3360.3703140037091543
 21
184.0470998893781882
 31
0.0
  0
LINE
  5
8E2A
  8
0
 10
3360.33889422930406
 20
189.3034389329781959
 30
0.0
 11
3359.1418912583249039
 21
189.3034389329781959
 31
0.0
  0
LINE
  5
8E2B
  8
0
 10
3360.3376623584090339
 20
189.295962558715587
 30
0.0
 11
3359.1436278474761821
 21
189.295962558715587
 31
0.0
  0
LINE
  5
8E2C
  8
0
 10
3360.3628145467077957
 20
189.2686816112876897
 30
0.0
 11
3360.3628145467077957
 21
186.0500503623767088
 31
0.0
  0
LINE
  5
8E2D
  8
0
 10
3360.3357116124138884
 20
186.0274148499781006
 30
0.0
 11
3359.1450738752191683
 21
186.0274148499781006
 31
0.0
  0
LINE
  5
8E2E
  8
0
 10
3360.3427549486082171
 20
184.0195408341782013
 30
0.0
 11
3359.1380305392099217
 21
184.0195408341780876
 31
0.0
  0
ARC
  5
8E2F
  8
0
 10
3359.7403927438149367
 20
189.1767750861781963
 30
0.0
 40
0.1892224408999887
 50
42.020098785783631
 51
137.9799012142163122
  0
LINE
  5
8E30
  8
0
 10
3360.4490541611139633
 20
187.7596983144781859
 30
0.0
 11
3360.3703140037091543
 21
187.7596983144781859
 31
0.0
  0
ARC
  5
8E31
  8
0
 10
3360.4486096590208035
 20
187.9576218311703997
 30
0.0
 40
0.1979240158291137
 50
270.1286762227538816
 51
355.4304838883335265
  0
ARC
  5
8E32
  8
0
 10
3360.6183454994579733
 20
189.5431628811273868
 30
0.0
 40
0.0275590554507259
 50
0.0000005212746941
 51
89.9999994674857788
  0
ARC
  5
8E33
  8
0
 10
3360.3353320466649166
 20
189.2685403969020967
 30
0.0
 40
0.0274828628441029
 50
0.2944025136064015
 51
86.1912309030586528
  0
ARC
  5
8E34
  8
0
 10
3360.3311854203911935
 20
189.2649925046343071
 30
0.0
 40
0.0392116511671393
 50
3.7301238115478932
 51
78.6620942821885762
  0
ARC
  5
8E35
  8
0
 10
3360.3356873606408044
 20
186.0549876752656928
 30
0.0
 40
0.0275728359529035
 50
270.0503946873138261
 51
349.6847324209127237
  0
ARC
  5
8E36
  8
0
 10
3360.3427549484440533
 20
184.0470998894431034
 30
0.0
 40
0.0275590552648826
 50
270.0000003407747045
 51
359.999999865062307
  0
LINE
  5
8E37
  8
0
 10
3358.8348809329090727
 20
189.5431628813780947
 30
0.0
 11
3358.8348809329090727
 21
187.9418535053742971
 31
0.0
  0
LINE
  5
8E38
  8
0
 10
3359.1104714841089844
 20
189.2675434955781952
 30
0.0
 11
3359.1104714841089844
 21
184.0470998893781882
 31
0.0
  0
LINE
  5
8E39
  8
0
 10
3359.1179709409211682
 20
189.2686816112876897
 30
0.0
 11
3359.1179709409211682
 21
186.0500503623767088
 31
0.0
  0
LINE
  5
8E3A
  8
0
 10
3359.0317313265140911
 20
187.7596983144781859
 30
0.0
 11
3359.1104714841089844
 21
187.7596983144781859
 31
0.0
  0
ARC
  5
8E3B
  8
0
 10
3359.0321758284680982
 20
187.9576218308143893
 30
0.0
 40
0.1979240154728259
 50
184.5695160165350899
 51
269.8713238175013203
  0
ARC
  5
8E3C
  8
0
 10
3358.8624399880368401
 20
189.5431628814503995
 30
0.0
 40
0.027559055127691
 50
90.0000002543238509
 51
180.0000001503233023
  0
ARC
  5
8E3D
  8
0
 10
3359.1454534409640473
 20
189.2685403969020967
 30
0.0
 40
0.0274828628441029
 50
93.8087690969413472
 51
179.7055974863936001
  0
ARC
  5
8E3E
  8
0
 10
3359.1496000669958448
 20
189.2649925050519073
 30
0.0
 40
0.0392116507101931
 50
101.3379054913771
 51
176.2698767563601905
  0
ARC
  5
8E3F
  8
0
 10
3359.1450981269881595
 20
186.0549876752656928
 30
0.0
 40
0.0275728359529035
 50
190.3152675790873047
 51
269.9496053126861739
  0
ARC
  5
8E40
  8
0
 10
3359.1398161854172031
 20
184.0488855354801103
 30
0.0
 40
0.0293989800312805
 50
183.4821955058478125
 51
266.5178042845433879
  0
ENDSEC
  0
EOF
