  0
SECTION
  2
HEADER
  9
$ACADVER
  1
AC1009
  9
$INSBASE
 10
4131.3985902528338556
 20
126.5419095697670002
 30
0.0
  9
$EXTMIN
 10
4128.7411099378841755
 20
123.4395609640669988
 30
0.0
  9
$EXTMAX
 10
4134.0560705677844453
 20
126.5471148525101057
 30
0.0
  9
$LIMMIN
 10
0.0
 20
0.0
  9
$LIMMAX
 10
11.6929133858000007
 20
8.2677165353999982
  9
$ORTHOMODE
 70
     1
  9
$REGENMODE
 70
     1
  9
$FILLMODE
 70
     1
  9
$QTEXTMODE
 70
     0
  9
$MIRRTEXT
 70
     0
  9
$DRAGMODE
 70
     2
  9
$LTSCALE
 40
0.6431102362
  9
$OSMODE
 70
  4095
  9
$ATTMODE
 70
     1
  9
$TEXTSIZE
 40
0.2
  9
$TRACEWID
 40
0.05
  9
$TEXTSTYLE
  7
STANDARD
  9
$CLAYER
  8
0
  9
$CELTYPE
  6
BYLAYER
  9
$CECOLOR
 62
   256
  9
$DIMSCALE
 40
1.0
  9
$DIMASZ
 40
0.1875
  9
$DIMEXO
 40
0.0625
  9
$DIMDLI
 40
0.4443307087
  9
$DIMRND
 40
0.0
  9
$DIMDLE
 40
0.0
  9
$DIMEXE
 40
0.125
  9
$DIMTP
 40
0.01
  9
$DIMTM
 40
0.01
  9
$DIMTXT
 40
2.0
  9
$DIMCEN
 40
0.1052362205
  9
$DIMTSZ
 40
0.0
  9
$DIMTOL
 70
     1
  9
$DIMLIM
 70
     0
  9
$DIMTIH
 70
     1
  9
$DIMTOH
 70
     1
  9
$DIMSE1
 70
     0
  9
$DIMSE2
 70
     0
  9
$DIMTAD
 70
     0
  9
$DIMZIN
 70
     0
  9
$DIMBLK
  1

  9
$DIMASO
 70
     1
  9
$DIMSHO
 70
     1
  9
$DIMPOST
  1
\X
  9
$DIMAPOST
  1

  9
$DIMALT
 70
     1
  9
$DIMALTD
 70
     2
  9
$DIMALTF
 40
25.3999999999999986
  9
$DIMLFAC
 40
1.0
  9
$DIMTOFL
 70
     0
  9
$DIMTVP
 40
0.0
  9
$DIMTIX
 70
     0
  9
$DIMSOXD
 70
     0
  9
$DIMSAH
 70
     0
  9
$DIMBLK1
  1

  9
$DIMBLK2
  1

  9
$DIMSTYLE
  2
STANDARD
  9
$DIMCLRD
 70
     0
  9
$DIMCLRE
 70
     0
  9
$DIMCLRT
 70
     0
  9
$DIMTFAC
 40
1.0
  9
$DIMGAP
 40
0.09
  9
$LUNITS
 70
     2
  9
$LUPREC
 70
     4
  9
$SKETCHINC
 40
0.1
  9
$FILLETRAD
 40
0.0
  9
$AUNITS
 70
     0
  9
$AUPREC
 70
     0
  9
$MENU
  1
.
  9
$ELEVATION
 40
0.0
  9
$PELEVATION
 40
0.0
  9
$THICKNESS
 40
0.0
  9
$LIMCHECK
 70
     0
  9
$BLIPMODE
 70
     0
  9
$CHAMFERA
 40
0.0
  9
$CHAMFERB
 40
0.0
  9
$SKPOLY
 70
     0
  9
$TDCREATE
 40
2458060.468368056230247
  9
$TDUPDATE
 40
2458992.5816550920717418
  9
$TDINDWG
 40
0.3199144676
  9
$TDUSRTIMER
 40
0.3199144676
  9
$USRTIMER
 70
     1
  9
$ANGBASE
 50
0.0
  9
$ANGDIR
 70
     0
  9
$PDMODE
 70
     0
  9
$PDSIZE
 40
0.3125
  9
$PLINEWID
 40
0.0
  9
$COORDS
 70
     1
  9
$SPLFRAME
 70
     0
  9
$SPLINETYPE
 70
     6
  9
$SPLINESEGS
 70
     8
  9
$ATTDIA
 70
     1
  9
$ATTREQ
 70
     1
  9
$HANDLING
 70
     1
  9
$HANDSEED
  5
6B78
  9
$SURFTAB1
 70
     6
  9
$SURFTAB2
 70
     6
  9
$SURFTYPE
 70
     6
  9
$SURFU
 70
     6
  9
$SURFV
 70
     6
  9
$UCSNAME
  2

  9
$UCSORG
 10
0.0
 20
0.0
 30
0.0
  9
$UCSXDIR
 10
1.0
 20
0.0
 30
0.0
  9
$UCSYDIR
 10
0.0
 20
1.0
 30
0.0
  9
$PUCSNAME
  2

  9
$PUCSORG
 10
0.0
 20
0.0
 30
0.0
  9
$PUCSXDIR
 10
1.0
 20
0.0
 30
0.0
  9
$PUCSYDIR
 10
0.0
 20
1.0
 30
0.0
  9
$USERI1
 70
     0
  9
$USERI2
 70
     0
  9
$USERI3
 70
     0
  9
$USERI4
 70
     0
  9
$USERI5
 70
     0
  9
$USERR1
 40
0.0
  9
$USERR2
 40
0.0
  9
$USERR3
 40
0.0
  9
$USERR4
 40
0.0
  9
$USERR5
 40
0.0
  9
$WORLDVIEW
 70
     1
  9
$SHADEDGE
 70
     3
  9
$SHADEDIF
 70
    70
  9
$TILEMODE
 70
     1
  9
$MAXACTVP
 70
    64
  9
$PLIMCHECK
 70
     0
  9
$PEXTMIN
 10
1.0000000000000000E+20
 20
1.0000000000000000E+20
 30
1.0000000000000000E+20
  9
$PEXTMAX
 10
-1.0000000000000000E+20
 20
-1.0000000000000000E+20
 30
-1.0000000000000000E+20
  9
$PLIMMIN
 10
0.0
 20
0.0
  9
$PLIMMAX
 10
12.0
 20
9.0
  9
$UNITMODE
 70
     0
  9
$VISRETAIN
 70
     1
  9
$PLINEGEN
 70
     0
  9
$PSLTSCALE
 70
     1
  0
ENDSEC
  0
SECTION
  2
TABLES
  0
TABLE
  2
VPORT
 70
     1
  0
VPORT
  2
*ACTIVE
 70
     0
 10
0.0
 20
0.0
 11
1.0
 21
1.0
 12
0.0
 22
0.0
 13
0.0
 23
0.0
 14
1.0
 24
1.0
 15
0.0
 25
0.0
 16
0.0
 26
0.0
 36
23.0461425381138589
 17
4131.3986816406240905
 27
124.9933373945167006
 37
0.0
 40
6.1600095108079076
 41
2.9513274336283182
 42
50.0
 43
0.0
 44
0.0
 50
0.0
 51
0.0
 71
     0
 72
   100
 73
     1
 74
     1
 75
     0
 76
     0
 77
     0
 78
     0
  0
ENDTAB
  0
TABLE
  2
LTYPE
 70
     2
  0
LTYPE
  2
CONTINUOUS
 70
     0
  3
Solid line
 72
    65
 73
     0
 40
0.0
  0
LTYPE
  2
PHANTOM2
 70
     0
  3
___ _ _ ___ _ _ ___ _ _ ___ _ _
 72
    65
 73
     6
 40
1.25
 49
0.625
 49
-0.125
 49
0.125
 49
-0.125
 49
0.125
 49
-0.125
  0
ENDTAB
  0
TABLE
  2
LAYER
 70
     2
  0
LAYER
  2
0
 70
     0
 62
   255
  6
CONTINUOUS
  0
LAYER
  2
DEFPOINTS
 70
     0
 62
     7
  6
CONTINUOUS
  0
ENDTAB
  0
TABLE
  2
STYLE
 70
     1
  0
STYLE
  2
STANDARD
 70
     0
 40
0.0
 41
0.8
 50
0.0
 71
     0
 42
0.2
  3
txt
  4

  0
ENDTAB
  0
TABLE
  2
VIEW
 70
     0
  0
ENDTAB
  0
TABLE
  2
UCS
 70
     0
  0
ENDTAB
  0
TABLE
  2
APPID
 70
     9
  0
APPID
  2
ACAD
 70
     0
  0
APPID
  2
ACAD_MLEADERVER
 70
     0
  0
APPID
  2
ACAD_EXEMPT_FROM_CAD_STANDARDS
 70
     0
  0
APPID
  2
ACAD_NAV_VCDISPLAY
 70
     0
  0
APPID
  2
ACAECLAYERSTANDARD
 70
     0
  0
APPID
  2
ACCMTRANSPARENCY
 70
     0
  0
APPID
  2
ACAD_DSTYLE_DIMJAG
 70
     0
  0
APPID
  2
ACAD_DSTYLE_DIMTALN
 70
     0
  0
APPID
  2
ACDBATTR
 70
     0
  0
ENDTAB
  0
TABLE
  2
DIMSTYLE
 70
     1
  0
DIMSTYLE
  2
STANDARD
 70
     0
  3

  4

  5

  6

  7

 40
1.0
 41
0.1875
 42
0.0625
 43
0.38
 44
0.125
 45
0.0
 46
0.0
 47
0.01
 48
0.01
140
0.15625
141
0.09
142
0.0
143
25.3999999999999986
144
1.0
145
0.0
146
1.0
147
0.09
 71
     1
 72
     0
 73
     1
 74
     1
 75
     0
 76
     0
 77
     0
 78
     4
170
     0
171
     2
172
     0
173
     0
174
     0
175
     0
176
     0
177
     0
178
     0
  0
ENDTAB
  0
ENDSEC
  0
SECTION
  2
BLOCKS
  0
BLOCK
  8
0
  2
$MODEL_SPACE
 70
     0
 10
0.0
 20
0.0
 30
0.0
  3
$MODEL_SPACE
  1

  0
ENDBLK
  5
21
  8
0
  0
BLOCK
 67
     1
  8
0
  2
$PAPER_SPACE
 70
     0
 10
0.0
 20
0.0
 30
0.0
  3
$PAPER_SPACE
  1

  0
ENDBLK
  5
1D
 67
     1
  8
0
  0
ENDSEC
  0
SECTION
  2
ENTITIES
  0
ATTDEF
  5
3930
  8
DEFPOINTS
 10
4131.3955970706374501
 20
126.5461148525100015
 30
0.0
 40
0.001
  1
K-16086IN-4
  3

  2
MODELNUMBER
 70
     0
1001
ACDBATTR
1070
     0
1070
     1
  0
ATTDEF
  5
3931
  8
DEFPOINTS
 10
4131.3955970706374501
 20
126.5444481858433932
 30
0.0
 40
0.001
  1
STRAYT
  3

  2
TRADENAME
 70
     0
1001
ACDBATTR
1070
     0
1070
     1
  0
ATTDEF
  5
3932
  8
DEFPOINTS
 10
4131.3955970706374501
 20
126.5427815191766996
 30
0.0
 40
0.001
  1
VALVE TRIM
  3

  2
PRODUCT
 70
     0
1001
ACDBATTR
1070
     0
1070
     1
  0
LINE
  5
6927
  8
0
 10
4128.7411099378841755
 20
126.5419095697670002
 30
0.0
 11
4128.7945649034836606
 21
125.9309165161670023
 31
0.0
  0
LINE
  5
6928
  8
0
 10
4130.348515024684275
 20
125.8463285782670056
 30
0.0
 11
4130.3551396215843852
 21
124.5811353344670067
 31
0.0
  0
LINE
  5
6929
  8
0
 10
4130.3491392488840575
 20
124.3964807734670046
 30
0.0
 11
4130.3411616810853957
 21
123.4823420492670039
 31
0.0
  0
LINE
  5
692A
  8
0
 10
4132.4531283022115531
 20
123.8135631055375967
 30
0.0
 11
4130.3440522102573595
 21
123.8135639190669934
 31
0.0
  0
LINE
  5
692B
  8
0
 10
4131.2030034620838705
 20
123.9907284515669943
 30
0.0
 11
4131.5941770435838407
 21
123.9907284515669943
 31
0.0
  0
LINE
  5
692C
  8
0
 10
4130.4290466085840308
 20
124.3972020755669945
 30
0.0
 11
4130.4298742703840617
 21
124.3735009426669933
 31
0.0
  0
LINE
  5
692D
  8
0
 10
4130.4544195571843375
 20
124.5523463723669977
 30
0.0
 11
4130.4543992366243401
 21
124.553720577567006
 31
0.0
  0
LINE
  5
692E
  8
0
 10
4130.3766972546845864
 20
124.4237993334670023
 30
0.0
 11
4130.599738565683765
 21
124.4237993334670023
 31
0.0
  0
LINE
  5
692F
  8
0
 10
4132.2676153166994482
 20
124.4750619616669951
 30
0.0
 11
4130.5295651892829483
 21
124.4750619616669951
 31
0.0
  0
LINE
  5
6930
  8
0
 10
4132.414482206784669
 20
124.553720577567006
 30
0.0
 11
4130.3826982988830423
 21
124.553720577567006
 31
0.0
  0
LINE
  5
6931
  8
0
 10
4128.7411099378841755
 20
126.5419095697670002
 30
0.0
 11
4134.0560705677844453
 21
126.5419095697670002
 31
0.0
  0
ARC
  5
6932
  8
0
 10
4131.3985902527838334
 20
158.8726318301669949
 30
0.0
 40
35.4330708661000031
 50
268.3331532842942124
 51
270.0000000000782165
  0
ARC
  5
6933
  8
0
 10
4130.5259826399178564
 20
124.3964033465438064
 30
0.0
 40
0.0787401574217476
 50
3.4269837793048352
 51
87.3922347892430054
  0
ARC
  5
6934
  8
0
 10
4130.5331477220852321
 20
124.553720577567006
 30
0.0
 40
0.0787401575
 50
181.0000000100997113
 51
267.3922468231913854
  0
ARC
  5
6935
  8
0
 10
4130.369735768585997
 20
123.4830799178643019
 30
0.0
 40
0.0285836129040051
 50
181.479220049174387
 51
266.3539333167889822
  0
ARC
  5
6936
  8
0
 10
4130.3794737515399902
 20
124.3934394456662034
 30
0.0
 40
0.0304865826563986
 50
95.2253244827255259
 51
174.274675517258089
  0
ARC
  5
6937
  8
0
 10
4130.4015164833335803
 20
124.3962528514141042
 30
0.0
 40
0.0275464847286786
 50
1.974745766685521
 51
90.0252542029206211
  0
ARC
  5
6938
  8
0
 10
4130.3839347295815969
 20
124.5825225542803025
 30
0.0
 40
0.028828503663316
 50
182.7581225502063944
 51
267.5418773601712132
  0
ARC
  5
6939
  8
0
 10
4131.4357479429290834
 20
168.5747634637054944
 30
0.0
 40
42.7422650683133867
 50
268.542412827819021
 51
269.9501903073409039
  0
ARC
  5
693A
  8
0
 10
4131.4691746283842804
 20
124.4528892599669945
 30
0.0
 40
0.8661417323
 50
183.4272612472994979
 51
197.1877060521975125
  0
ARC
  5
693B
  8
0
 10
4128.8220670114405948
 20
125.9332534792702063
 30
0.0
 40
0.0276012198755742
 50
184.8569818049764137
 51
265.498605290746184
  0
ARC
  5
693C
  8
0
 10
4131.8909196219137812
 20
164.6960882359931873
 30
0.0
 40
38.9117267020466002
 50
265.4733543426935967
 51
267.7285251857580874
  0
ARC
  5
693D
  8
0
 10
4130.6658277553679
 20
124.5059516844325032
 30
0.0
 40
0.2705868549479218
 50
209.3073533207075059
 51
235.2792788850487966
  0
ARC
  5
693E
  8
0
 10
4131.1229796780598917
 20
125.0602721264752972
 30
0.0
 40
0.9884112404735413
 50
231.7977787202615048
 51
240.8623716531068055
  0
ARC
  5
693F
  8
0
 10
4131.7420775080627209
 20
126.325022036681105
 30
0.0
 40
2.3957310718343381
 50
242.657918609662687
 51
256.9962736825303864
  0
ARC
  5
6940
  8
0
 10
4131.4241345453947361
 20
124.9509640365466936
 30
0.0
 40
0.9853686288223567
 50
257.0315444597927126
 51
268.5145212765581846
  0
LINE
  5
6941
  8
0
 10
4128.8199007748844451
 20
125.9057373974670071
 30
0.0
 11
4133.9772797307841756
 21
125.9057373974670071
 31
0.0
  0
LINE
  5
6942
  8
0
 10
4134.0560705677844453
 20
126.5419095697670002
 30
0.0
 11
4134.0026156021840507
 21
125.9309165161670023
 31
0.0
  0
LINE
  5
6943
  8
0
 10
4132.4486654809852553
 20
125.8463285782670056
 30
0.0
 11
4132.4420408840842356
 21
124.5811353344670067
 31
0.0
  0
LINE
  5
6944
  8
0
 10
4132.4480412567836538
 20
124.3964807734670046
 30
0.0
 11
4132.4560188245841346
 21
123.4823420492670039
 31
0.0
  0
LINE
  5
6945
  8
0
 10
4132.36813389708459
 20
124.3972020755669945
 30
0.0
 11
4132.3673062352836496
 21
124.3735009426669933
 31
0.0
  0
LINE
  5
6946
  8
0
 10
4132.3427609484851928
 20
124.5523463723669977
 30
0.0
 11
4132.3427812690433711
 21
124.553720577567006
 31
0.0
  0
LINE
  5
6947
  8
0
 10
4132.4204832509840344
 20
124.4237993334670023
 30
0.0
 11
4132.1974419399839462
 21
124.4237993334670023
 31
0.0
  0
ARC
  5
6948
  8
0
 10
4131.3985902528838778
 20
158.8726318301669949
 30
0.0
 40
35.4330708661000031
 50
269.9999999999218971
 51
271.6668467157057876
  0
ARC
  5
6949
  8
0
 10
4132.2711978657498548
 20
124.3964033465438064
 30
0.0
 40
0.0787401574217476
 50
92.6077652107570088
 51
176.5730162206967009
  0
ARC
  5
694A
  8
0
 10
4132.2640327835842982
 20
124.553720577567006
 30
0.0
 40
0.0787401575
 50
272.6077531767825235
 51
358.9999999899006866
  0
ARC
  5
694B
  8
0
 10
4132.4274447370808048
 20
123.4830799178643019
 30
0.0
 40
0.0285836129040051
 50
273.6460666832110178
 51
358.520779950825613
  0
ARC
  5
694C
  8
0
 10
4132.4177067541277211
 20
124.3934394456662034
 30
0.0
 40
0.0304865826563986
 50
5.7253244827418346
 51
84.7746755172485251
  0
ARC
  5
694D
  8
0
 10
4132.395664022334131
 20
124.3962528514141042
 30
0.0
 40
0.0275464847286786
 50
89.9747457970793789
 51
178.0252542333153087
  0
ARC
  5
694E
  8
0
 10
4132.4132457760852049
 20
124.5825225542803025
 30
0.0
 40
0.028828503663316
 50
272.4581226398286731
 51
357.241877449794913
  0
ARC
  5
694F
  8
0
 10
4131.3614325627377184
 20
168.5747634637054944
 30
0.0
 40
42.7422650683133867
 50
270.0498096926592098
 51
271.457587172180979
  0
ARC
  5
6950
  8
0
 10
4131.3280058772852499
 20
124.4528892599669945
 30
0.0
 40
0.8661417323
 50
342.8122939478024023
 51
356.5727387526989105
  0
ARC
  5
6951
  8
0
 10
4133.975113494226207
 20
125.9332534792702063
 30
0.0
 40
0.0276012198755742
 50
274.5013947092796798
 51
355.1430181950213978
  0
ARC
  5
6952
  8
0
 10
4130.9062608837548396
 20
164.6960882359931873
 30
0.0
 40
38.9117267020466002
 50
272.27147481426789
 51
274.5266456573323808
  0
ARC
  5
6953
  8
0
 10
4132.1313527502998113
 20
124.5059516844325032
 30
0.0
 40
0.2705868549479218
 50
304.720721114951175
 51
330.6926466792925225
  0
ARC
  5
6954
  8
0
 10
4131.6742008276078195
 20
125.0602721264752972
 30
0.0
 40
0.9884112404735413
 50
299.1376283468704855
 51
308.20222127973841
  0
ARC
  5
6955
  8
0
 10
4131.0551029976049904
 20
126.325022036681105
 30
0.0
 40
2.3957310718343381
 50
283.0037263174696136
 51
297.3420813903142061
  0
ARC
  5
6956
  8
0
 10
4131.3730459602729752
 20
124.9509640365466936
 30
0.0
 40
0.9853686288223567
 50
271.4854787234417017
 51
282.9684555402328101
  0
ENDSEC
  0
EOF
