  0
SECTION
  2
HEADER
  9
$ACADVER
  1
AC1009
  9
$INSBASE
 10
4104.2823227549106377
 20
129.2849540213474029
 30
0.0
  9
$EXTMIN
 10
4100.766494392986715
 20
126.0590171415096989
 30
-0.0000000000112498
  9
$EXTMAX
 10
4107.6608515560910746
 20
132.5092722476105109
 30
0.0000000000002956
  9
$LIMMIN
 10
0.0
 20
0.0
  9
$LIMMAX
 10
11.6929133858000007
 20
8.2677165353999982
  9
$ORTHOMODE
 70
     0
  9
$REGENMODE
 70
     1
  9
$FILLMODE
 70
     1
  9
$QTEXTMODE
 70
     0
  9
$MIRRTEXT
 70
     0
  9
$DRAGMODE
 70
     2
  9
$LTSCALE
 40
0.6431102362
  9
$OSMODE
 70
     7
  9
$ATTMODE
 70
     1
  9
$TEXTSIZE
 40
0.2
  9
$TRACEWID
 40
0.05
  9
$TEXTSTYLE
  7
STANDARD
  9
$CLAYER
  8
0
  9
$CELTYPE
  6
BYLAYER
  9
$CECOLOR
 62
   256
  9
$DIMSCALE
 40
1.0
  9
$DIMASZ
 40
0.1875
  9
$DIMEXO
 40
0.0625
  9
$DIMDLI
 40
0.4443307087
  9
$DIMRND
 40
0.0
  9
$DIMDLE
 40
0.0
  9
$DIMEXE
 40
0.125
  9
$DIMTP
 40
0.01
  9
$DIMTM
 40
0.01
  9
$DIMTXT
 40
2.0
  9
$DIMCEN
 40
0.1052362205
  9
$DIMTSZ
 40
0.0
  9
$DIMTOL
 70
     1
  9
$DIMLIM
 70
     0
  9
$DIMTIH
 70
     1
  9
$DIMTOH
 70
     1
  9
$DIMSE1
 70
     0
  9
$DIMSE2
 70
     0
  9
$DIMTAD
 70
     0
  9
$DIMZIN
 70
     0
  9
$DIMBLK
  1

  9
$DIMASO
 70
     1
  9
$DIMSHO
 70
     1
  9
$DIMPOST
  1
\X
  9
$DIMAPOST
  1

  9
$DIMALT
 70
     1
  9
$DIMALTD
 70
     2
  9
$DIMALTF
 40
25.3999999999999986
  9
$DIMLFAC
 40
1.0
  9
$DIMTOFL
 70
     0
  9
$DIMTVP
 40
0.0
  9
$DIMTIX
 70
     0
  9
$DIMSOXD
 70
     0
  9
$DIMSAH
 70
     0
  9
$DIMBLK1
  1

  9
$DIMBLK2
  1

  9
$DIMSTYLE
  2
STANDARD
  9
$DIMCLRD
 70
     0
  9
$DIMCLRE
 70
     0
  9
$DIMCLRT
 70
     0
  9
$DIMTFAC
 40
1.0
  9
$DIMGAP
 40
0.09
  9
$LUNITS
 70
     2
  9
$LUPREC
 70
     4
  9
$SKETCHINC
 40
0.1
  9
$FILLETRAD
 40
0.0
  9
$AUNITS
 70
     0
  9
$AUPREC
 70
     0
  9
$MENU
  1
.
  9
$ELEVATION
 40
0.0
  9
$PELEVATION
 40
0.0
  9
$THICKNESS
 40
0.0
  9
$LIMCHECK
 70
     0
  9
$BLIPMODE
 70
     0
  9
$CHAMFERA
 40
0.0
  9
$CHAMFERB
 40
0.0
  9
$SKPOLY
 70
     0
  9
$TDCREATE
 40
2458060.468368056230247
  9
$TDUPDATE
 40
2459356.656689815223217
  9
$TDINDWG
 40
0.3358635417
  9
$TDUSRTIMER
 40
0.3358635417
  9
$USRTIMER
 70
     1
  9
$ANGBASE
 50
0.0
  9
$ANGDIR
 70
     0
  9
$PDMODE
 70
     0
  9
$PDSIZE
 40
0.3125
  9
$PLINEWID
 40
0.0
  9
$COORDS
 70
     1
  9
$SPLFRAME
 70
     0
  9
$SPLINETYPE
 70
     6
  9
$SPLINESEGS
 70
     8
  9
$ATTDIA
 70
     1
  9
$ATTREQ
 70
     1
  9
$HANDLING
 70
     1
  9
$HANDSEED
  5
709E
  9
$SURFTAB1
 70
     6
  9
$SURFTAB2
 70
     6
  9
$SURFTYPE
 70
     6
  9
$SURFU
 70
     6
  9
$SURFV
 70
     6
  9
$UCSNAME
  2

  9
$UCSORG
 10
0.0
 20
0.0
 30
0.0
  9
$UCSXDIR
 10
1.0
 20
0.0
 30
0.0
  9
$UCSYDIR
 10
0.0
 20
1.0
 30
0.0
  9
$PUCSNAME
  2

  9
$PUCSORG
 10
0.0
 20
0.0
 30
0.0
  9
$PUCSXDIR
 10
1.0
 20
0.0
 30
0.0
  9
$PUCSYDIR
 10
0.0
 20
1.0
 30
0.0
  9
$USERI1
 70
     0
  9
$USERI2
 70
     0
  9
$USERI3
 70
     0
  9
$USERI4
 70
     0
  9
$USERI5
 70
     0
  9
$USERR1
 40
0.0
  9
$USERR2
 40
0.0
  9
$USERR3
 40
0.0
  9
$USERR4
 40
0.0
  9
$USERR5
 40
0.0
  9
$WORLDVIEW
 70
     1
  9
$SHADEDGE
 70
     3
  9
$SHADEDIF
 70
    70
  9
$TILEMODE
 70
     1
  9
$MAXACTVP
 70
    64
  9
$PLIMCHECK
 70
     0
  9
$PEXTMIN
 10
1.0000000000000000E+20
 20
1.0000000000000000E+20
 30
1.0000000000000000E+20
  9
$PEXTMAX
 10
-1.0000000000000000E+20
 20
-1.0000000000000000E+20
 30
-1.0000000000000000E+20
  9
$PLIMMIN
 10
0.0
 20
0.0
  9
$PLIMMAX
 10
12.0
 20
9.0
  9
$UNITMODE
 70
     0
  9
$VISRETAIN
 70
     1
  9
$PLINEGEN
 70
     0
  9
$PSLTSCALE
 70
     1
  0
ENDSEC
  0
SECTION
  2
TABLES
  0
TABLE
  2
VPORT
 70
     1
  0
VPORT
  2
*ACTIVE
 70
     0
 10
0.0
 20
0.0
 11
1.0
 21
1.0
 12
8.2798350839138948
 22
-0.2289015700883112
 13
0.0
 23
0.0
 14
1.0
 24
1.0
 15
0.0
 25
0.0
 16
0.0
 26
0.0
 36
38.0942185296980824
 17
4095.933837890625
 27
129.5130462646484091
 37
0.0
 40
6.4998089225369968
 41
2.3461538461538458
 42
50.0
 43
0.0
 44
0.0
 50
0.0
 51
0.0
 71
     0
 72
   100
 73
     1
 74
     1
 75
     0
 76
     0
 77
     0
 78
     0
  0
ENDTAB
  0
TABLE
  2
LTYPE
 70
     3
  0
LTYPE
  2
CONTINUOUS
 70
     0
  3
Solid line
 72
    65
 73
     0
 40
0.0
  0
LTYPE
  2
PHANTOM2
 70
     0
  3
___ _ _ ___ _ _ ___ _ _ ___ _ _
 72
    65
 73
     6
 40
1.25
 49
0.625
 49
-0.125
 49
0.125
 49
-0.125
 49
0.125
 49
-0.125
  0
ENDTAB
  0
TABLE
  2
LAYER
 70
     2
  0
LAYER
  2
0
 70
     0
 62
   255
  6
CONTINUOUS
  0
LAYER
  2
DEFPOINTS
 70
     0
 62
     7
  6
CONTINUOUS
  0
ENDTAB
  0
TABLE
  2
STYLE
 70
     1
  0
STYLE
  2
STANDARD
 70
     0
 40
0.0
 41
0.8
 50
0.0
 71
     0
 42
0.2
  3
txt
  4

  0
ENDTAB
  0
TABLE
  2
VIEW
 70
     0
  0
ENDTAB
  0
TABLE
  2
UCS
 70
     0
  0
ENDTAB
  0
TABLE
  2
APPID
 70
     9
  0
APPID
  2
ACAD
 70
     0
  0
APPID
  2
ACAD_MLEADERVER
 70
     0
  0
APPID
  2
ACAD_EXEMPT_FROM_CAD_STANDARDS
 70
     0
  0
APPID
  2
ACAD_NAV_VCDISPLAY
 70
     0
  0
APPID
  2
ACAECLAYERSTANDARD
 70
     0
  0
APPID
  2
ACCMTRANSPARENCY
 70
     0
  0
APPID
  2
ACAD_DSTYLE_DIMJAG
 70
     0
  0
APPID
  2
ACAD_DSTYLE_DIMTALN
 70
     0
  0
APPID
  2
ACDBATTR
 70
     0
  0
ENDTAB
  0
TABLE
  2
DIMSTYLE
 70
     2
  0
DIMSTYLE
  2
STANDARD
 70
     0
  3

  4

  5

  6

  7

 40
1.0
 41
0.1875
 42
0.0625
 43
0.38
 44
0.125
 45
0.0
 46
0.0
 47
0.01
 48
0.01
140
0.15625
141
0.09
142
0.0
143
25.3999999999999986
144
1.0
145
0.0
146
1.0
147
0.09
 71
     1
 72
     0
 73
     1
 74
     1
 75
     0
 76
     0
 77
     0
 78
     4
170
     0
171
     2
172
     0
173
     0
174
     0
175
     0
176
     0
177
     0
178
     0
  0
ENDTAB
  0
ENDSEC
  0
SECTION
  2
BLOCKS
  0
BLOCK
  8
0
  2
$MODEL_SPACE
 70
     0
 10
0.0
 20
0.0
 30
0.0
  3
$MODEL_SPACE
  1

  0
ENDBLK
  5
21
  8
0
  0
BLOCK
 67
     1
  8
0
  2
$PAPER_SPACE
 70
     0
 10
0.0
 20
0.0
 30
0.0
  3
$PAPER_SPACE
  1

  0
ENDBLK
  5
1D
 67
     1
  8
0
  0
ENDSEC
  0
SECTION
  2
ENTITIES
  0
ATTDEF
  5
3930
  8
DEFPOINTS
 10
4104.2787357032457294
 20
129.2891854755660859
 30
0.0
 40
0.001
  1
K-37335T-4
  3

  2
MODELNUMBER
 70
     0
1001
ACDBATTR
1070
     0
1070
     1
  0
ATTDEF
  5
3931
  8
DEFPOINTS
 10
4104.2787357032457294
 20
129.2875188088993923
 30
0.0
 40
0.001
  1
STRAYT
  3

  2
TRADENAME
 70
     0
1001
ACDBATTR
1070
     0
1070
     1
  0
ATTDEF
  5
3932
  8
DEFPOINTS
 10
4104.2787357032457294
 20
129.2858521422326987
 30
0.0
 40
0.001
  1
VALVE TRIM
  3

  2
PRODUCT
 70
     0
1001
ACDBATTR
1070
     0
1070
     1
  0
LINE
  5
6E89
  8
0
 10
4103.2524521887644369
 20
127.0467650449974002
 30
0.0
 11
4105.3121933210541101
 21
127.0467650449974002
 31
0.0
  0
LINE
  5
6E8A
  8
0
 10
4107.5027951958109043
 20
132.3479264622974085
 30
0.0
 11
4107.5027951958109043
 21
126.2219815803973972
 31
0.0
  0
LINE
  5
6E8B
  8
0
 10
4107.4437359024632315
 20
132.2888671310614939
 30
0.0
 11
4107.4437359024632315
 21
126.2810409890730057
 31
0.0
  0
LINE
  5
6E8C
  8
0
 10
4101.120909607358044
 20
132.2888671310614939
 30
0.0
 11
4101.120909607358044
 21
126.2810409890730057
 31
0.0
  0
LINE
  5
6E8D
  8
0
 10
4101.0618503140112807
 20
126.2219815803973972
 30
0.0
 11
4101.0618503140112807
 21
132.3479264622974085
 31
0.0
  0
LINE
  5
6E8F
  8
0
 10
4107.2862359024629768
 20
126.1235409890730068
 30
0.0
 11
4101.2784096073582987
 21
126.1235409890730068
 31
0.0
  0
LINE
  5
6E90
  8
0
 10
4107.3452951958106496
 20
132.5054264622974074
 30
0.0
 11
4101.2193503140097164
 21
132.5054264622974074
 31
0.0
  0
LINE
  5
6E91
  8
0
 10
4101.2784096073582987
 20
132.4463671310614927
 30
0.0
 11
4107.2862359024629768
 21
132.4463671310614927
 31
0.0
  0
ARC
  5
6E92
  8
0
 10
4107.3452951958106496
 20
132.3479264622974085
 30
0.0
 40
0.1575
 50
359.9999999999992042
 51
90.0
  0
ARC
  5
6E93
  8
0
 10
4107.3452951958106496
 20
126.2219815803973972
 30
0.0
 40
0.1575
 50
270.0
 51
0.0
  0
ARC
  5
6E94
  8
0
 10
4101.2193503140097164
 20
126.2219815803973972
 30
0.0
 40
0.1575
 50
180.0
 51
270.0
  0
ARC
  5
6E95
  8
0
 10
4101.2193503140097164
 20
132.3479264622974085
 30
0.0
 40
0.1575
 50
90.0
 51
180.0
  0
ARC
  5
6E96
  8
0
 10
4101.2784096073582987
 20
132.2888671310614939
 30
0.0
 40
0.1575
 50
90.0
 51
180.0000000000007958
  0
ARC
  5
6E97
  8
0
 10
4107.2862359024629768
 20
132.2888671310614939
 30
0.0
 40
0.1575
 50
359.9999999999992042
 51
90.0
  0
ARC
  5
6E98
  8
0
 10
4107.2862359024629768
 20
126.2810409890730057
 30
0.0
 40
0.1575
 50
270.0
 51
0.0
  0
ARC
  5
6E99
  8
0
 10
4101.2784096073582987
 20
126.2810409890730057
 30
0.0
 40
0.1575
 50
180.0
 51
270.0
  0
LINE
  5
6E9A
  8
0
 10
4105.312160852056877
 20
127.0467650449974002
 30
0.0
 11
4103.2524846577643984
 21
127.0467650449974002
 31
0.0
  0
LINE
  5
6E9B
  8
0
 10
4105.3397608520572248
 20
131.3527642288973141
 30
0.0
 11
4105.3397608520572248
 21
127.0743650449974069
 31
0.0
  0
LINE
  5
6E9C
  8
0
 10
4103.2248846577640506
 20
131.3527642288973141
 30
0.0
 11
4103.2248846577640506
 21
127.0743650449974069
 31
0.0
  0
LINE
  5
6E9D
  8
0
 10
4105.312160852056877
 20
131.3803642288974061
 30
0.0
 11
4103.2524846577643984
 21
131.3803642288974061
 31
0.0
  0
ARC
  5
6E9E
  8
0
 10
4105.312160852056877
 20
131.3527642288973141
 30
0.0
 40
0.0276
 50
359.9999999999959073
 51
90.0
  0
ARC
  5
6E9F
  8
0
 10
4103.2524846577643984
 20
131.3527642288973141
 30
0.0
 40
0.0276
 50
90.0
 51
180.0000000000073044
  0
ARC
  5
6EA0
  8
0
 10
4105.312160852056877
 20
127.0743650449974069
 30
0.0
 40
0.0276
 50
270.0
 51
359.9999999999984084
  0
ARC
  5
6EA1
  8
0
 10
4103.2524846577643984
 20
127.0743650449974069
 30
0.0
 40
0.0276
 50
180.0000000000015916
 51
270.0
  0
LINE
  5
6EA2
  8
0
 10
4103.2547676368103566
 20
131.387316226097397
 30
0.0
 11
4105.3098778730100094
 21
131.387316226097397
 31
0.0
  0
LINE
  5
6EA3
  8
0
 10
4105.3413778730100603
 20
131.3558162260974029
 30
0.0
 11
4105.3413778730100603
 21
129.3007020528974067
 31
0.0
  0
LINE
  5
6EA4
  8
0
 10
4103.2232676368103057
 20
131.3558162260974029
 30
0.0
 11
4103.2232676368103057
 21
129.3007088836826881
 31
0.0
  0
ARC
  5
6EA5
  8
0
 10
4103.2547676368103566
 20
131.3558162260974029
 30
0.0
 40
0.0315
 50
90.0
 51
180.0000000000065086
  0
ARC
  5
6EA6
  8
0
 10
4105.3098778730100094
 20
131.3558162260974029
 30
0.0
 40
0.0315
 50
359.9999999999935199
 51
90.0
  0
ARC
  5
6EA7
  8
0
 10
4105.309881810009756
 20
129.3007020528974067
 30
0.0
 40
0.0314960630000094
 50
341.560755161580289
 51
0.0
  0
ARC
  5
6EA8
  8
0
 10
4103.2547637277639296
 20
129.3007020594789083
 30
0.0
 40
0.0314960916927694
 50
179.9875858223105922
 51
198.4392406221475937
  0
LINE
  5
6F82
  8
0
 10
4104.4688398419102668
 20
126.0644815803973984
 30
0.0
 11
4104.0958056679100991
 21
126.0644815803973984
 31
0.0
  0
LINE
  5
6F84
  8
0
 10
4104.0854723612101225
 20
126.0748148870974035
 30
0.0
 11
4103.7705117312107177
 21
126.0748148870974035
 31
0.0
  0
LINE
  5
6F85
  8
0
 10
4104.4791731486102435
 20
126.0748148870974035
 30
0.0
 11
4104.7941337785096039
 21
126.0748148870974035
 31
0.0
  0
LINE
  5
6F86
  8
0
 10
4104.0958056679100991
 20
126.0644815803973984
 30
0.0
 11
4104.0854723612101225
 21
126.0748148870974035
 31
0.0
  0
LINE
  5
6F87
  8
0
 10
4103.760178424510741
 20
126.0644815803973984
 30
0.0
 11
4103.7705117312107177
 21
126.0748148870974035
 31
0.0
  0
LINE
  5
6F88
  8
0
 10
4104.4688398419102668
 20
126.0644815803973984
 30
0.0
 11
4104.4791731486102435
 21
126.0748148870974035
 31
0.0
  0
LINE
  5
6F89
  8
0
 10
4104.8044670852113995
 20
126.0644815803973984
 30
0.0
 11
4104.7941337785096039
 21
126.0748148870974035
 31
0.0
  0
LINE
  5
6F8A
  8
0
 10
4104.8044670852113995
 20
126.0644815803973984
 30
0.0
 11
4107.3452951958106496
 21
126.0644815803973984
 31
0.0
  0
LINE
  5
6F8B
  8
0
 10
4101.2193503140097164
 20
126.0644815803973984
 30
0.0
 11
4103.760178424510741
 21
126.0644815803973984
 31
0.0
  0
ENDSEC
  0
EOF
