  0
SECTION
  2
HEADER
  9
$ACADVER
  1
AC1009
  9
$INSBASE
 10
4118.031988569287023
 20
122.9278256393190958
 30
0.0
  9
$EXTMIN
 10
4114.8705848279432757
 20
119.7073531983691055
 30
0.0
  9
$EXTMAX
 10
4118.0426559552015533
 20
126.1482980802691003
 30
0.0
  9
$LIMMIN
 10
0.0
 20
0.0
  9
$LIMMAX
 10
11.6929133858000007
 20
8.2677165353999982
  9
$ORTHOMODE
 70
     0
  9
$REGENMODE
 70
     1
  9
$FILLMODE
 70
     1
  9
$QTEXTMODE
 70
     0
  9
$MIRRTEXT
 70
     0
  9
$DRAGMODE
 70
     2
  9
$LTSCALE
 40
0.6431102362
  9
$OSMODE
 70
     7
  9
$ATTMODE
 70
     1
  9
$TEXTSIZE
 40
0.2
  9
$TRACEWID
 40
0.05
  9
$TEXTSTYLE
  7
STANDARD
  9
$CLAYER
  8
0
  9
$CELTYPE
  6
BYLAYER
  9
$CECOLOR
 62
   256
  9
$DIMSCALE
 40
1.0
  9
$DIMASZ
 40
0.1875
  9
$DIMEXO
 40
0.0625
  9
$DIMDLI
 40
0.4443307087
  9
$DIMRND
 40
0.0
  9
$DIMDLE
 40
0.0
  9
$DIMEXE
 40
0.125
  9
$DIMTP
 40
0.01
  9
$DIMTM
 40
0.01
  9
$DIMTXT
 40
2.0
  9
$DIMCEN
 40
0.1052362205
  9
$DIMTSZ
 40
0.0
  9
$DIMTOL
 70
     1
  9
$DIMLIM
 70
     0
  9
$DIMTIH
 70
     1
  9
$DIMTOH
 70
     1
  9
$DIMSE1
 70
     0
  9
$DIMSE2
 70
     0
  9
$DIMTAD
 70
     0
  9
$DIMZIN
 70
     0
  9
$DIMBLK
  1

  9
$DIMASO
 70
     1
  9
$DIMSHO
 70
     1
  9
$DIMPOST
  1
\X
  9
$DIMAPOST
  1

  9
$DIMALT
 70
     1
  9
$DIMALTD
 70
     2
  9
$DIMALTF
 40
25.3999999999999986
  9
$DIMLFAC
 40
1.0
  9
$DIMTOFL
 70
     0
  9
$DIMTVP
 40
0.0
  9
$DIMTIX
 70
     0
  9
$DIMSOXD
 70
     0
  9
$DIMSAH
 70
     0
  9
$DIMBLK1
  1

  9
$DIMBLK2
  1

  9
$DIMSTYLE
  2
STANDARD
  9
$DIMCLRD
 70
     0
  9
$DIMCLRE
 70
     0
  9
$DIMCLRT
 70
     0
  9
$DIMTFAC
 40
1.0
  9
$DIMGAP
 40
0.09
  9
$LUNITS
 70
     2
  9
$LUPREC
 70
     4
  9
$SKETCHINC
 40
0.1
  9
$FILLETRAD
 40
0.0
  9
$AUNITS
 70
     0
  9
$AUPREC
 70
     0
  9
$MENU
  1
.
  9
$ELEVATION
 40
0.0
  9
$PELEVATION
 40
0.0
  9
$THICKNESS
 40
0.0
  9
$LIMCHECK
 70
     0
  9
$BLIPMODE
 70
     0
  9
$CHAMFERA
 40
0.0
  9
$CHAMFERB
 40
0.0
  9
$SKPOLY
 70
     0
  9
$TDCREATE
 40
2458060.468368056230247
  9
$TDUPDATE
 40
2459359.8507754630409181
  9
$TDINDWG
 40
0.4632940972
  9
$TDUSRTIMER
 40
0.4632940972
  9
$USRTIMER
 70
     1
  9
$ANGBASE
 50
0.0
  9
$ANGDIR
 70
     0
  9
$PDMODE
 70
     0
  9
$PDSIZE
 40
0.3125
  9
$PLINEWID
 40
0.0
  9
$COORDS
 70
     1
  9
$SPLFRAME
 70
     0
  9
$SPLINETYPE
 70
     6
  9
$SPLINESEGS
 70
     8
  9
$ATTDIA
 70
     1
  9
$ATTREQ
 70
     1
  9
$HANDLING
 70
     1
  9
$HANDSEED
  5
711A
  9
$SURFTAB1
 70
     6
  9
$SURFTAB2
 70
     6
  9
$SURFTYPE
 70
     6
  9
$SURFU
 70
     6
  9
$SURFV
 70
     6
  9
$UCSNAME
  2

  9
$UCSORG
 10
0.0
 20
0.0
 30
0.0
  9
$UCSXDIR
 10
1.0
 20
0.0
 30
0.0
  9
$UCSYDIR
 10
0.0
 20
1.0
 30
0.0
  9
$PUCSNAME
  2

  9
$PUCSORG
 10
0.0
 20
0.0
 30
0.0
  9
$PUCSXDIR
 10
1.0
 20
0.0
 30
0.0
  9
$PUCSYDIR
 10
0.0
 20
1.0
 30
0.0
  9
$USERI1
 70
     0
  9
$USERI2
 70
     0
  9
$USERI3
 70
     0
  9
$USERI4
 70
     0
  9
$USERI5
 70
     0
  9
$USERR1
 40
0.0
  9
$USERR2
 40
0.0
  9
$USERR3
 40
0.0
  9
$USERR4
 40
0.0
  9
$USERR5
 40
0.0
  9
$WORLDVIEW
 70
     1
  9
$SHADEDGE
 70
     3
  9
$SHADEDIF
 70
    70
  9
$TILEMODE
 70
     1
  9
$MAXACTVP
 70
    64
  9
$PLIMCHECK
 70
     0
  9
$PEXTMIN
 10
1.0000000000000000E+20
 20
1.0000000000000000E+20
 30
1.0000000000000000E+20
  9
$PEXTMAX
 10
-1.0000000000000000E+20
 20
-1.0000000000000000E+20
 30
-1.0000000000000000E+20
  9
$PLIMMIN
 10
0.0
 20
0.0
  9
$PLIMMAX
 10
12.0
 20
9.0
  9
$UNITMODE
 70
     0
  9
$VISRETAIN
 70
     1
  9
$PLINEGEN
 70
     0
  9
$PSLTSCALE
 70
     1
  0
ENDSEC
  0
SECTION
  2
TABLES
  0
TABLE
  2
VPORT
 70
     1
  0
VPORT
  2
*ACTIVE
 70
     0
 10
0.0
 20
0.0
 11
1.0
 21
1.0
 12
13.9934856259474092
 22
-6.5472109817746613
 13
0.0
 23
0.0
 14
1.0
 24
1.0
 15
0.0
 25
0.0
 16
0.0
 26
0.0
 36
34.9718207051467829
 17
4102.463134765625
 27
129.4750366210936932
 37
0.0
 40
6.4904271729261138
 41
2.3461538461538458
 42
50.0
 43
0.0
 44
0.0
 50
0.0
 51
0.0
 71
     0
 72
   100
 73
     1
 74
     1
 75
     0
 76
     0
 77
     0
 78
     0
  0
ENDTAB
  0
TABLE
  2
LTYPE
 70
     2
  0
LTYPE
  2
CONTINUOUS
 70
     0
  3
Solid line
 72
    65
 73
     0
 40
0.0
  0
LTYPE
  2
PHANTOM2
 70
     0
  3
___ _ _ ___ _ _ ___ _ _ ___ _ _
 72
    65
 73
     6
 40
1.25
 49
0.625
 49
-0.125
 49
0.125
 49
-0.125
 49
0.125
 49
-0.125
  0
ENDTAB
  0
TABLE
  2
LAYER
 70
     2
  0
LAYER
  2
0
 70
     0
 62
   255
  6
CONTINUOUS
  0
LAYER
  2
DEFPOINTS
 70
     0
 62
     7
  6
CONTINUOUS
  0
ENDTAB
  0
TABLE
  2
STYLE
 70
     1
  0
STYLE
  2
STANDARD
 70
     0
 40
0.0
 41
0.8
 50
0.0
 71
     0
 42
0.2
  3
txt
  4

  0
ENDTAB
  0
TABLE
  2
VIEW
 70
     0
  0
ENDTAB
  0
TABLE
  2
UCS
 70
     0
  0
ENDTAB
  0
TABLE
  2
APPID
 70
     9
  0
APPID
  2
ACAD
 70
     0
  0
APPID
  2
ACAD_MLEADERVER
 70
     0
  0
APPID
  2
ACAD_EXEMPT_FROM_CAD_STANDARDS
 70
     0
  0
APPID
  2
ACAD_NAV_VCDISPLAY
 70
     0
  0
APPID
  2
ACAECLAYERSTANDARD
 70
     0
  0
APPID
  2
ACCMTRANSPARENCY
 70
     0
  0
APPID
  2
ACAD_DSTYLE_DIMJAG
 70
     0
  0
APPID
  2
ACAD_DSTYLE_DIMTALN
 70
     0
  0
APPID
  2
ACDBATTR
 70
     0
  0
ENDTAB
  0
TABLE
  2
DIMSTYLE
 70
     1
  0
DIMSTYLE
  2
STANDARD
 70
     0
  3

  4

  5

  6

  7

 40
1.0
 41
0.1875
 42
0.0625
 43
0.38
 44
0.125
 45
0.0
 46
0.0
 47
0.01
 48
0.01
140
0.15625
141
0.09
142
0.0
143
25.3999999999999986
144
1.0
145
0.0
146
1.0
147
0.09
 71
     1
 72
     0
 73
     1
 74
     1
 75
     0
 76
     0
 77
     0
 78
     4
170
     0
171
     2
172
     0
173
     0
174
     0
175
     0
176
     0
177
     0
178
     0
  0
ENDTAB
  0
ENDSEC
  0
SECTION
  2
BLOCKS
  0
BLOCK
  8
0
  2
$MODEL_SPACE
 70
     0
 10
0.0
 20
0.0
 30
0.0
  3
$MODEL_SPACE
  1

  0
ENDBLK
  5
21
  8
0
  0
BLOCK
 67
     1
  8
0
  2
$PAPER_SPACE
 70
     0
 10
0.0
 20
0.0
 30
0.0
  3
$PAPER_SPACE
  1

  0
ENDBLK
  5
1D
 67
     1
  8
0
  0
ENDSEC
  0
SECTION
  2
ENTITIES
  0
ATTDEF
  5
3930
  8
DEFPOINTS
 10
4118.0319892885327135
 20
122.9311606187328039
 30
0.0
 40
0.001
  1
K-37336T-4
  3

  2
MODELNUMBER
 70
     0
1001
ACDBATTR
1070
     0
1070
     1
  0
ATTDEF
  5
3931
  8
DEFPOINTS
 10
4118.0319892885327135
 20
122.9294939520660961
 30
0.0
 40
0.001
  1
STRAYT
  3

  2
TRADENAME
 70
     0
1001
ACDBATTR
1070
     0
1070
     1
  0
ATTDEF
  5
3932
  8
DEFPOINTS
 10
4118.0319892885327135
 20
122.9278272853994025
 30
0.0
 40
0.001
  1
VALVE TRIM
  3

  2
PRODUCT
 70
     0
1001
ACDBATTR
1070
     0
1070
     1
  0
LINE
  5
7068
  8
0
 10
4117.3569101573857552
 20
119.7664149064690946
 30
0.0
 11
4118.031988569287023
 21
119.7073531983691055
 31
0.0
  0
LINE
  5
7069
  8
0
 10
4115.1186027425856082
 20
120.6896366629190993
 30
0.0
 11
4114.8981439006010987
 21
120.6896366629190993
 31
0.0
  0
LINE
  5
706A
  8
0
 10
4114.8705848454856095
 20
124.9957774559190966
 30
0.0
 11
4114.8705848454856095
 21
120.7171957180190986
 31
0.0
  0
LINE
  5
706B
  8
0
 10
4115.146161797685636
 20
122.5254621701421058
 30
0.0
 11
4115.146161797685636
 21
120.7171957180190986
 31
0.0
  0
LINE
  5
706C
  8
0
 10
4115.8548232149869364
 20
122.9492397278191049
 30
0.0
 11
4115.8548232149869364
 21
123.6031353154190953
 31
0.0
  0
LINE
  5
706D
  8
0
 10
4116.0005200702998991
 20
123.0408410204924934
 30
0.0
 11
4116.0005200702998991
 21
124.901424431445605
 31
0.0
  0
LINE
  5
706E
  8
0
 10
4116.0044294983863438
 20
122.9416051668690955
 30
0.0
 11
4116.0044294983863438
 21
125.000660185969096
 31
0.0
  0
LINE
  5
706F
  8
0
 10
4115.5364269412857539
 20
122.9191415253191053
 30
0.0
 11
4115.8275046549861145
 21
122.9216817220191018
 31
0.0
  0
LINE
  5
7070
  8
0
 10
4116.0241145377858629
 20
122.9219201275690949
 30
0.0
 11
4117.2882056887019644
 21
122.9219201275690949
 31
0.0
  0
LINE
  5
7071
  8
0
 10
4118.031988569287023
 20
119.7073531983691055
 30
0.0
 11
4118.031988569287023
 21
126.1482980802691003
 31
0.0
  0
LINE
  5
7072
  8
0
 10
4117.3030202169766198
 20
125.020345324369103
 30
0.0
 11
4116.0241145377858629
 21
125.020345324369103
 31
0.0
  0
LINE
  5
7073
  8
0
 10
4115.2445870433857635
 20
125.0203453239690958
 30
0.0
 11
4114.8983845196862603
 21
125.0233665875691003
 31
0.0
  0
LINE
  5
7074
  8
0
 10
4118.031988569287023
 20
126.1482980802691003
 30
0.0
 11
4117.3569101659868466
 21
126.0892363730690988
 31
0.0
  0
ARC
  5
7075
  8
0
 10
4114.8981439006010987
 20
120.7171957179338051
 30
0.0
 40
0.0275590550146845
 50
179.9999998226265916
 51
270.0000001609685114
  0
ARC
  5
7076
  8
0
 10
4115.1186027423300402
 20
120.7171957182745956
 30
0.0
 40
0.0275590553555425
 50
270.0000005312635949
 51
359.9999994687266849
  0
ARC
  5
7077
  8
0
 10
4117.3036468885638897
 20
122.8923925833706932
 30
0.0
 40
0.0196850106935549
 50
141.6827340907794053
 51
180.015456322498892
  0
ARC
  5
7078
  8
0
 10
4115.9182203370946809
 20
123.9711977958599931
 30
0.0
 40
0.8070194525546828
 50
90.7212440880882838
 51
114.742525076275399
  0
ARC
  5
7079
  8
0
 10
4115.3548232149869364
 20
123.0368545535190066
 30
0.0
 40
0.188713028199952
 50
258.1277840699124226
 51
320.8765082242733229
  0
ARC
  5
707A
  8
0
 10
4116.0195343605300877
 20
123.0459358756647958
 30
0.0
 40
0.0196850395717969
 50
194.999976047226113
 51
219.885542139153813
  0
ARC
  5
707B
  8
0
 10
4115.9070649625709848
 20
124.8568918117858999
 30
0.0
 40
0.0787448121469944
 50
270.7253146593615725
 51
344.9988508282904718
  0
ARC
  5
707C
  8
0
 10
4116.0195343605300877
 20
124.8963295762733026
 30
0.0
 40
0.0196850395717967
 50
140.1144578610901021
 51
165.0000239527061012
  0
ARC
  5
707D
  8
0
 10
4116.0241145374911866
 20
125.0006602851908042
 30
0.0
 40
0.0196850391055161
 50
89.999999188279304
 51
180.0002887974135035
  0
ARC
  5
707E
  8
0
 10
4114.8981439132758169
 20
124.995808552571205
 30
0.0
 40
0.0275590853329123
 50
89.4997690649029352
 51
180.0646504512866954
  0
ARC
  5
707F
  8
0
 10
4115.8272641598869086
 20
122.9492397278191049
 30
0.0
 40
0.0275590551
 50
270.5000000000175078
 51
0.0
  0
ARC
  5
7080
  8
0
 10
4116.0241145376148779
 20
122.941605166798098
 30
0.0
 40
0.0196850392285732
 50
179.999999793316988
 51
270.000000278372795
  0
ARC
  5
7081
  8
0
 10
4249.0051110866870658
 20
122.9278323567023961
 30
0.0
 40
131.7211539770914044
 50
180.0154178251547989
 51
180.4529743349825992
  0
ARC
  5
7082
  8
0
 10
4115.5338186257022244
 20
122.531447271511496
 30
0.0
 40
0.3877030277746499
 50
89.6145333121637009
 51
180.8845292547125894
  0
ARC
  5
7083
  8
0
 10
4115.246543014686722
 20
124.7846779197204938
 30
0.0
 40
0.2356755211068608
 50
52.1907578361714215
 51
90.4755274811988528
  0
ARC
  5
7084
  8
0
 10
4114.927426771093451
 20
124.4429284758826952
 30
0.0
 40
0.7025996285678477
 50
22.3867682544849487
 51
48.7133996760671693
  0
ARC
  5
7085
  8
0
 10
4113.3585965336033041
 20
123.5341629299081063
 30
0.0
 40
2.5110666319579198
 50
9.9182500888584997
 51
27.9349245326454785
  0
ARC
  5
7086
  8
0
 10
4113.7635960817242449
 20
123.655097035186202
 30
0.0
 40
2.091872592489636
 50
358.5766372690363255
 51
8.5659384614253913
  0
ARC
  5
7087
  8
0
 10
4117.3603404941450208
 20
126.0500175469702953
 30
0.0
 40
0.039368559433087
 50
94.9987320904284331
 51
178.6438396022786037
  0
ARC
  5
7088
  8
0
 10
4249.0798376484199252
 20
122.9268027986876035
 30
0.0
 40
131.7958879462620132
 50
178.6417089402046088
 51
179.0768715008395873
  0
ARC
  5
7089
  8
0
 10
4117.3207387265838406
 20
125.0498729955221933
 30
0.0
 40
0.0196853574012633
 50
179.1711973900650889
 51
207.6673558683669114
  0
ARC
  5
708A
  8
0
 10
4271.4951862772750246
 20
122.8825097231569998
 30
0.0
 40
154.2069856245958022
 50
179.1980837683694006
 51
179.9917932262673048
  0
ARC
  5
708B
  8
0
 10
4117.3603412101301728
 20
119.8056352073688942
 30
0.0
 40
0.0393700917651911
 50
181.3582804583180916
 51
265.0004044367427127
  0
ARC
  5
708C
  8
0
 10
4249.0653711379927699
 20
122.9284621297651938
 30
0.0
 40
131.7814171241620045
 50
180.4530410077979923
 51
181.3582722239443967
  0
LINE
  5
708D
  8
0
 10
4117.3209829621855533
 20
126.0509492926691024
 30
0.0
 11
4117.3209821807740809
 21
119.8047019690391011
 31
0.0
  0
LINE
  5
708E
  8
0
 10
4115.9831262054858598
 20
124.8365096442690998
 30
0.0
 11
4116.0005200702862567
 21
124.9014244314690956
 31
0.0
  0
LINE
  5
708F
  8
0
 10
4116.0005200702862567
 20
123.0408410204691023
 30
0.0
 11
4115.9831262054858598
 21
123.1057558076690981
 31
0.0
  0
ARC
  5
7090
  8
0
 10
4115.9070688106658054
 20
123.0853762901569013
 30
0.0
 40
0.0787404091991015
 50
14.9999999941711195
 51
89.2774607356365237
  0
ARC
  5
7091
  8
0
 10
4115.9182299001977299
 20
123.9703793026944965
 30
0.0
 40
0.8063329787863731
 50
265.4898409091615008
 51
269.2774607356365095
  0
ENDSEC
  0
EOF
