  0
SECTION
  2
HEADER
  9
$ACADVER
  1
AC1009
  9
$INSBASE
 10
4110.791970223671342
 20
128.7903483833559903
 30
0.0
  9
$EXTMIN
 10
4107.5496898080109531
 20
125.5654083565713961
 30
-0.0000000349181948
  9
$EXTMAX
 10
4114.1410489546633471
 20
132.011581269435311
 30
0.0000000814935746
  9
$LIMMIN
 10
0.0
 20
0.0
  9
$LIMMAX
 10
11.6929133858000007
 20
8.2677165353999982
  9
$ORTHOMODE
 70
     0
  9
$REGENMODE
 70
     1
  9
$FILLMODE
 70
     1
  9
$QTEXTMODE
 70
     0
  9
$MIRRTEXT
 70
     0
  9
$DRAGMODE
 70
     2
  9
$LTSCALE
 40
0.6431102362
  9
$OSMODE
 70
     7
  9
$ATTMODE
 70
     1
  9
$TEXTSIZE
 40
0.2
  9
$TRACEWID
 40
0.05
  9
$TEXTSTYLE
  7
STANDARD
  9
$CLAYER
  8
0
  9
$CELTYPE
  6
BYLAYER
  9
$CECOLOR
 62
   256
  9
$DIMSCALE
 40
1.0
  9
$DIMASZ
 40
0.1875
  9
$DIMEXO
 40
0.0625
  9
$DIMDLI
 40
0.4443307087
  9
$DIMRND
 40
0.0
  9
$DIMDLE
 40
0.0
  9
$DIMEXE
 40
0.125
  9
$DIMTP
 40
0.01
  9
$DIMTM
 40
0.01
  9
$DIMTXT
 40
2.0
  9
$DIMCEN
 40
0.1052362205
  9
$DIMTSZ
 40
0.0
  9
$DIMTOL
 70
     1
  9
$DIMLIM
 70
     0
  9
$DIMTIH
 70
     1
  9
$DIMTOH
 70
     1
  9
$DIMSE1
 70
     0
  9
$DIMSE2
 70
     0
  9
$DIMTAD
 70
     0
  9
$DIMZIN
 70
     0
  9
$DIMBLK
  1

  9
$DIMASO
 70
     1
  9
$DIMSHO
 70
     1
  9
$DIMPOST
  1
\X
  9
$DIMAPOST
  1

  9
$DIMALT
 70
     1
  9
$DIMALTD
 70
     2
  9
$DIMALTF
 40
25.3999999999999986
  9
$DIMLFAC
 40
1.0
  9
$DIMTOFL
 70
     0
  9
$DIMTVP
 40
0.0
  9
$DIMTIX
 70
     0
  9
$DIMSOXD
 70
     0
  9
$DIMSAH
 70
     0
  9
$DIMBLK1
  1

  9
$DIMBLK2
  1

  9
$DIMSTYLE
  2
STANDARD
  9
$DIMCLRD
 70
     0
  9
$DIMCLRE
 70
     0
  9
$DIMCLRT
 70
     0
  9
$DIMTFAC
 40
1.0
  9
$DIMGAP
 40
0.09
  9
$LUNITS
 70
     2
  9
$LUPREC
 70
     4
  9
$SKETCHINC
 40
0.1
  9
$FILLETRAD
 40
0.0
  9
$AUNITS
 70
     0
  9
$AUPREC
 70
     0
  9
$MENU
  1
.
  9
$ELEVATION
 40
0.0
  9
$PELEVATION
 40
0.0
  9
$THICKNESS
 40
0.0
  9
$LIMCHECK
 70
     0
  9
$BLIPMODE
 70
     0
  9
$CHAMFERA
 40
0.0
  9
$CHAMFERB
 40
0.0
  9
$SKPOLY
 70
     0
  9
$TDCREATE
 40
2458060.468368056230247
  9
$TDUPDATE
 40
2459360.749328704085201
  9
$TDINDWG
 40
0.462159838
  9
$TDUSRTIMER
 40
0.462159838
  9
$USRTIMER
 70
     1
  9
$ANGBASE
 50
0.0
  9
$ANGDIR
 70
     0
  9
$PDMODE
 70
     0
  9
$PDSIZE
 40
0.3125
  9
$PLINEWID
 40
0.0
  9
$COORDS
 70
     1
  9
$SPLFRAME
 70
     0
  9
$SPLINETYPE
 70
     6
  9
$SPLINESEGS
 70
     8
  9
$ATTDIA
 70
     1
  9
$ATTREQ
 70
     1
  9
$HANDLING
 70
     1
  9
$HANDSEED
  5
6F38
  9
$SURFTAB1
 70
     6
  9
$SURFTAB2
 70
     6
  9
$SURFTYPE
 70
     6
  9
$SURFU
 70
     6
  9
$SURFV
 70
     6
  9
$UCSNAME
  2

  9
$UCSORG
 10
0.0
 20
0.0
 30
0.0
  9
$UCSXDIR
 10
1.0
 20
0.0
 30
0.0
  9
$UCSYDIR
 10
0.0
 20
1.0
 30
0.0
  9
$PUCSNAME
  2

  9
$PUCSORG
 10
0.0
 20
0.0
 30
0.0
  9
$PUCSXDIR
 10
1.0
 20
0.0
 30
0.0
  9
$PUCSYDIR
 10
0.0
 20
1.0
 30
0.0
  9
$USERI1
 70
     0
  9
$USERI2
 70
     0
  9
$USERI3
 70
     0
  9
$USERI4
 70
     0
  9
$USERI5
 70
     0
  9
$USERR1
 40
0.0
  9
$USERR2
 40
0.0
  9
$USERR3
 40
0.0
  9
$USERR4
 40
0.0
  9
$USERR5
 40
0.0
  9
$WORLDVIEW
 70
     1
  9
$SHADEDGE
 70
     3
  9
$SHADEDIF
 70
    70
  9
$TILEMODE
 70
     1
  9
$MAXACTVP
 70
    64
  9
$PLIMCHECK
 70
     0
  9
$PEXTMIN
 10
1.0000000000000000E+20
 20
1.0000000000000000E+20
 30
1.0000000000000000E+20
  9
$PEXTMAX
 10
-1.0000000000000000E+20
 20
-1.0000000000000000E+20
 30
-1.0000000000000000E+20
  9
$PLIMMIN
 10
0.0
 20
0.0
  9
$PLIMMAX
 10
12.0
 20
9.0
  9
$UNITMODE
 70
     0
  9
$VISRETAIN
 70
     1
  9
$PLINEGEN
 70
     0
  9
$PSLTSCALE
 70
     1
  0
ENDSEC
  0
SECTION
  2
TABLES
  0
TABLE
  2
VPORT
 70
     1
  0
VPORT
  2
*ACTIVE
 70
     0
 10
0.0
 20
0.0
 11
1.0
 21
1.0
 12
8.3822346157121501
 22
-0.6865418080903966
 13
0.0
 23
0.0
 14
1.0
 24
1.0
 15
0.0
 25
0.0
 16
0.0
 26
0.0
 36
34.9718207051467829
 17
4102.463134765625
 27
129.4750366210936932
 37
0.0
 40
6.4956953680203018
 41
2.3461538461538458
 42
50.0
 43
0.0
 44
0.0
 50
0.0
 51
0.0
 71
     0
 72
   100
 73
     1
 74
     1
 75
     0
 76
     0
 77
     0
 78
     0
  0
ENDTAB
  0
TABLE
  2
LTYPE
 70
     2
  0
LTYPE
  2
CONTINUOUS
 70
     0
  3
Solid line
 72
    65
 73
     0
 40
0.0
  0
LTYPE
  2
PHANTOM2
 70
     0
  3
___ _ _ ___ _ _ ___ _ _ ___ _ _
 72
    65
 73
     6
 40
1.25
 49
0.625
 49
-0.125
 49
0.125
 49
-0.125
 49
0.125
 49
-0.125
  0
ENDTAB
  0
TABLE
  2
LAYER
 70
     2
  0
LAYER
  2
0
 70
     0
 62
   255
  6
CONTINUOUS
  0
LAYER
  2
DEFPOINTS
 70
     0
 62
     7
  6
CONTINUOUS
  0
ENDTAB
  0
TABLE
  2
STYLE
 70
     1
  0
STYLE
  2
STANDARD
 70
     0
 40
0.0
 41
0.8
 50
0.0
 71
     0
 42
0.2
  3
txt
  4

  0
ENDTAB
  0
TABLE
  2
VIEW
 70
     0
  0
ENDTAB
  0
TABLE
  2
UCS
 70
     0
  0
ENDTAB
  0
TABLE
  2
APPID
 70
     9
  0
APPID
  2
ACAD
 70
     0
  0
APPID
  2
ACAD_MLEADERVER
 70
     0
  0
APPID
  2
ACAD_EXEMPT_FROM_CAD_STANDARDS
 70
     0
  0
APPID
  2
ACAD_NAV_VCDISPLAY
 70
     0
  0
APPID
  2
ACAECLAYERSTANDARD
 70
     0
  0
APPID
  2
ACCMTRANSPARENCY
 70
     0
  0
APPID
  2
ACAD_DSTYLE_DIMJAG
 70
     0
  0
APPID
  2
ACAD_DSTYLE_DIMTALN
 70
     0
  0
APPID
  2
ACDBATTR
 70
     0
  0
ENDTAB
  0
TABLE
  2
DIMSTYLE
 70
     1
  0
DIMSTYLE
  2
STANDARD
 70
     0
  3

  4

  5

  6

  7

 40
1.0
 41
0.1875
 42
0.0625
 43
0.38
 44
0.125
 45
0.0
 46
0.0
 47
0.01
 48
0.01
140
0.15625
141
0.09
142
0.0
143
25.3999999999999986
144
1.0
145
0.0
146
1.0
147
0.09
 71
     1
 72
     0
 73
     1
 74
     1
 75
     0
 76
     0
 77
     0
 78
     4
170
     0
171
     2
172
     0
173
     0
174
     0
175
     0
176
     0
177
     0
178
     0
  0
ENDTAB
  0
ENDSEC
  0
SECTION
  2
BLOCKS
  0
BLOCK
  8
0
  2
$MODEL_SPACE
 70
     0
 10
0.0
 20
0.0
 30
0.0
  3
$MODEL_SPACE
  1

  0
ENDBLK
  5
21
  8
0
  0
BLOCK
 67
     1
  8
0
  2
$PAPER_SPACE
 70
     0
 10
0.0
 20
0.0
 30
0.0
  3
$PAPER_SPACE
  1

  0
ENDBLK
  5
1D
 67
     1
  8
0
  0
ENDSEC
  0
SECTION
  2
ENTITIES
  0
ATTDEF
  5
3930
  8
DEFPOINTS
 10
4110.7919708576246194
 20
128.7936851787802084
 30
0.0
 40
0.001
  1
K-37336X-4
  3

  2
MODELNUMBER
 70
     0
1001
ACDBATTR
1070
     0
1070
     1
  0
ATTDEF
  5
3931
  8
DEFPOINTS
 10
4110.7919708576246194
 20
128.7920185121134864
 30
0.0
 40
0.001
  1
STRAYT
  3

  2
TRADENAME
 70
     0
1001
ACDBATTR
1070
     0
1070
     1
  0
ATTDEF
  5
3932
  8
DEFPOINTS
 10
4110.7919708576246194
 20
128.7903518454469065
 30
0.0
 40
0.001
  1
VALVE TRIM
  3

  2
PRODUCT
 70
     0
1001
ACDBATTR
1070
     0
1070
     1
  0
LINE
  5
6E48
  8
0
 10
4111.8218390118508978
 20
126.5521594069559939
 30
0.0
 11
4109.7621014398291663
 21
126.5521594069559939
 31
0.0
  0
LINE
  5
6E49
  8
0
 10
4107.7283788376198572
 20
125.569875942406
 30
0.0
 11
4110.269825893320558
 21
125.569875942406
 31
0.0
  0
LINE
  5
6E4A
  8
0
 10
4110.6054531367190066
 20
125.569875942406
 30
0.0
 11
4110.9784873106200394
 21
125.569875942406
 31
0.0
  0
LINE
  5
6E4B
  8
0
 10
4109.7644105181188934
 20
130.8927105881060129
 30
0.0
 11
4111.8196161218211273
 21
130.8927105881060129
 31
0.0
  0
LINE
  5
6E4C
  8
0
 10
4107.7283788375198128
 20
132.0108208243059948
 30
0.0
 11
4113.8560525879493071
 21
132.0108208243059948
 31
0.0
  0
LINE
  5
6E4D
  8
0
 10
4107.7872611445200164
 20
125.6287582657059971
 30
0.0
 11
4113.79667930352025
 21
125.6287582975059962
 31
0.0
  0
LINE
  5
6E4E
  8
0
 10
4107.787261146219862
 20
131.9519384664060055
 30
0.0
 11
4113.7966793062214492
 21
131.9519385001059959
 31
0.0
  0
LINE
  5
6E4F
  8
0
 10
4113.8560525972907271
 20
125.5698759424205946
 30
0.0
 11
4111.314114554020307
 21
125.569875942406
 31
0.0
  0
LINE
  5
6E50
  8
0
 10
4111.3037812473203303
 20
125.5802092492060069
 30
0.0
 11
4110.9888206174200604
 21
125.5802092492060069
 31
0.0
  0
LINE
  5
6E51
  8
0
 10
4110.9888206174200604
 20
125.5802092492060069
 30
0.0
 11
4110.9784873106200394
 21
125.569875942406
 31
0.0
  0
LINE
  5
6E52
  8
0
 10
4111.8510253418198772
 20
128.80609658540601
 30
0.0
 11
4111.8510253418198772
 21
130.86121449660601
 31
0.0
  0
LINE
  5
6E53
  8
0
 10
4111.8493998447193007
 20
130.858200585245811
 30
0.0
 11
4111.8493998447202102
 21
126.5797184621060012
 31
0.0
  0
LINE
  5
6E54
  8
0
 10
4111.3037812473203303
 20
125.5802092492060069
 30
0.0
 11
4111.314114554020307
 21
125.569875942406
 31
0.0
  0
ARC
  5
6E55
  8
0
 10
4111.8195292788022925
 20
128.8060964149102858
 30
0.0
 40
0.0314960630180252
 50
341.5120680360976735
 51
0.0003101556941624
  0
ARC
  5
6E56
  8
0
 10
4111.8195290734711307
 20
130.8612144400483999
 30
0.0
 40
0.0314962683484758
 50
0.0001028855191914
 51
89.8416476112975886
  0
ARC
  5
6E57
  8
0
 10
4111.8216163235028944
 20
130.8581076076681882
 30
0.0
 40
0.027783676790701
 50
0.1917391649857233
 51
89.5381809484087654
  0
ARC
  5
6E58
  8
0
 10
4111.8218390118508978
 20
126.5797202398255052
 30
0.0
 40
0.0275608329268325
 50
270.0036957768946877
 51
359.9963043270228127
  0
ARC
  5
6E59
  8
0
 10
4113.8558070988883628
 20
125.7265115081389979
 30
0.0
 40
0.1566357581057577
 50
270.0898008749290966
 51
359.9102025030142045
  0
ARC
  5
6E5A
  8
0
 10
4113.8558070988892723
 20
131.8541852585790934
 30
0.0
 40
0.156635758099745
 50
0.0897966742883893
 51
89.9102025430356946
  0
ARC
  5
6E5B
  8
0
 10
4113.7965068921748752
 20
131.7948850830995866
 30
0.0
 40
0.1570535116448801
 50
2.7393985079823429
 51
89.9371004250143642
  0
ARC
  5
6E5C
  8
0
 10
4113.7965069226111154
 20
125.7858117146488013
 30
0.0
 40
0.1570535117448785
 50
270.0628874862438238
 51
357.2603684118918181
  0
LINE
  5
6E5D
  8
0
 10
4110.2801592000196251
 20
125.5802092492060069
 30
0.0
 11
4110.5951198300190299
 21
125.5802092492060069
 31
0.0
  0
LINE
  5
6E5E
  8
0
 10
4110.5951198300190299
 20
125.5802092492060069
 30
0.0
 11
4110.6054531367190066
 21
125.569875942406
 31
0.0
  0
LINE
  5
6E5F
  8
0
 10
4109.7329151055200782
 20
128.8060957680060028
 30
0.0
 11
4109.7329151055191687
 21
130.8612144379059998
 31
0.0
  0
LINE
  5
6E60
  8
0
 10
4109.7345406026197452
 20
130.858200585345088
 30
0.0
 11
4109.7345406026197452
 21
126.5797184621060012
 31
0.0
  0
LINE
  5
6E61
  8
0
 10
4110.2801592000196251
 20
125.5802092492060069
 30
0.0
 11
4110.269825893320558
 21
125.569875942406
 31
0.0
  0
ARC
  5
6E62
  8
0
 10
4109.7644111687723125
 20
128.8060964149678114
 30
0.0
 40
0.0314960632585699
 50
180.001176914794712
 51
198.4879319275993907
  0
ARC
  5
6E63
  8
0
 10
4109.7644131921815642
 20
130.8612125014975049
 30
0.0
 40
0.0314980867220433
 50
90.0048641842151227
 51
179.9964776261626866
  0
ARC
  5
6E64
  8
0
 10
4109.7623241330602468
 20
130.8581076051237915
 30
0.0
 40
0.0277836860229949
 50
90.4635269241333617
 51
179.8082554453791886
  0
ARC
  5
6E65
  8
0
 10
4109.7621014398291663
 20
126.5797202441650029
 30
0.0
 40
0.0275608372666196
 50
180.0037046937378022
 51
269.9962952027760821
  0
ARC
  5
6E66
  8
0
 10
4107.7281333484534116
 20
125.7265115081390974
 30
0.0
 40
0.1566357581060207
 50
180.0897974964979937
 51
270.0897974965159847
  0
ARC
  5
6E67
  8
0
 10
4107.7281333484515926
 20
131.8541852585732954
 30
0.0
 40
0.1566357581054866
 50
89.9102025399611904
 51
179.9102025398406965
  0
ARC
  5
6E68
  8
0
 10
4107.7874335453743697
 20
131.794885030219092
 30
0.0
 40
0.1570535308090692
 50
90.0628941345203202
 51
177.2603745339924046
  0
ARC
  5
6E69
  8
0
 10
4107.7874336112663514
 20
125.7858117431186997
 30
0.0
 40
0.1570535721090263
 50
182.739437399683311
 51
269.9370812233813126
  0
LINE
  5
6E6A
  8
0
 10
4109.7620993635200648
 20
130.8858903819410955
 30
0.0
 11
4111.8218402648199117
 21
130.8858903819410955
 31
0.0
  0
LINE
  5
6E6B
  8
0
 10
4113.9533809304202805
 20
131.8023911902436964
 30
0.0
 11
4113.9533809304202805
 21
125.7783049693339024
 31
0.0
  0
LINE
  5
6E6C
  8
0
 10
4107.6305595177200303
 20
125.778305526600505
 30
0.0
 11
4107.6305595177200303
 21
131.8023917596829904
 31
0.0
  0
LINE
  5
6E6D
  8
0
 10
4107.5714977827201437
 20
131.8544307476408903
 30
0.0
 11
4107.5714977827201437
 21
125.7262660189720975
 31
0.0
  0
LINE
  5
6E6E
  8
0
 10
4114.0124426646189022
 20
131.8544307454982061
 30
0.0
 11
4114.0124426646189022
 21
125.7262660189707049
 31
0.0
  0
ENDSEC
  0
EOF
