  0
SECTION
  2
HEADER
  9
$ACADVER
  1
AC1009
  9
$INSBASE
 10
4111.0382941682228193
 20
124.4885469302350032
 30
0.0
  9
$EXTMIN
 10
4107.5484950609970838
 20
121.3243644545037938
 30
-0.0000000349181948
  9
$EXTMAX
 10
4114.4542543692732579
 20
124.4967149101098016
 30
0.0000000814935746
  9
$LIMMIN
 10
0.0
 20
0.0
  9
$LIMMAX
 10
11.6929133858000007
 20
8.2677165353999982
  9
$ORTHOMODE
 70
     0
  9
$REGENMODE
 70
     1
  9
$FILLMODE
 70
     1
  9
$QTEXTMODE
 70
     0
  9
$MIRRTEXT
 70
     0
  9
$DRAGMODE
 70
     2
  9
$LTSCALE
 40
0.6431102362
  9
$OSMODE
 70
     7
  9
$ATTMODE
 70
     1
  9
$TEXTSIZE
 40
0.2
  9
$TRACEWID
 40
0.05
  9
$TEXTSTYLE
  7
STANDARD
  9
$CLAYER
  8
0
  9
$CELTYPE
  6
BYLAYER
  9
$CECOLOR
 62
   256
  9
$DIMSCALE
 40
1.0
  9
$DIMASZ
 40
0.1875
  9
$DIMEXO
 40
0.0625
  9
$DIMDLI
 40
0.4443307087
  9
$DIMRND
 40
0.0
  9
$DIMDLE
 40
0.0
  9
$DIMEXE
 40
0.125
  9
$DIMTP
 40
0.01
  9
$DIMTM
 40
0.01
  9
$DIMTXT
 40
2.0
  9
$DIMCEN
 40
0.1052362205
  9
$DIMTSZ
 40
0.0
  9
$DIMTOL
 70
     1
  9
$DIMLIM
 70
     0
  9
$DIMTIH
 70
     1
  9
$DIMTOH
 70
     1
  9
$DIMSE1
 70
     0
  9
$DIMSE2
 70
     0
  9
$DIMTAD
 70
     0
  9
$DIMZIN
 70
     0
  9
$DIMBLK
  1

  9
$DIMASO
 70
     1
  9
$DIMSHO
 70
     1
  9
$DIMPOST
  1
\X
  9
$DIMAPOST
  1

  9
$DIMALT
 70
     1
  9
$DIMALTD
 70
     2
  9
$DIMALTF
 40
25.3999999999999986
  9
$DIMLFAC
 40
1.0
  9
$DIMTOFL
 70
     0
  9
$DIMTVP
 40
0.0
  9
$DIMTIX
 70
     0
  9
$DIMSOXD
 70
     0
  9
$DIMSAH
 70
     0
  9
$DIMBLK1
  1

  9
$DIMBLK2
  1

  9
$DIMSTYLE
  2
STANDARD
  9
$DIMCLRD
 70
     0
  9
$DIMCLRE
 70
     0
  9
$DIMCLRT
 70
     0
  9
$DIMTFAC
 40
1.0
  9
$DIMGAP
 40
0.09
  9
$LUNITS
 70
     2
  9
$LUPREC
 70
     4
  9
$SKETCHINC
 40
0.1
  9
$FILLETRAD
 40
0.0
  9
$AUNITS
 70
     0
  9
$AUPREC
 70
     0
  9
$MENU
  1
.
  9
$ELEVATION
 40
0.0
  9
$PELEVATION
 40
0.0
  9
$THICKNESS
 40
0.0
  9
$LIMCHECK
 70
     0
  9
$BLIPMODE
 70
     0
  9
$CHAMFERA
 40
0.0
  9
$CHAMFERB
 40
0.0
  9
$SKPOLY
 70
     0
  9
$TDCREATE
 40
2458060.468368056230247
  9
$TDUPDATE
 40
2459360.7494212961755693
  9
$TDINDWG
 40
0.462784838
  9
$TDUSRTIMER
 40
0.462784838
  9
$USRTIMER
 70
     1
  9
$ANGBASE
 50
0.0
  9
$ANGDIR
 70
     0
  9
$PDMODE
 70
     0
  9
$PDSIZE
 40
0.3125
  9
$PLINEWID
 40
0.0
  9
$COORDS
 70
     1
  9
$SPLFRAME
 70
     0
  9
$SPLINETYPE
 70
     6
  9
$SPLINESEGS
 70
     8
  9
$ATTDIA
 70
     1
  9
$ATTREQ
 70
     1
  9
$HANDLING
 70
     1
  9
$HANDSEED
  5
7076
  9
$SURFTAB1
 70
     6
  9
$SURFTAB2
 70
     6
  9
$SURFTYPE
 70
     6
  9
$SURFU
 70
     6
  9
$SURFV
 70
     6
  9
$UCSNAME
  2

  9
$UCSORG
 10
0.0
 20
0.0
 30
0.0
  9
$UCSXDIR
 10
1.0
 20
0.0
 30
0.0
  9
$UCSYDIR
 10
0.0
 20
1.0
 30
0.0
  9
$PUCSNAME
  2

  9
$PUCSORG
 10
0.0
 20
0.0
 30
0.0
  9
$PUCSXDIR
 10
1.0
 20
0.0
 30
0.0
  9
$PUCSYDIR
 10
0.0
 20
1.0
 30
0.0
  9
$USERI1
 70
     0
  9
$USERI2
 70
     0
  9
$USERI3
 70
     0
  9
$USERI4
 70
     0
  9
$USERI5
 70
     0
  9
$USERR1
 40
0.0
  9
$USERR2
 40
0.0
  9
$USERR3
 40
0.0
  9
$USERR4
 40
0.0
  9
$USERR5
 40
0.0
  9
$WORLDVIEW
 70
     1
  9
$SHADEDGE
 70
     3
  9
$SHADEDIF
 70
    70
  9
$TILEMODE
 70
     1
  9
$MAXACTVP
 70
    64
  9
$PLIMCHECK
 70
     0
  9
$PEXTMIN
 10
1.0000000000000000E+20
 20
1.0000000000000000E+20
 30
1.0000000000000000E+20
  9
$PEXTMAX
 10
-1.0000000000000000E+20
 20
-1.0000000000000000E+20
 30
-1.0000000000000000E+20
  9
$PLIMMIN
 10
0.0
 20
0.0
  9
$PLIMMAX
 10
12.0
 20
9.0
  9
$UNITMODE
 70
     0
  9
$VISRETAIN
 70
     1
  9
$PLINEGEN
 70
     0
  9
$PSLTSCALE
 70
     1
  0
ENDSEC
  0
SECTION
  2
TABLES
  0
TABLE
  2
VPORT
 70
     1
  0
VPORT
  2
*ACTIVE
 70
     0
 10
0.0
 20
0.0
 11
1.0
 21
1.0
 12
8.5382399495101708
 22
-6.5644969387869017
 13
0.0
 23
0.0
 14
1.0
 24
1.0
 15
0.0
 25
0.0
 16
0.0
 26
0.0
 36
34.9718207051467829
 17
4102.463134765625
 27
129.4750366210936932
 37
0.0
 40
3.1967219059691918
 41
2.3461538461538458
 42
50.0
 43
0.0
 44
0.0
 50
0.0
 51
0.0
 71
     0
 72
   100
 73
     1
 74
     1
 75
     0
 76
     0
 77
     0
 78
     0
  0
ENDTAB
  0
TABLE
  2
LTYPE
 70
     2
  0
LTYPE
  2
CONTINUOUS
 70
     0
  3
Solid line
 72
    65
 73
     0
 40
0.0
  0
LTYPE
  2
PHANTOM2
 70
     0
  3
___ _ _ ___ _ _ ___ _ _ ___ _ _
 72
    65
 73
     6
 40
1.25
 49
0.625
 49
-0.125
 49
0.125
 49
-0.125
 49
0.125
 49
-0.125
  0
ENDTAB
  0
TABLE
  2
LAYER
 70
     2
  0
LAYER
  2
0
 70
     0
 62
   255
  6
CONTINUOUS
  0
LAYER
  2
DEFPOINTS
 70
     0
 62
     7
  6
CONTINUOUS
  0
ENDTAB
  0
TABLE
  2
STYLE
 70
     1
  0
STYLE
  2
STANDARD
 70
     0
 40
0.0
 41
0.8
 50
0.0
 71
     0
 42
0.2
  3
txt
  4

  0
ENDTAB
  0
TABLE
  2
VIEW
 70
     0
  0
ENDTAB
  0
TABLE
  2
UCS
 70
     0
  0
ENDTAB
  0
TABLE
  2
APPID
 70
     9
  0
APPID
  2
ACAD
 70
     0
  0
APPID
  2
ACAD_MLEADERVER
 70
     0
  0
APPID
  2
ACAD_EXEMPT_FROM_CAD_STANDARDS
 70
     0
  0
APPID
  2
ACAD_NAV_VCDISPLAY
 70
     0
  0
APPID
  2
ACAECLAYERSTANDARD
 70
     0
  0
APPID
  2
ACCMTRANSPARENCY
 70
     0
  0
APPID
  2
ACAD_DSTYLE_DIMJAG
 70
     0
  0
APPID
  2
ACAD_DSTYLE_DIMTALN
 70
     0
  0
APPID
  2
ACDBATTR
 70
     0
  0
ENDTAB
  0
TABLE
  2
DIMSTYLE
 70
     1
  0
DIMSTYLE
  2
STANDARD
 70
     0
  3

  4

  5

  6

  7

 40
1.0
 41
0.1875
 42
0.0625
 43
0.38
 44
0.125
 45
0.0
 46
0.0
 47
0.01
 48
0.01
140
0.15625
141
0.09
142
0.0
143
25.3999999999999986
144
1.0
145
0.0
146
1.0
147
0.09
 71
     1
 72
     0
 73
     1
 74
     1
 75
     0
 76
     0
 77
     0
 78
     4
170
     0
171
     2
172
     0
173
     0
174
     0
175
     0
176
     0
177
     0
178
     0
  0
ENDTAB
  0
ENDSEC
  0
SECTION
  2
BLOCKS
  0
BLOCK
  8
0
  2
$MODEL_SPACE
 70
     0
 10
0.0
 20
0.0
 30
0.0
  3
$MODEL_SPACE
  1

  0
ENDBLK
  5
21
  8
0
  0
BLOCK
 67
     1
  8
0
  2
$PAPER_SPACE
 70
     0
 10
0.0
 20
0.0
 30
0.0
  3
$PAPER_SPACE
  1

  0
ENDBLK
  5
1D
 67
     1
  8
0
  0
ENDSEC
  0
SECTION
  2
ENTITIES
  0
ATTDEF
  5
3930
  8
DEFPOINTS
 10
4111.0382951665378641
 20
124.4918820811084004
 30
0.0
 40
0.001
  1
K-37336X-4
  3

  2
MODELNUMBER
 70
     0
1001
ACDBATTR
1070
     0
1070
     1
  0
ATTDEF
  5
3931
  8
DEFPOINTS
 10
4111.0382951665378641
 20
124.4902154144417068
 30
0.0
 40
0.001
  1
STRAYT
  3

  2
TRADENAME
 70
     0
1001
ACDBATTR
1070
     0
1070
     1
  0
ATTDEF
  5
3932
  8
DEFPOINTS
 10
4111.0382951665378641
 20
124.488548747774999
 30
0.0
 40
0.001
  1
VALVE TRIM
  3

  2
PRODUCT
 70
     0
1001
ACDBATTR
1070
     0
1070
     1
  0
LINE
  5
6F36
  8
0
 10
4112.06782172727344
 20
122.4609878594349937
 30
0.0
 11
4110.0087667082725602
 21
122.4609878594348942
 31
0.0
  0
LINE
  5
6F37
  8
0
 10
4107.81782172727344
 20
124.4885469302350032
 30
0.0
 11
4114.258766609173108
 21
124.4885469302350032
 31
0.0
  0
LINE
  5
6F38
  8
0
 10
4107.9151704114647146
 20
123.7775409938356006
 30
0.0
 11
4114.1614179260814126
 21
123.7775409938356006
 31
0.0
  0
LINE
  5
6F39
  8
0
 10
4114.258766609173108
 20
124.4885469302350032
 30
0.0
 11
4114.1997048749726673
 21
123.8134682189350002
 31
0.0
  0
LINE
  5
6F3A
  8
0
 10
4112.0875049123069402
 20
123.7592934952911037
 30
0.0
 11
4112.0875067666729592
 21
122.4806728987348947
 31
0.0
  0
LINE
  5
6F3B
  8
0
 10
4112.0877451721562466
 20
122.2840630159350042
 30
0.0
 11
4112.0957237892725971
 21
121.3699242917350034
 31
0.0
  0
LINE
  5
6F3C
  8
0
 10
4112.0078378124562732
 20
122.284784318034994
 30
0.0
 11
4112.0070101506562423
 21
122.2610831851350071
 31
0.0
  0
LINE
  5
6F3D
  8
0
 10
4112.0601871663548081
 20
122.3113815759350018
 30
0.0
 11
4111.8428856827677009
 21
122.3113815759350018
 31
0.0
  0
ARC
  5
6F3E
  8
0
 10
4112.0671477494097417
 20
121.370664108912095
 30
0.0
 40
0.0285856149774917
 50
273.6476246699385797
 51
358.5169766202138817
  0
ARC
  5
6F3F
  8
0
 10
4112.0574106695003138
 20
122.2810216881342029
 30
0.0
 40
0.0304865826563986
 50
5.7253244827351848
 51
84.7746755172746163
  0
ARC
  5
6F40
  8
0
 10
4112.0353679377058143
 20
122.2838350938821037
 30
0.0
 40
0.0275464847286786
 50
89.9747457970793789
 51
178.0252542333153087
  0
ARC
  5
6F41
  8
0
 10
4112.0678217274444251
 20
122.4806728986641957
 30
0.0
 40
0.0196850392292642
 50
269.999999502139076
 51
0.0000002058402065
  0
ARC
  5
6F42
  8
0
 10
4114.1604859721728644
 20
123.8168986020867948
 30
0.0
 40
0.039368640633607
 50
271.3564607036822167
 51
355.0011979043940187
  0
ARC
  5
6F43
  8
0
 10
4111.0393168954997236
 20
255.4257730448447887
 30
0.0
 40
131.6852479095574893
 50
270.4560676755244799
 51
271.3585422661656139
  0
ARC
  5
6F44
  8
0
 10
4111.7710566656724041
 20
122.3935339269005027
 30
0.0
 40
0.2705868549479218
 50
304.7207211149805062
 51
330.6926466792684209
  0
ARC
  5
6F45
  8
0
 10
4111.3139047429804123
 20
122.9478543689431973
 30
0.0
 40
0.9884112404735413
 50
299.1376283468940187
 51
308.2022212797684801
  0
ARC
  5
6F46
  8
0
 10
4110.6948069129766736
 20
124.2126042791491045
 30
0.0
 40
2.3957310718343381
 50
283.0037263174432951
 51
297.3420813903376825
  0
ARC
  5
6F47
  8
0
 10
4111.0127498756446585
 20
122.8385462790146931
 30
0.0
 40
0.9853686288223567
 50
271.4854787243800729
 51
282.9684555402070032
  0
LINE
  5
6F48
  8
0
 10
4107.81782172727344
 20
124.4885469302349037
 30
0.0
 11
4107.8768834622742361
 21
123.8134682103350031
 31
0.0
  0
LINE
  5
6F49
  8
0
 10
4109.9890834245215956
 20
123.7592934156454021
 30
0.0
 11
4109.9890815697726794
 21
122.4806728987348947
 31
0.0
  0
LINE
  5
6F4A
  8
0
 10
4109.9888431642866635
 20
122.2840630159350042
 30
0.0
 11
4109.980864547173951
 21
121.3699242917350034
 31
0.0
  0
LINE
  5
6F4B
  8
0
 10
4110.0687505239866368
 20
122.284784318034994
 30
0.0
 11
4110.0695781857875772
 21
122.2610831851350071
 31
0.0
  0
LINE
  5
6F4C
  8
0
 10
4110.0164011700881019
 20
122.3113815759350018
 30
0.0
 11
4110.2337026536288249
 21
122.3113815759350018
 31
0.0
  0
ARC
  5
6F4D
  8
0
 10
4110.0191776669425963
 20
122.2810216881342029
 30
0.0
 40
0.0304865826563986
 50
95.2253244827253837
 51
174.2746755172647966
  0
ARC
  5
6F4E
  8
0
 10
4110.0412203987380053
 20
122.2838350938821037
 30
0.0
 40
0.0275464847286786
 50
1.974745766684624
 51
90.0252542029206211
  0
ARC
  5
6F4F
  8
0
 10
4110.0087666090030325
 20
122.4806728986643947
 30
0.0
 40
0.019685039229719
 50
179.9999997947020063
 51
270.0002889386483957
  0
ARC
  5
6F50
  8
0
 10
4107.9161023665983521
 20
123.8168986045421036
 30
0.0
 40
0.0393686431172323
 50
184.9988179303742868
 51
268.6435375969966799
  0
ARC
  5
6F51
  8
0
 10
4111.0372713608203412
 20
255.4257680894936868
 30
0.0
 40
131.6852429536735087
 50
268.6414577180406127
 51
269.5439323423498195
  0
ARC
  5
6F52
  8
0
 10
4110.305531670772325
 20
122.3935339269005027
 30
0.0
 40
0.2705868549479218
 50
209.3073533207308969
 51
235.2792788850194938
  0
ARC
  5
6F53
  8
0
 10
4110.7626835934643168
 20
122.9478543689431973
 30
0.0
 40
0.9884112404735413
 50
231.7977787202314914
 51
240.8623716531060097
  0
ARC
  5
6F54
  8
0
 10
4111.3817814234662364
 20
124.2126042791491045
 30
0.0
 40
2.3957310718343381
 50
242.6579186096622891
 51
256.9962736825567049
  0
ARC
  5
6F55
  8
0
 10
4111.0638384607982516
 20
122.8385462790146931
 30
0.0
 40
0.9853686288223567
 50
257.0315444597928831
 51
268.5145212756199271
  0
ARC
  5
6F56
  8
0
 10
4111.0382941682228193
 20
156.760213842516805
 30
0.0
 40
35.4330706360818368
 50
268.3331532734247276
 51
271.6668467265752724
  0
LINE
  5
6F57
  8
0
 10
4110.4912219322150122
 20
121.988546914534993
 30
0.0
 11
4111.5853664042297169
 21
121.988546914534993
 31
0.0
  0
LINE
  5
6F58
  8
0
 10
4110.758568747366553
 20
121.8993526004719996
 30
0.0
 11
4110.7598588764722081
 21
121.988546914534993
 31
0.0
  0
LINE
  5
6F59
  8
0
 10
4111.3180154951760414
 20
121.8993514975389019
 30
0.0
 11
4111.3167246061721016
 21
121.988546914534993
 31
0.0
  0
LINE
  5
6F5A
  8
0
 10
4111.312427387824755
 20
121.897853252018507
 30
0.0
 11
4111.3106111377728666
 21
121.949863850135003
 31
0.0
  0
LINE
  5
6F5B
  8
0
 10
4110.7641609485717709
 20
121.8978532520311973
 30
0.0
 11
4110.7659771986727719
 21
121.949863850135003
 31
0.0
  0
LINE
  5
6F5C
  8
0
 10
4110.7856502525737596
 20
121.9688618909350026
 30
0.0
 11
4111.2909380838736979
 21
121.9688618909350026
 31
0.0
  0
ARC
  5
6F5D
  8
0
 10
4110.7856502464846926
 20
121.9491768515060954
 30
0.0
 40
0.019685039428869
 50
89.9999822791421451
 51
177.9999980771243884
  0
ARC
  5
6F5E
  8
0
 10
4111.2909380899609459
 20
121.9491768515060954
 30
0.0
 40
0.0196850394288709
 50
2.0000019228706969
 51
90.0000177208578407
  0
ARC
  5
6F5F
  8
0
 10
4109.959559072573029
 20
123.7646146360027046
 30
0.0
 40
0.0196787780630633
 50
269.5905619000541833
 51
344.4145179972405799
  0
ARC
  5
6F60
  8
0
 10
4111.0382817305462595
 20
451.4593597204320758
 30
0.0
 40
327.7017459111972926
 50
269.8147086213317039
 51
270.185295664703176
  0
ARC
  5
6F61
  8
0
 10
4112.1170298113211174
 20
123.7646158109292003
 30
0.0
 40
0.0196799482268027
 50
195.5878433706365058
 51
270.4102451765523938
  0
ARC
  5
6F62
  8
0
 10
4110.113097317129359
 20
122.4760927202175935
 30
0.0
 40
0.0196850380655057
 50
230.1144569289847084
 51
255.0000250071639982
  0
LINE
  5
6F63
  8
0
 10
4110.1080024626726299
 20
122.457078431335006
 30
0.0
 11
4110.1729172650730106
 21
122.439684562435005
 31
0.0
  0
ARC
  5
6F64
  8
0
 10
4110.1525377977186508
 20
122.3636274149366017
 30
0.0
 40
0.0787401573230491
 50
0.72236270047449
 51
74.9999886810785057
  0
ARC
  5
6F65
  8
0
 10
4111.0382941528787342
 20
122.3747952751412953
 30
0.0
 40
0.8070865987690323
 50
180.7223627004744912
 51
201.2650995934677951
  0
ARC
  5
6F66
  8
0
 10
4111.9634910193171891
 20
122.4760927202175935
 30
0.0
 40
0.0196850380655072
 50
284.9999749928372239
 51
309.8855430710841006
  0
LINE
  5
6F67
  8
0
 10
4111.9685858737730086
 20
122.457078431335006
 30
0.0
 11
4111.9036710713726279
 21
122.439684562435005
 31
0.0
  0
ARC
  5
6F68
  8
0
 10
4111.924050538771553
 20
122.3636274148703933
 30
0.0
 40
0.0787401573983585
 50
105.0000113373185968
 51
179.277637267745888
  0
ARC
  5
6F69
  8
0
 10
4111.0382941792850033
 20
122.3747952756210964
 30
0.0
 40
0.8070866030265949
 50
338.7349004925947042
 51
359.2776372677460017
  0
LINE
  5
6F6B
  8
0
 10
4111.9036710713726279
 20
122.439684562435005
 30
0.0
 11
4110.1729172650730106
 21
122.439684562435005
 31
0.0
  0
ARC
  5
6F6C
  8
0
 10
4110.0094405870368064
 20
121.370664108912095
 30
0.0
 40
0.0285856149774917
 50
181.4830233797860899
 51
266.3523753300614771
  0
ENDSEC
  0
EOF
