  0
SECTION
  2
HEADER
  9
$ACADVER
  1
AC1009
  9
$INSBASE
 10
367.8063129035812722
 20
57.2873537612453276
 30
0.0
  9
$EXTMIN
 10
366.5582631688142214
 20
56.0120590082256911
 30
-0.0000000000112498
  9
$EXTMAX
 10
369.0641915906348913
 20
58.6242195440896907
 30
0.0000000000002956
  9
$LIMMIN
 10
0.0
 20
0.0
  9
$LIMMAX
 10
11.6929133858000007
 20
8.2677165353999982
  9
$ORTHOMODE
 70
     0
  9
$REGENMODE
 70
     1
  9
$FILLMODE
 70
     1
  9
$QTEXTMODE
 70
     0
  9
$MIRRTEXT
 70
     0
  9
$DRAGMODE
 70
     2
  9
$LTSCALE
 40
0.6431102362
  9
$OSMODE
 70
  2039
  9
$ATTMODE
 70
     1
  9
$TEXTSIZE
 40
0.2
  9
$TRACEWID
 40
0.05
  9
$TEXTSTYLE
  7
STANDARD
  9
$CLAYER
  8
0
  9
$CELTYPE
  6
BYLAYER
  9
$CECOLOR
 62
   256
  9
$DIMSCALE
 40
1.0
  9
$DIMASZ
 40
0.1875
  9
$DIMEXO
 40
0.0625
  9
$DIMDLI
 40
0.4443307087
  9
$DIMRND
 40
0.0
  9
$DIMDLE
 40
0.0
  9
$DIMEXE
 40
0.125
  9
$DIMTP
 40
0.01
  9
$DIMTM
 40
0.01
  9
$DIMTXT
 40
1.0
  9
$DIMCEN
 40
0.1052362205
  9
$DIMTSZ
 40
0.0
  9
$DIMTOL
 70
     1
  9
$DIMLIM
 70
     0
  9
$DIMTIH
 70
     0
  9
$DIMTOH
 70
     1
  9
$DIMSE1
 70
     0
  9
$DIMSE2
 70
     0
  9
$DIMTAD
 70
     0
  9
$DIMZIN
 70
     0
  9
$DIMBLK
  1

  9
$DIMASO
 70
     1
  9
$DIMSHO
 70
     1
  9
$DIMPOST
  1
\X
  9
$DIMAPOST
  1

  9
$DIMALT
 70
     1
  9
$DIMALTD
 70
     2
  9
$DIMALTF
 40
25.3999999999999986
  9
$DIMLFAC
 40
1.0
  9
$DIMTOFL
 70
     0
  9
$DIMTVP
 40
0.0
  9
$DIMTIX
 70
     0
  9
$DIMSOXD
 70
     0
  9
$DIMSAH
 70
     0
  9
$DIMBLK1
  1

  9
$DIMBLK2
  1

  9
$DIMSTYLE
  2
STANDARD
  9
$DIMCLRD
 70
     0
  9
$DIMCLRE
 70
     0
  9
$DIMCLRT
 70
     0
  9
$DIMTFAC
 40
1.0
  9
$DIMGAP
 40
0.09
  9
$LUNITS
 70
     2
  9
$LUPREC
 70
     4
  9
$SKETCHINC
 40
0.1
  9
$FILLETRAD
 40
0.0
  9
$AUNITS
 70
     0
  9
$AUPREC
 70
     0
  9
$MENU
  1
.
  9
$ELEVATION
 40
0.0
  9
$PELEVATION
 40
0.0
  9
$THICKNESS
 40
0.0
  9
$LIMCHECK
 70
     0
  9
$BLIPMODE
 70
     0
  9
$CHAMFERA
 40
0.0
  9
$CHAMFERB
 40
0.0
  9
$SKPOLY
 70
     0
  9
$TDCREATE
 40
2458172.5207638889551163
  9
$TDUPDATE
 40
2459116.7348611108027399
  9
$TDINDWG
 40
0.2829833102
  9
$TDUSRTIMER
 40
0.2829833102
  9
$USRTIMER
 70
     1
  9
$ANGBASE
 50
0.0
  9
$ANGDIR
 70
     0
  9
$PDMODE
 70
     0
  9
$PDSIZE
 40
0.3125
  9
$PLINEWID
 40
0.0
  9
$COORDS
 70
     1
  9
$SPLFRAME
 70
     0
  9
$SPLINETYPE
 70
     6
  9
$SPLINESEGS
 70
     8
  9
$ATTDIA
 70
     1
  9
$ATTREQ
 70
     1
  9
$HANDLING
 70
     1
  9
$HANDSEED
  5
1034D
  9
$SURFTAB1
 70
     6
  9
$SURFTAB2
 70
     6
  9
$SURFTYPE
 70
     6
  9
$SURFU
 70
     6
  9
$SURFV
 70
     6
  9
$UCSNAME
  2

  9
$UCSORG
 10
0.0
 20
0.0
 30
0.0
  9
$UCSXDIR
 10
1.0
 20
0.0
 30
0.0
  9
$UCSYDIR
 10
0.0
 20
1.0
 30
0.0
  9
$PUCSNAME
  2

  9
$PUCSORG
 10
0.0
 20
0.0
 30
0.0
  9
$PUCSXDIR
 10
1.0
 20
0.0
 30
0.0
  9
$PUCSYDIR
 10
0.0
 20
1.0
 30
0.0
  9
$USERI1
 70
     0
  9
$USERI2
 70
     0
  9
$USERI3
 70
     0
  9
$USERI4
 70
     0
  9
$USERI5
 70
     0
  9
$USERR1
 40
0.0
  9
$USERR2
 40
0.0
  9
$USERR3
 40
0.0
  9
$USERR4
 40
0.0
  9
$USERR5
 40
0.0
  9
$WORLDVIEW
 70
     1
  9
$SHADEDGE
 70
     3
  9
$SHADEDIF
 70
    70
  9
$TILEMODE
 70
     1
  9
$MAXACTVP
 70
    64
  9
$PLIMCHECK
 70
     0
  9
$PEXTMIN
 10
1.0000000000000000E+20
 20
1.0000000000000000E+20
 30
1.0000000000000000E+20
  9
$PEXTMAX
 10
-1.0000000000000000E+20
 20
-1.0000000000000000E+20
 30
-1.0000000000000000E+20
  9
$PLIMMIN
 10
0.0
 20
0.0
  9
$PLIMMAX
 10
12.0
 20
9.0
  9
$UNITMODE
 70
     0
  9
$VISRETAIN
 70
     1
  9
$PLINEGEN
 70
     0
  9
$PSLTSCALE
 70
     1
  0
ENDSEC
  0
SECTION
  2
TABLES
  0
TABLE
  2
VPORT
 70
     1
  0
VPORT
  2
*ACTIVE
 70
     0
 10
0.0
 20
0.0
 11
1.0
 21
1.0
 12
-61.8180617283292122
 22
-12.3844022360609909
 13
0.0
 23
0.0
 14
1.0
 24
1.0
 15
0.0
 25
0.0
 16
0.0
 26
0.0
 36
14.6338572656650907
 17
429.6292891080536833
 27
69.7025415122186871
 37
0.0
 40
2.6338983489225138
 41
2.6486111111111108
 42
50.0
 43
0.0
 44
0.0
 50
0.0
 51
0.0
 71
     0
 72
   100
 73
     1
 74
     1
 75
     0
 76
     0
 77
     0
 78
     0
  0
ENDTAB
  0
TABLE
  2
LTYPE
 70
     2
  0
LTYPE
  2
CONTINUOUS
 70
     0
  3
Solid line
 72
    65
 73
     0
 40
0.0
  0
LTYPE
  2
PHANTOM2
 70
     0
  3
___ _ _ ___ _ _ ___ _ _ ___ _ _
 72
    65
 73
     6
 40
1.25
 49
0.625
 49
-0.125
 49
0.125
 49
-0.125
 49
0.125
 49
-0.125
  0
ENDTAB
  0
TABLE
  2
LAYER
 70
     2
  0
LAYER
  2
0
 70
     0
 62
   255
  6
CONTINUOUS
  0
LAYER
  2
DEFPOINTS
 70
     0
 62
     7
  6
CONTINUOUS
  0
ENDTAB
  0
TABLE
  2
STYLE
 70
     1
  0
STYLE
  2
STANDARD
 70
     0
 40
0.0
 41
0.8
 50
0.0
 71
     0
 42
0.2
  3
txt
  4

  0
ENDTAB
  0
TABLE
  2
VIEW
 70
     0
  0
ENDTAB
  0
TABLE
  2
UCS
 70
     0
  0
ENDTAB
  0
TABLE
  2
APPID
 70
    10
  0
APPID
  2
ACAD
 70
     0
  0
APPID
  2
ACAD_MLEADERVER
 70
     0
  0
APPID
  2
ACAD_EXEMPT_FROM_CAD_STANDARDS
 70
     0
  0
APPID
  2
ACAD_DSTYLE_DIMJAG
 70
     0
  0
APPID
  2
ACAD_DSTYLE_DIMTALN
 70
     0
  0
APPID
  2
ACAD_NAV_VCDISPLAY
 70
     0
  0
APPID
  2
ACAECLAYERSTANDARD
 70
     0
  0
APPID
  2
ACCMTRANSPARENCY
 70
     0
  0
APPID
  2
DCO15
 70
     0
  0
APPID
  2
ACDBATTR
 70
     0
  0
ENDTAB
  0
TABLE
  2
DIMSTYLE
 70
     1
  0
DIMSTYLE
  2
STANDARD
 70
     0
  3

  4

  5

  6

  7

 40
1.0
 41
0.1875
 42
0.0625
 43
0.38
 44
0.125
 45
0.0
 46
0.0
 47
0.01
 48
0.01
140
0.15625
141
0.09
142
0.0
143
25.3999999999999986
144
1.0
145
0.0
146
1.0
147
0.09
 71
     1
 72
     0
 73
     1
 74
     1
 75
     0
 76
     0
 77
     0
 78
     4
170
     0
171
     2
172
     0
173
     0
174
     0
175
     0
176
     0
177
     0
178
     0
  0
ENDTAB
  0
ENDSEC
  0
SECTION
  2
BLOCKS
  0
BLOCK
  8
0
  2
$MODEL_SPACE
 70
     0
 10
0.0
 20
0.0
 30
0.0
  3
$MODEL_SPACE
  1

  0
ENDBLK
  5
21
  8
0
  0
BLOCK
 67
     1
  8
0
  2
$PAPER_SPACE
 70
     0
 10
0.0
 20
0.0
 30
0.0
  3
$PAPER_SPACE
  1

  0
ENDBLK
  5
1D
 67
     1
  8
0
  0
BLOCK
  8
0
  2
_FILLED
 70
     0
 10
0.0
 20
0.0
 30
0.0
  3
_FILLED
  1

  0
SOLID
  5
87E2
  8
0
  6
BYBLOCK
 62
     0
 10
0.0
 20
0.0
 30
0.0
 11
-1.0
 21
0.1666666667
 31
0.0
 12
-1.0
 22
-0.1666666667
 32
0.0
 13
-1.0
 23
-0.1666666667
 33
0.0
  0
ENDBLK
  5
87E3
  8
0
  6
BYBLOCK
 62
     0
  0
ENDSEC
  0
SECTION
  2
ENTITIES
  0
LINE
  5
F88F
  8
0
 10
366.9008030767257083
 20
57.0216057297453318
 30
0.0
 11
366.9008030767257083
 21
57.5531017927453235
 31
0.0
  0
LINE
  5
F890
  8
0
 10
368.7118266987257016
 20
57.5531017927453235
 30
0.0
 11
368.7118266987257016
 21
57.0216057297453318
 31
0.0
  0
LINE
  5
F891
  8
0
 10
366.566157407425294
 20
57.9960151785453277
 30
0.0
 11
366.566157407425294
 21
56.5786923439453489
 31
0.0
  0
LINE
  5
F892
  8
0
 10
369.046472368025718
 20
57.9960151785504792
 30
0.0
 11
369.046472368025718
 21
56.5786923439453204
 31
0.0
  0
ARC
  5
F893
  8
0
 10
366.7630078011260935
 20
57.9960151785444822
 30
0.0
 40
0.1968503937008554
 50
90.0000000001302709
 51
179.9999999997515943
  0
LINE
  5
F894
  8
0
 10
366.7630078011256956
 20
58.1928655722453314
 30
0.0
 11
367.5504093759257103
 21
58.1928655722471007
 31
0.0
  0
LINE
  5
F895
  8
0
 10
368.0622203995256996
 20
58.1928655722482588
 30
0.0
 11
368.8496219743257143
 21
58.1928655722500281
 31
0.0
  0
ARC
  5
F896
  8
0
 10
368.8496219743261122
 20
57.9960151785504792
 30
0.0
 40
0.196850393699556
 50
359.9999999985001864
 51
90.0000000001302709
  0
ARC
  5
F897
  8
0
 10
368.8496219743257143
 20
56.5786923439453204
 30
0.0
 40
0.1968503936999983
 50
270.0
 51
0.0
  0
LINE
  5
F898
  8
0
 10
368.8496219743257143
 20
56.381841950245331
 30
0.0
 11
368.1665511082256899
 21
56.381841950245331
 31
0.0
  0
LINE
  5
F899
  8
0
 10
367.4460786672256063
 20
56.3818419502453381
 30
0.0
 11
366.7630078011256956
 21
56.3818419502453523
 31
0.0
  0
ARC
  5
F89A
  8
0
 10
366.7630078011256956
 20
56.5786923439453489
 30
0.0
 40
0.1968503937000018
 50
180.0000000000057128
 51
270.0
  0
ARC
  5
F89B
  8
0
 10
367.0976534704257119
 20
57.5531017927453235
 30
0.0
 40
0.1968503937000019
 50
90.0
 51
180.0
  0
LINE
  5
F89C
  8
0
 10
367.0976534704257119
 20
57.7499521864453271
 30
0.0
 11
368.5149763050256979
 21
57.7499521864453413
 31
0.0
  0
ARC
  5
F89D
  8
0
 10
368.5149763050256979
 20
57.5531017927453377
 30
0.0
 40
0.1968503936999974
 50
359.9999999999951115
 51
90.0
  0
ARC
  5
F89E
  8
0
 10
368.5149763050256979
 20
57.0216057297453318
 30
0.0
 40
0.1968503937000037
 50
270.0
 51
0.0
  0
LINE
  5
F89F
  8
0
 10
368.5149763050256979
 20
56.8247553360453281
 30
0.0
 11
367.0976534704257119
 21
56.8247553360453068
 31
0.0
  0
ARC
  5
F8A0
  8
0
 10
367.0976534704257119
 20
57.0216057297453105
 30
0.0
 40
0.1968503936999977
 50
179.9999999999934914
 51
270.0
  0
ARC
  5
F8AF
  8
0
 10
367.0980355314546841
 20
56.7437983820871423
 30
0.0
 40
0.0809578554855244
 50
73.8546871758241394
 51
90.2703945849562501
  0
ARC
  5
F8B0
  8
0
 10
367.0990004839575818
 20
56.7471316422090126
 30
0.0
 40
0.0774877320910416
 50
50.3178439304780127
 51
73.8546871758241394
  0
ARC
  5
F8B1
  8
0
 10
367.0542297624047023
 20
56.6907037530130395
 30
0.0
 40
0.1495102145177539
 50
29.0589017873341291
 51
50.9215545247746277
  0
ARC
  5
F8B2
  8
0
 10
365.9551192693410258
 20
56.0799789195940832
 30
0.0
 40
1.4068998510733191
 50
25.5432296326611983
 51
29.0589017873341291
  0
ARC
  5
F8B3
  8
0
 10
367.5432694976684047
 20
56.8246076929679234
 30
0.0
 40
0.347344296705251
 50
203.406793167170207
 51
220.9969527390543931
  0
ARC
  5
F8B4
  8
0
 10
367.3602327856285115
 20
56.6714783110196194
 30
0.0
 40
0.1088357352955525
 50
223.3676668727850938
 51
250.5712971620257008
  0
LINE
  5
F8B5
  8
0
 10
367.3240303625257184
 20
56.5688401025453302
 30
0.0
 11
368.2885972696257113
 21
56.5688595490453423
 31
0.0
  0
ARC
  5
F8B6
  8
0
 10
368.2469778597708228
 20
56.6807492852987878
 30
0.0
 40
0.1193829864276899
 50
290.403543693742904
 51
323.5722656191023248
  0
ARC
  5
F8B7
  8
0
 10
367.964330922212298
 20
56.8893458401408125
 30
0.0
 40
0.4706689297888863
 50
323.5722656191023248
 51
337.8204290725607279
  0
ARC
  5
F8B8
  8
0
 10
368.6814049174967067
 20
56.5970115759501482
 30
0.0
 40
0.3037046471964539
 50
144.1244825459675951
 51
157.8204290725605858
  0
ARC
  5
F8B9
  8
0
 10
368.5420845737883155
 20
56.7062722295724271
 30
0.0
 40
0.1269718186734402
 50
121.1850944246835979
 51
147.2340604499574113
  0
ARC
  5
F8BA
  8
0
 10
368.5145551521741822
 20
56.7457617752705872
 30
0.0
 40
0.0789946834514534
 50
89.6945314015773647
 51
118.9334883153179021
  0
LINE
  5
F8BB
  8
0
 10
367.3437164625257196
 20
56.5688404994340672
 30
0.0
 11
367.3437164119256977
 21
56.4264224971453316
 31
0.0
  0
LINE
  5
F8BC
  8
0
 10
367.3437164119256977
 20
56.4264224971453316
 30
0.0
 11
367.363401495525693
 21
56.4067374643453334
 31
0.0
  0
LINE
  5
F8BD
  8
0
 10
367.363401495525693
 20
56.4067374643453334
 30
0.0
 11
368.2492283282256835
 21
56.4067374643453334
 31
0.0
  0
ARC
  5
F8BE
  8
0
 10
367.4362361475256762
 20
56.3968949446453323
 30
0.0
 40
0.0098425197000012
 50
0.0000000000065138
 51
89.9999999999902229
  0
LINE
  5
F8BF
  8
0
 10
367.4460786672256063
 20
56.3968949446453323
 30
0.0
 11
367.44607866722572
 21
56.3378398265453271
 31
0.0
  0
ARC
  5
F8C0
  8
0
 10
367.4362361475256762
 20
56.3378398265453271
 30
0.0
 40
0.0098425196999985
 50
269.9999999999544116
 51
0.0000000000040711
  0
LINE
  5
F8C1
  8
0
 10
367.4156041692256736
 20
56.3279973069453277
 30
0.0
 11
368.2197007145256862
 21
56.3279973069453277
 31
0.0
  0
ARC
  5
F8C2
  8
0
 10
367.4416551577114092
 20
56.3716984043425171
 30
0.0
 40
0.0508767128930762
 50
239.2000909095060024
 51
242.9885299229810016
  0
ARC
  5
F8C3
  8
0
 10
367.4166875313953255
 20
56.3227209199887966
 30
0.0
 40
0.004097611454568
 50
35.4762546851188674
 51
62.9885299229846467
  0
ARC
  5
F8C4
  8
0
 10
367.415195204526924
 20
56.3216625476304671
 30
0.0
 40
0.0059271412626107
 50
307.7305478660853737
 51
35.4356251984467576
  0
ARC
  5
F8C5
  8
0
 10
368.3338091272265729
 20
54.6986461624379814
 30
0.0
 40
1.859082679832621
 50
119.4833835437272995
 51
120.2096741891238025
  0
ARC
  5
F8C6
  8
0
 10
367.4044226899002865
 20
56.2954636361639729
 30
0.0
 40
0.0114975370699967
 50
121.6934718004839056
 51
178.5060705071832103
  0
ARC
  5
F8C7
  8
0
 10
367.7995599872924117
 20
56.294141704592171
 30
0.0
 40
0.406634160072261
 50
179.7714999898340125
 51
180.6857686672574914
  0
ARC
  5
F8C8
  8
0
 10
367.4060809682247282
 20
56.289704242795068
 30
0.0
 40
0.0131330367040629
 50
181.8736611677286987
 51
238.961683306644801
  0
ARC
  5
F8C9
  8
0
 10
370.8834376272271811
 20
62.2737341955668668
 30
0.0
 40
6.9341591561410487
 50
239.8372037426454142
 51
240.0095028534466053
  0
ARC
  5
F8CA
  8
0
 10
367.4315905823067965
 20
56.2738411294736522
 30
0.0
 40
0.0449166150181244
 50
93.2818830878202334
 51
106.8661738319595003
  0
ARC
  5
F8CB
  8
0
 10
367.8428631810060097
 20
49.1016150577078321
 30
0.0
 40
7.228924686767356
 50
92.5053591016402663
 51
93.2818830878202334
  0
ARC
  5
F8CC
  8
0
 10
367.7528564139424816
 20
51.1586936910036769
 30
0.0
 40
5.1698778874741587
 50
90.8540044859202141
 51
92.5053591016435206
  0
ARC
  5
F8CD
  8
0
 10
367.4535921343414202
 20
55.9245315688725881
 30
0.0
 40
0.3761556494810363
 50
90.9784069416064654
 51
99.2806889771632655
  0
ARC
  5
F8CE
  8
0
 10
367.9033074693737717
 20
44.7831309710493315
 30
0.0
 40
11.5265303041940204
 50
91.2688366644780444
 51
92.2679532752799503
  0
ARC
  5
F8CF
  8
0
 10
369.8257860367926924
 20
-33.5855371770509734
 30
0.0
 40
89.9187467897461659
 50
91.2869064666934378
 51
91.387766203316616
  0
ARC
  5
F8D0
  8
0
 10
367.4405106587522027
 20
56.0655338932119705
 30
0.0
 40
0.2287390658769148
 50
97.5861463639910909
 51
101.9995338642597034
  0
ARC
  5
F8D1
  8
0
 10
367.5496748601178183
 20
54.2113185885348727
 30
0.0
 40
2.085613638339749
 50
91.8299762225514939
 51
93.8313829175768461
  0
ARC
  5
F8D2
  8
0
 10
368.4129438473262894
 20
26.8684618474375014
 30
0.0
 40
29.4420944162175111
 50
91.1807973417810302
 51
91.809874819990327
  0
LINE
  5
F8D3
  8
0
 10
368.2197007145256862
 20
56.3279973069453277
 30
0.0
 11
368.2197006377256798
 21
56.3190762023453289
 31
0.0
  0
ARC
  5
F8D4
  8
0
 10
368.2067521919522051
 20
56.3190763138158985
 30
0.0
 40
0.0129484457739573
 50
299.1109597741627226
 51
359.9995067521322767
  0
ARC
  5
F8D5
  8
0
 10
368.569097986746101
 20
55.6683623509115293
 30
0.0
 40
0.7318489337350811
 50
119.1109597741626942
 51
120.8686877386785028
  0
ARC
  5
F8D6
  8
0
 10
368.1969363308094785
 20
56.2920675717519075
 30
0.0
 40
0.0055770409536972
 50
126.6581980661562028
 51
240.9617154965469012
  0
ARC
  5
F8D7
  8
0
 10
367.5712762561350928
 20
55.1779858629058069
 30
0.0
 40
1.2721665772690081
 50
59.6363491512592034
 51
60.6805272687525772
  0
ARC
  5
F8D8
  8
0
 10
368.2087245347444764
 20
56.2662348550347176
 30
0.0
 40
0.0109666001665583
 50
359.9691918045808734
 51
59.2039643664656197
  0
ARC
  5
F8D9
  8
0
 10
367.2434577997872793
 20
56.2616676218451417
 30
0.0
 40
0.9762439896363923
 50
359.9023170459694825
 51
0.2677058996991901
  0
ARC
  5
F8DA
  8
0
 10
368.2061252838897758
 20
56.2603688037523284
 30
0.0
 40
0.0135800081190309
 50
299.7973068142247826
 51
358.4574319917795719
  0
ARC
  5
F8DB
  8
0
 10
366.9850090440228882
 20
58.3623116705031109
 30
0.0
 40
2.4444826001515021
 50
299.6401180628581074
 51
300.1523105304847263
  0
ARC
  5
F8DC
  8
0
 10
368.1969098238809011
 20
56.2330546229240014
 30
0.0
 40
0.0055129498139171
 50
122.7274896806199962
 51
239.7865703060803071
  0
ARC
  5
F8DD
  8
0
 10
328.1104495090938258
 20
-13.1519063670779008
 30
0.0
 40
80.126859518243549
 50
59.9666515740104131
 51
59.9832732743545805
  0
ARC
  5
F8DE
  8
0
 10
368.2082593338070069
 20
56.2069265695871323
 30
0.0
 40
0.0114345411939828
 50
1.2733856742765131
 51
58.3384716992902312
  0
ARC
  5
F8DF
  8
0
 10
367.990530704694379
 20
56.2048758285813577
 30
0.0
 40
0.2291719370053577
 50
358.9541233376630203
 51
0.5762503685928066
  0
ARC
  5
F8E0
  8
0
 10
368.2066418209980156
 20
56.2010342234733287
 30
0.0
 40
0.0130271167668911
 50
298.9754945411149265
 51
358.4979982856208949
  0
ARC
  5
F8E1
  8
0
 10
368.12445063458199
 20
56.3207539995453388
 30
0.0
 40
0.1581899871849288
 50
296.0990032303449198
 51
304.0189044744499256
  0
ARC
  5
F8E2
  8
0
 10
368.1969248061976145
 20
56.1739913714999517
 30
0.0
 40
0.0055156866019741
 50
121.5089311025407
 51
239.5483129318891997
  0
ARC
  5
F8E3
  8
0
 10
365.6921102622895887
 20
150.2776783667200959
 30
0.0
 40
93.9909302687403425
 50
271.2889020821878034
 51
271.3153595250018952
  0
ARC
  5
F8E4
  8
0
 10
367.3023073582041889
 20
80.1513838775639869
 30
0.0
 40
23.8461520349506202
 50
271.3153595250018952
 51
272.1385619545304166
  0
LINE
  5
F8E5
  8
0
 10
368.1921501120256721
 20
56.3218405253453298
 30
0.0
 11
368.1921501120256721
 21
56.32214395542087
 31
0.0
  0
LINE
  5
F8E6
  8
0
 10
368.1921501120256721
 20
56.32214395542087
 30
0.0
 11
368.1921501120256721
 21
56.3279973069453277
 31
0.0
  0
ARC
  5
F8E7
  8
0
 10
368.0644076088169072
 20
50.0054443252251488
 30
0.0
 40
6.3041473710640421
 50
90.3933802971232865
 51
92.3463714567840128
  0
ARC
  5
F8E8
  8
0
 10
368.0234767307026118
 20
58.404570174550912
 30
0.0
 40
2.0951283829584391
 50
269.9356882641969833
 51
275.3738472104699895
  0
ARC
  5
F8E9
  8
0
 10
367.4154107611871041
 20
56.2626272112701002
 30
0.0
 40
0.0057146224223379
 50
302.7909526174889834
 51
70.1193304908245523
  0
ARC
  5
F8EA
  8
0
 10
374.7115909505772038
 20
43.6251071884169406
 30
0.0
 40
14.5867956358265491
 50
119.9985825173844063
 51
120.0907098668394042
  0
ARC
  5
F8EB
  8
0
 10
367.4042426493377889
 20
56.236518253593367
 30
0.0
 40
0.01130979517321
 50
122.2796472834049979
 51
176.4766751331858075
  0
ARC
  5
F8EC
  8
0
 10
367.2778166299481768
 20
56.2342828028241399
 30
0.0
 40
0.1151748888248433
 50
358.1133657981437182
 51
1.4579826498632591
  0
ARC
  5
F8ED
  8
0
 10
367.4052042247662939
 20
56.2300866701632671
 30
0.0
 40
0.0122817973192763
 50
178.1133657981428939
 51
242.623386412703212
  0
ARC
  5
F8EE
  8
0
 10
367.2907842700573156
 20
56.0091275058814233
 30
0.0
 40
0.2365452074766812
 50
57.3327452386664191
 51
62.6233864127031765
  0
ARC
  5
F8EF
  8
0
 10
367.415744545371922
 20
56.2035007151939894
 30
0.0
 40
0.0054767220117602
 50
299.744699463407926
 51
60.25530053659174
  0
ARC
  5
F8F0
  8
0
 10
379.062343194012783
 20
36.0368540035567619
 30
0.0
 40
23.2826512051595493
 50
120.0072629016417949
 51
120.0640277401497968
  0
ARC
  5
F8F1
  8
0
 10
367.5771153232146276
 20
54.7276625885618628
 30
0.0
 40
1.548601585672251
 50
90.3206429410454064
 51
95.9214454011555233
  0
ARC
  5
F8F2
  8
0
 10
368.4927611494131838
 20
25.3322259866010988
 30
0.0
 40
30.9578156787357486
 50
91.2705615737309159
 51
91.7109430154699083
  0
ARC
  5
F8F3
  8
0
 10
366.1622846409163117
 20
124.1042611463074934
 30
0.0
 40
67.841753978039776
 50
271.3886006362704961
 51
271.5859137132335945
  0
ARC
  5
F8F4
  8
0
 10
367.9990682434680025
 20
58.5404576949415727
 30
0.0
 40
2.2523332119683559
 50
271.0378613208227989
 51
274.954920944402204
  0
ARC
  5
F8F5
  8
0
 10
367.5885185493730205
 20
54.5247924124362626
 30
0.0
 40
1.7413500794117871
 50
90.5779990004047448
 51
95.6028729500700933
  0
ARC
  5
F8F6
  8
0
 10
367.5240017239710824
 20
60.9199875663835684
 30
0.0
 40
4.6541704996991156
 50
270.5779990004048159
 51
272.4617472505775027
  0
ARC
  5
F8F7
  8
0
 10
367.8256585053650269
 20
53.9034168498481066
 30
0.0
 40
2.3688816454799282
 50
90.4154095557182842
 51
92.4617472505774742
  0
ARC
  5
F8F8
  8
0
 10
367.7814219998340945
 20
60.004674323021888
 30
0.0
 40
3.732536191578971
 50
270.4154095557183268
 51
272.3578445373532873
  0
ARC
  5
F8F9
  8
0
 10
368.2026541456210111
 20
49.7744839418411402
 30
0.0
 40
6.506322717295955
 50
91.0098821447109145
 51
92.3578445373532873
  0
ARC
  5
F8FA
  8
0
 10
368.0632983608959989
 20
57.6800316319602189
 30
0.0
 40
1.400453131018166
 50
271.0098821447109003
 51
274.9915207210129893
  0
ARC
  5
F8FB
  8
0
 10
368.1702846735395269
 20
56.4129416960199279
 30
0.0
 40
0.1289119863793926
 50
276.6214660588722722
 51
281.2543545031093117
  0
ARC
  5
F8FC
  8
0
 10
367.4042338644679262
 20
56.1774760773553723
 30
0.0
 40
0.0112921788629216
 50
120.560351333518696
 51
179.12388763911909
  0
ARC
  5
F8FD
  8
0
 10
367.5521464637391205
 20
56.1752141628038828
 30
0.0
 40
0.1592220719900526
 50
179.12388763911909
 51
181.3596027462999132
  0
ARC
  5
F8FE
  8
0
 10
367.4065262347942848
 20
56.1717580123757187
 30
0.0
 40
0.0135608346833968
 50
181.3596027462990889
 51
237.6348898631638065
  0
ARC
  5
F8FF
  8
0
 10
367.5465557259710749
 20
56.3927064624539867
 30
0.0
 40
0.2751453831399285
 50
237.6348898631638065
 51
242.2649287691334052
  0
ARC
  5
F900
  8
0
 10
367.4155805904077283
 20
56.1444369336734965
 30
0.0
 40
0.0055673545020268
 50
301.9194214839534993
 51
58.2829085691546922
  0
ARC
  5
F901
  8
0
 10
367.5668108795458124
 20
55.8600881346412521
 30
0.0
 40
0.3165092633378685
 50
117.9374012839860058
 51
122.1071991045729987
  0
ARC
  5
F902
  8
0
 10
367.4050206983952194
 20
56.1179318081294625
 30
0.0
 40
0.0121091603900217
 50
122.1071991045729987
 51
176.8951804398282945
  0
ARC
  5
F903
  8
0
 10
367.4508052577090211
 20
56.1154483424495609
 30
0.0
 40
0.0579610248378853
 50
176.8951804398282945
 51
183.583272028803492
  0
ARC
  5
F904
  8
0
 10
367.4064312076853867
 20
56.1126695702663909
 30
0.0
 40
0.0135000544217768
 50
183.5832720288019004
 51
239.0597457995503134
  0
ARC
  5
F905
  8
0
 10
367.7374842777468871
 20
56.6649380439057211
 30
0.0
 40
0.6573918171995774
 50
239.0597457995503134
 51
240.9718273912149868
  0
ARC
  5
F906
  8
0
 10
367.4158595412384898
 20
56.0853839031067594
 30
0.0
 40
0.0054245021916412
 50
299.4353117860484872
 51
60.9718273912150011
  0
ARC
  5
F907
  8
0
 10
367.97084841371111
 20
55.1018551247942483
 30
0.0
 40
1.1238856882950869
 50
119.4353117860485014
 51
120.6089127265937009
  0
ARC
  5
F908
  8
0
 10
367.4044741527245037
 20
56.0592017832038323
 30
0.0
 40
0.0115492158749786
 50
120.6089127265937009
 51
178.4172366920624029
  0
ARC
  5
F909
  8
0
 10
367.4990264171520948
 20
56.0565891660944189
 30
0.0
 40
0.1061375686280551
 50
178.4172366920624029
 51
182.2821215552336014
  0
LINE
  5
F90A
  8
0
 10
367.3929730295089939
 20
56.0523627676619824
 30
0.0
 11
367.4080776001256936
 21
56.0372583581453299
 31
0.0
  0
ARC
  5
F90B
  8
0
 10
367.5575061551559202
 20
56.2769788897444769
 30
0.0
 40
0.2824797803889786
 50
238.0628627729668096
 51
240.5121399471007066
  0
ARC
  5
F90C
  8
0
 10
367.4158330501963974
 20
56.0264486828509405
 30
0.0
 40
0.0053337933614437
 50
338.883655887015891
 51
60.5121399470970829
  0
LINE
  5
F90D
  8
0
 10
367.4208086836256939
 20
56.024527114845327
 30
0.0
 11
367.4322991221256984
 21
56.0130366769453403
 31
0.0
  0
LINE
  5
F90E
  8
0
 10
367.4322991465256791
 20
56.0130366525453312
 30
0.0
 11
368.1803306533257114
 21
56.0130366769453403
 31
0.0
  0
LINE
  5
F90F
  8
0
 10
368.1803306533257114
 20
56.0130366769453403
 30
0.0
 11
368.2093769613757104
 21
56.0422518661453424
 31
0.0
  0
LINE
  5
F910
  8
0
 10
368.2093769613757104
 20
56.0422518661453424
 30
0.0
 11
368.1943268003515755
 21
56.0510054001770825
 31
0.0
  0
ARC
  5
F911
  8
0
 10
368.1971504813679985
 20
56.0558602226778007
 30
0.0
 40
0.0056162688678642
 50
122.6133791344198016
 51
239.8166921463397045
  0
LINE
  5
F912
  8
0
 10
368.1941234950256785
 20
56.0605909551453294
 30
0.0
 11
368.2127785290782072
 21
56.0713716165493068
 31
0.0
  0
ARC
  5
F913
  8
0
 10
368.2061880257783741
 20
56.0831225743840989
 30
0.0
 40
0.0135034893829039
 50
299.3409898249099115
 51
358.5292810727677875
  0
ARC
  5
F914
  8
0
 10
368.0870953074206113
 20
56.0861802235745728
 30
0.0
 40
0.1326354531224217
 50
358.5292810727677875
 51
1.2397075238508191
  0
ARC
  5
F915
  8
0
 10
368.2082511601108763
 20
56.0888020792612707
 30
0.0
 40
0.0114512348084498
 50
1.2397075238524471
 51
59.5661355434605184
  0
ARC
  5
F916
  8
0
 10
367.4679778402266948
 20
54.8287436896745035
 30
0.0
 40
1.4728723696290911
 50
59.5661355434605184
 51
60.4614368239221633
  0
ARC
  5
F917
  8
0
 10
368.1970743692218093
 20
56.1149103035929002
 30
0.0
 40
0.005580015361924
 50
121.938151723508895
 51
238.0015006203906012
  0
ARC
  5
F918
  8
0
 10
367.6639054056716986
 20
57.057633134755342
 30
0.0
 40
1.0774742589308439
 50
299.4782155199833937
 51
300.6870765614893912
  0
ARC
  5
F919
  8
0
 10
368.2072985431581742
 20
56.141565323226331
 30
0.0
 40
0.0123675262424892
 50
301.6779234309213962
 51
1.4115836004969811
  0
ARC
  5
F91A
  8
0
 10
367.9815296264114863
 20
56.1463160265390684
 30
0.0
 40
0.2381741909041586
 50
358.9303878215333157
 51
0.4324862246374823
  0
ARC
  5
F91B
  8
0
 10
368.2085705404634268
 20
56.1480421973132877
 30
0.0
 40
0.0111267221947333
 50
0.3688244075723889
 51
59.948712230223471
  0
ARC
  5
F91C
  8
0
 10
432.8614194152692107
 20
168.0687891989720981
 30
0.0
 40
129.2415114623341879
 50
239.9761759698963033
 51
239.986422738325814
  0
ARC
  5
F91D
  8
0
 10
367.4584743899856107
 20
55.7747293087713487
 30
0.0
 40
0.4671020544511894
 50
91.3826563227861897
 51
98.0634397514349274
  0
ARC
  5
F91E
  8
0
 10
367.9033418371489006
 20
44.7241939572983327
 30
0.0
 40
11.5265303041940204
 50
91.2688366644780444
 51
92.2679532752799503
  0
ARC
  5
F91F
  8
0
 10
369.8258204045678781
 20
-33.6444741908019722
 30
0.0
 40
89.9187467897461659
 50
91.2869064666934378
 51
91.387766203316616
  0
ARC
  5
F920
  8
0
 10
367.4237170690213929
 20
56.0877480010594809
 30
0.0
 40
0.1460255699546309
 50
95.2530920583496652
 51
102.1715639478079964
  0
ARC
  5
F921
  8
0
 10
367.5315637549721259
 20
54.5982783453753768
 30
0.0
 40
1.6393694599129831
 50
91.693773108424935
 51
94.2403593196131339
  0
ARC
  5
F922
  8
0
 10
368.4129782151014183
 20
26.8095248336864813
 30
0.0
 40
29.4420944162175111
 50
91.1807973417810302
 51
91.809874819990327
  0
ARC
  5
F923
  8
0
 10
365.6921446300647176
 20
150.21874135296909
 30
0.0
 40
93.9909302687403425
 50
271.2889020821878034
 51
271.3153595250018952
  0
ARC
  5
F924
  8
0
 10
367.3023417259793746
 20
80.0924468638129952
 30
0.0
 40
23.8461520349506202
 50
271.3153595250018952
 51
272.2047028978824983
  0
ARC
  5
F925
  8
0
 10
368.0644419765919793
 20
49.9465073114741287
 30
0.0
 40
6.3041473710640421
 50
90.3933802971232865
 51
92.3463714567840128
  0
ARC
  5
F926
  8
0
 10
368.0107334335426117
 20
58.9107703864385783
 30
0.0
 40
2.660284719216313
 50
270.2245498321967716
 51
274.5031354740838196
  0
ARC
  5
F927
  8
0
 10
367.567891020658692
 20
54.9787455641161529
 30
0.0
 40
1.2385574882814681
 50
89.9725994470312713
 51
96.9294922470234184
  0
ARC
  5
F928
  8
0
 10
368.4927955171883127
 20
25.2732889728501
 30
0.0
 40
30.9578156787357486
 50
91.2705615737309159
 51
91.7109430154699083
  0
ARC
  5
F929
  8
0
 10
366.1623190086913837
 20
124.0453241325565017
 30
0.0
 40
67.841753978039776
 50
271.3886006362704961
 51
271.5859137132335945
  0
ARC
  5
F92A
  8
0
 10
367.9984184145490076
 20
58.5009492149342805
 30
0.0
 40
2.271770975561457
 50
271.0462389834310102
 51
274.9325490721171263
  0
ARC
  5
F92B
  8
0
 10
367.5864372631211836
 20
54.5319198838948083
 30
0.0
 40
1.67526824018844
 50
90.5284383818146381
 51
95.754593752397767
  0
ARC
  5
F92C
  8
0
 10
367.5240360917462112
 20
60.8610505526325625
 30
0.0
 40
4.6541704996991156
 50
270.5779990004048159
 51
272.4617472505775027
  0
ARC
  5
F92D
  8
0
 10
367.8256928731402127
 20
53.8444798360970935
 30
0.0
 40
2.3688816454799282
 50
90.4154095557182842
 51
92.4617472505774742
  0
ARC
  5
F92E
  8
0
 10
367.7814563676092234
 20
59.9457373092708679
 30
0.0
 40
3.732536191578971
 50
270.4154095557183268
 51
272.3578445373532873
  0
ARC
  5
F92F
  8
0
 10
368.2026885133960832
 20
49.7155469280901272
 30
0.0
 40
6.506322717295955
 50
91.0098821447109145
 51
92.3578445373532873
  0
ARC
  5
F930
  8
0
 10
368.0633327286711278
 20
57.621094618209213
 30
0.0
 40
1.400453131018166
 50
271.0098821447109003
 51
275.4525967933914217
  0
ARC
  5
F931
  8
0
 10
367.4536060791414229
 20
55.8064169198726034
 30
0.0
 40
0.3761556494810363
 50
90.9784069416064654
 51
99.2806889771632655
  0
ARC
  5
F932
  8
0
 10
367.9033214141738881
 20
44.6650163220493397
 30
0.0
 40
11.5265303041940204
 50
91.2688366644780444
 51
92.2679532752799503
  0
ARC
  5
F933
  8
0
 10
369.8257999815928088
 20
-33.7036518260509723
 30
0.0
 40
89.9187467897461659
 50
91.2869064666934378
 51
91.387766203316616
  0
ARC
  5
F934
  8
0
 10
367.434441229364495
 20
55.9635252137694721
 30
0.0
 40
0.2120069026698627
 50
96.531048455864024
 51
101.2807298978326997
  0
ARC
  5
F935
  8
0
 10
367.549688804917821
 20
54.0932039395348809
 30
0.0
 40
2.085613638339749
 50
91.8299762225514939
 51
93.8313829175768461
  0
ARC
  5
F936
  8
0
 10
368.4129577921261784
 20
26.750347198437499
 30
0.0
 40
29.4420944162175111
 50
91.1807973417810302
 51
91.809874819990327
  0
ARC
  5
F937
  8
0
 10
365.6921242070895914
 20
150.1595637177200899
 30
0.0
 40
93.9909302687403425
 50
271.2889020821878034
 51
271.3153595250018952
  0
ARC
  5
F938
  8
0
 10
367.3023213030043053
 20
80.0332692285639951
 30
0.0
 40
23.8461520349506202
 50
271.3153595250018952
 51
272.2047603919862127
  0
ARC
  5
F939
  8
0
 10
368.0644215536169099
 20
49.8873296762251499
 30
0.0
 40
6.3041473710640421
 50
90.3933802971232865
 51
92.3463714567840128
  0
ARC
  5
F93A
  8
0
 10
368.0136160911745833
 20
58.7231937887447231
 30
0.0
 40
2.531876502668029
 50
270.1702418445241847
 51
274.6665596562277756
  0
ARC
  5
F93B
  8
0
 10
367.5685811389583932
 20
54.8957759597654729
 30
0.0
 40
1.262349321288037
 50
90.0053660720899842
 51
96.8277228410758681
  0
ARC
  5
F93C
  8
0
 10
368.4927750942131865
 20
25.2141113376011106
 30
0.0
 40
30.9578156787357486
 50
91.2705615737309159
 51
91.7109430154699083
  0
ARC
  5
F93D
  8
0
 10
366.1622985857162007
 20
123.9861464973075016
 30
0.0
 40
67.841753978039776
 50
271.3886006362704961
 51
271.5859137132335945
  0
ARC
  5
F93E
  8
0
 10
367.9983979915738246
 20
58.4417715796852875
 30
0.0
 40
2.271770975561457
 50
271.0462389834310102
 51
274.929606856025714
  0
ARC
  5
F93F
  8
0
 10
367.5885723309643822
 20
54.4054337995946113
 30
0.0
 40
1.7425943820362579
 50
90.578896149064434
 51
95.6000238573816006
  0
ARC
  5
F940
  8
0
 10
367.5240156687710851
 20
60.8018729173835766
 30
0.0
 40
4.6541704996991156
 50
270.5779990004048159
 51
272.4617472505775027
  0
ARC
  5
F941
  8
0
 10
367.8256724501649728
 20
53.7853022008481219
 30
0.0
 40
2.3688816454799282
 50
90.4154095557182842
 51
92.4617472505774742
  0
ARC
  5
F942
  8
0
 10
367.7814359446339836
 20
59.8865596740218891
 30
0.0
 40
3.732536191578971
 50
270.4154095557183268
 51
272.3578445373532873
  0
ARC
  5
F943
  8
0
 10
368.2026680904210139
 20
49.6563692928411413
 30
0.0
 40
6.506322717295955
 50
91.0098821447109145
 51
92.3578445373532873
  0
ARC
  5
F944
  8
0
 10
368.0633123056960017
 20
57.5619169829602271
 30
0.0
 40
1.400453131018166
 50
271.0098821447109003
 51
275.4606243109756178
  0
ARC
  5
F945
  8
0
 10
367.4534883791915263
 20
55.7493109247280429
 30
0.0
 40
0.3742094577280877
 50
90.9676075353960982
 51
99.313248289438576
  0
ARC
  5
F946
  8
0
 10
367.9033074693737717
 20
44.6059656166493497
 30
0.0
 40
11.5265303041940204
 50
91.2688366644780444
 51
92.2679532752799503
  0
ARC
  5
F947
  8
0
 10
369.8257860367926924
 20
-33.7627025314509623
 30
0.0
 40
89.9187467897461659
 50
91.2869064666934378
 51
91.387766203316616
  0
ARC
  5
F948
  8
0
 10
367.4125552407954842
 20
56.0430798286652774
 30
0.0
 40
0.0720606196284831
 50
91.7828843311193054
 51
105.8089943642031017
  0
ARC
  5
F949
  8
0
 10
367.5496748601178183
 20
54.0341532341348909
 30
0.0
 40
2.085613638339749
 50
91.8299762225514939
 51
93.8313829175768461
  0
ARC
  5
F94A
  8
0
 10
368.4129438473262894
 20
26.691296493037509
 30
0.0
 40
29.4420944162175111
 50
91.1807973417810302
 51
91.809874819990327
  0
ARC
  5
F94B
  8
0
 10
365.6921102622895887
 20
150.100513012320107
 30
0.0
 40
93.9909302687403425
 50
271.2889020821878034
 51
271.3153595250018952
  0
ARC
  5
F94C
  8
0
 10
367.3023073582041889
 20
79.9742185231640121
 30
0.0
 40
23.8461520349506202
 50
271.3153595250018952
 51
272.204795013449484
  0
ARC
  5
F94D
  8
0
 10
368.0644076088169072
 20
49.828278970825167
 30
0.0
 40
6.3041473710640421
 50
90.3933802971232865
 51
92.3463714567840128
  0
ARC
  5
F94E
  8
0
 10
368.0178524785218883
 20
58.4761571774753293
 30
0.0
 40
2.3438817050749621
 50
270.0799974924685785
 51
274.9390725427405187
  0
ARC
  5
F94F
  8
0
 10
367.5697600472274189
 20
54.7967834179601709
 30
0.0
 40
1.302291812120159
 50
90.0576823995030793
 51
96.6790456167689314
  0
ARC
  5
F950
  8
0
 10
368.4927611494131838
 20
25.1550606322011205
 30
0.0
 40
30.9578156787357486
 50
91.2705615737309159
 51
91.7109430154699083
  0
ARC
  5
F951
  8
0
 10
366.1622846409163117
 20
123.9270957919075045
 30
0.0
 40
67.841753978039776
 50
271.3886006362704961
 51
271.5859137132335945
  0
ARC
  5
F952
  8
0
 10
367.9983840467738219
 20
58.3827208742852974
 30
0.0
 40
2.271770975561457
 50
271.0462389834310102
 51
274.9323767789160797
  0
ARC
  5
F953
  8
0
 10
367.5885185493730205
 20
54.3476270580362808
 30
0.0
 40
1.7413500794117871
 50
90.5779990004047448
 51
95.602211960373964
  0
ARC
  5
F954
  8
0
 10
367.5240017239710824
 20
60.7428222119835866
 30
0.0
 40
4.6541704996991156
 50
270.5779990004048159
 51
272.4617472505775027
  0
ARC
  5
F955
  8
0
 10
367.8256585053650269
 20
53.7262514954481318
 30
0.0
 40
2.3688816454799282
 50
90.4154095557182842
 51
92.4617472505774742
  0
ARC
  5
F956
  8
0
 10
367.7814219998340945
 20
59.827508968621899
 30
0.0
 40
3.732536191578971
 50
270.4154095557183268
 51
272.3578445373532873
  0
ARC
  5
F957
  8
0
 10
368.2026541456210111
 20
49.5973185874411513
 30
0.0
 40
6.506322717295955
 50
91.0098821447109145
 51
92.3578445373532873
  0
ARC
  5
F958
  8
0
 10
368.0632983608959989
 20
57.5028662775602371
 30
0.0
 40
1.400453131018166
 50
271.0098821447109003
 51
275.4617306197717994
  0
ARC
  5
F959
  8
0
 10
367.4535921343414202
 20
55.6882787286788812
 30
0.0
 40
0.3761556494810363
 50
90.9784069416064654
 51
99.2806889771632655
  0
ARC
  5
F95A
  8
0
 10
367.9033074693737717
 20
44.5468781308556387
 30
0.0
 40
11.5265303041940204
 50
91.2688366644780444
 51
92.2679532752799503
  0
ARC
  5
F95B
  8
0
 10
369.8257860367926924
 20
-33.8217900172446804
 30
0.0
 40
89.9187467897461659
 50
91.2869064666934378
 51
91.387766203316616
  0
ARC
  5
F95C
  8
0
 10
367.412574120811712
 20
55.9837881910082373
 30
0.0
 40
0.072265261144566
 50
91.7928102780613244
 51
105.7661887425618943
  0
ARC
  5
F95D
  8
0
 10
367.5496748601178183
 20
53.9750657483411729
 30
0.0
 40
2.085613638339749
 50
91.8299762225514939
 51
93.8313829175768461
  0
ARC
  5
F95E
  8
0
 10
368.4129438473262894
 20
26.6322090072438016
 30
0.0
 40
29.4420944162175111
 50
91.1807973417810302
 51
91.809874819990327
  0
ARC
  5
F95F
  8
0
 10
365.6921102622895887
 20
150.0414255265264103
 30
0.0
 40
93.9909302687403425
 50
271.2889020821878034
 51
271.3153595250018952
  0
ARC
  5
F960
  8
0
 10
367.6888448574156882
 20
65.3636613327412164
 30
0.0
 40
9.2897914618820234
 50
270.992164508166411
 51
273.2758884554884844
  0
ARC
  5
F961
  8
0
 10
368.0644076088169072
 20
49.769191485031449
 30
0.0
 40
6.3041473710640421
 50
90.3933802971232865
 51
92.3463714567840128
  0
ARC
  5
F962
  8
0
 10
368.0234767307026118
 20
58.1683173343572122
 30
0.0
 40
2.0951283829584391
 50
269.9356882641969833
 51
275.3738472104699895
  0
ARC
  5
F963
  8
0
 10
367.5697600472274189
 20
54.7376959321664671
 30
0.0
 40
1.302291812120159
 50
90.0576823995030793
 51
96.6767512468301646
  0
ARC
  5
F964
  8
0
 10
368.4927611494131838
 20
25.095973146407399
 30
0.0
 40
30.9578156787357486
 50
91.2705615737309159
 51
91.7109430154699083
  0
ARC
  5
F965
  8
0
 10
366.1622846409163117
 20
123.8680083061137935
 30
0.0
 40
67.841753978039776
 50
271.3886006362704961
 51
271.5859137132335945
  0
ARC
  5
F966
  8
0
 10
367.9983840467738219
 20
58.3236333884915865
 30
0.0
 40
2.271770975561457
 50
271.0462389834310102
 51
274.9288788715380178
  0
ARC
  5
F967
  8
0
 10
367.9147644216290018
 20
44.1019628532807886
 30
0.0
 40
11.9327922483483508
 50
91.6510569562547346
 51
92.3724261101591111
  0
ARC
  5
F968
  8
0
 10
367.5240017239710824
 20
60.6837347261898685
 30
0.0
 40
4.6541704996991156
 50
270.5779990004048159
 51
272.4617472505775027
  0
ARC
  5
F969
  8
0
 10
367.8256585053650269
 20
53.6671640096544067
 30
0.0
 40
2.3688816454799282
 50
90.4154095557182842
 51
92.4617472505774742
  0
ARC
  5
F96A
  8
0
 10
367.7814219998340945
 20
59.7684214828281881
 30
0.0
 40
3.732536191578971
 50
270.4154095557183268
 51
272.3578445373532873
  0
ARC
  5
F96B
  8
0
 10
368.2026541456210111
 20
49.5382311016474404
 30
0.0
 40
6.506322717295955
 50
91.0098821447109145
 51
92.3578445373532873
  0
ARC
  5
F96C
  8
0
 10
368.0787551694530748
 20
57.0023227062941871
 30
0.0
 40
0.9588239014186125
 50
270.5513188031505933
 51
276.9671175987176071
  0
ARC
  5
F96D
  8
0
 10
368.1763936279256768
 20
56.3968949446453323
 30
0.0
 40
0.0098425197000008
 50
89.9999999999934914
 51
179.9999999999951115
  0
LINE
  5
F96E
  8
0
 10
368.1665511082256899
 20
56.3968949446453323
 30
0.0
 11
368.1665511082256899
 21
56.3378398265453271
 31
0.0
  0
ARC
  5
F96F
  8
0
 10
368.1763936279256768
 20
56.3378398265453271
 30
0.0
 40
0.0098425196999994
 50
179.9999999999951115
 51
270.0000000000326281
  0
ARC
  5
F970
  8
0
 10
367.6586770924257053
 20
57.7597947061453283
 30
0.0
 40
0.0098425196999994
 50
179.9999999999984084
 51
270.0000000000064801
  0
LINE
  5
F971
  8
0
 10
367.6488345727257183
 20
57.7597947061453283
 30
0.0
 11
367.6488345727257183
 21
57.8759364383453274
 31
0.0
  0
LINE
  5
F972
  8
0
 10
367.5779684310256812
 20
57.8759364384453434
 30
0.0
 11
368.0346612912256887
 21
57.8759364383453274
 31
0.0
  0
LINE
  5
F973
  8
0
 10
367.9637952027256915
 20
57.8759364383453274
 30
0.0
 11
367.9637952027256915
 21
57.7597947061453283
 31
0.0
  0
ARC
  5
F974
  8
0
 10
367.9539526830257046
 20
57.7597947061453283
 30
0.0
 40
0.0098425196999994
 50
269.9999999999935199
 51
359.9999999999959073
  0
ARC
  5
F975
  8
0
 10
367.577968431196382
 20
57.9034954936160418
 30
0.0
 40
0.0275590552707095
 50
180.0000001470068867
 51
269.9999996450903836
  0
LINE
  5
F976
  8
0
 10
367.5504093759257103
 20
57.9034954935453428
 30
0.0
 11
367.5504093746075114
 21
58.4172750210453415
 31
0.0
  0
ARC
  5
F977
  8
0
 10
367.540566854882286
 20
58.4172750210200888
 30
0.0
 40
0.0098425197252485
 50
0.0000001470118529
 51
89.9999921792706914
  0
LINE
  5
F978
  8
0
 10
367.4204881160256946
 20
58.4271175407453285
 30
0.0
 11
368.1921416594257153
 21
58.4271175407453285
 31
0.0
  0
ARC
  5
F979
  8
0
 10
368.1921416594257153
 20
58.4940466746453325
 30
0.0
 40
0.0669291338999996
 50
270.0
 51
359.9999999999006945
  0
LINE
  5
F97A
  8
0
 10
368.2590707933256908
 20
58.4940466746452188
 30
0.0
 11
368.2590707933258045
 21
58.5964088793453328
 31
0.0
  0
ARC
  5
F97B
  8
0
 10
368.2315117382258904
 20
58.5964088793453826
 30
0.0
 40
0.0275590550999523
 50
359.9999999998998987
 51
90.0000002083691726
  0
LINE
  5
F97C
  8
0
 10
368.2315117381256755
 20
58.6239679344453322
 30
0.0
 11
367.3811180373256775
 21
58.6239679313526807
 31
0.0
  0
ARC
  5
F97D
  8
0
 10
367.3811180374258925
 20
58.5964088761524522
 30
0.0
 40
0.027559055200225
 50
90.0000002083691726
 51
179.9999933619565979
  0
LINE
  5
F97E
  8
0
 10
367.3535589822257066
 20
58.5964088793453328
 30
0.0
 11
367.353558970366521
 21
58.4940466746453325
 31
0.0
  0
ARC
  5
F97F
  8
0
 10
367.4204880965123152
 20
58.494046666891208
 30
0.0
 40
0.0669291261458835
 50
179.9999933619558021
 51
270.0000167047348896
  0
ARC
  5
F980
  8
0
 10
368.0720629192256865
 20
58.4172750210453273
 30
0.0
 40
0.0098425197000007
 50
89.9999999999934914
 51
179.9999999999951115
  0
LINE
  5
F981
  8
0
 10
368.0622203995256996
 20
58.4172750210453273
 30
0.0
 11
368.0622203995256996
 21
57.9034954935453428
 31
0.0
  0
ARC
  5
F982
  8
0
 10
368.0346613443256274
 20
57.9034954935453428
 30
0.0
 40
0.0275590552000509
 50
269.9998896042346814
 51
0.0
  0
LINE
  5
F996
  8
0
 10
368.2492283282256835
 20
56.4067374643453334
 30
0.0
 11
368.2689133635257122
 21
56.4264224971453316
 31
0.0
  0
LINE
  5
F997
  8
0
 10
368.2689133635257122
 20
56.4264224971453316
 30
0.0
 11
368.2689133635257122
 21
56.5688591522008295
 31
0.0
  0
LINE
  5
F998
  8
0
 10
367.3437164119256977
 20
56.4264224971453316
 30
0.0
 11
368.2689133635257122
 21
56.4264224971453316
 31
0.0
  0
ATTDEF
  5
FA5B
  8
DEFPOINTS
 10
367.807171190795998
 20
57.285696424120303
 30
0.0
 40
0.001
  1
K-37343X
  3

  2
MODELNUMBER
 70
     0
1001
ACDBATTR
1070
     0
1070
     1
  0
ATTDEF
  5
FA5C
  8
DEFPOINTS
 10
367.807171190795998
 20
57.2840297574536379
 30
0.0
 40
0.001
  1
STRAYT
  3

  2
TRADENAME
 70
     0
1001
ACDBATTR
1070
     0
1070
     1
  0
ATTDEF
  5
FA5D
  8
DEFPOINTS
 10
367.807171190795998
 20
57.2823630907869727
 30
0.0
 40
0.001
  1
BATH FAUCET
  3

  2
PRODUCT
 70
     0
1001
ACDBATTR
1070
     0
1070
     1
  0
ENDSEC
  0
EOF
