  0
SECTION
  2
HEADER
  9
$ACADVER
  1
AC1009
  9
$INSBASE
 10
4087.8022052485548556
 20
50.0557317328667324
 30
0.0
  9
$EXTMIN
 10
4082.408504461254779
 20
47.0636269452285205
 30
0.0
  9
$EXTMAX
 10
4087.8129359267531981
 20
50.6069783181477533
 30
0.0
  9
$LIMMIN
 10
0.0
 20
0.0
  9
$LIMMAX
 10
11.6929133858000007
 20
8.2677165353999982
  9
$ORTHOMODE
 70
     0
  9
$REGENMODE
 70
     1
  9
$FILLMODE
 70
     1
  9
$QTEXTMODE
 70
     0
  9
$MIRRTEXT
 70
     0
  9
$DRAGMODE
 70
     2
  9
$LTSCALE
 40
0.6431102362
  9
$OSMODE
 70
  4095
  9
$ATTMODE
 70
     1
  9
$TEXTSIZE
 40
0.2
  9
$TRACEWID
 40
0.05
  9
$TEXTSTYLE
  7
STANDARD
  9
$CLAYER
  8
0
  9
$CELTYPE
  6
BYLAYER
  9
$CECOLOR
 62
   256
  9
$DIMSCALE
 40
1.0
  9
$DIMASZ
 40
0.1875
  9
$DIMEXO
 40
0.0625
  9
$DIMDLI
 40
0.4443307087
  9
$DIMRND
 40
0.0
  9
$DIMDLE
 40
0.0
  9
$DIMEXE
 40
0.125
  9
$DIMTP
 40
0.01
  9
$DIMTM
 40
0.01
  9
$DIMTXT
 40
2.0
  9
$DIMCEN
 40
0.1052362205
  9
$DIMTSZ
 40
0.0
  9
$DIMTOL
 70
     1
  9
$DIMLIM
 70
     0
  9
$DIMTIH
 70
     1
  9
$DIMTOH
 70
     1
  9
$DIMSE1
 70
     0
  9
$DIMSE2
 70
     0
  9
$DIMTAD
 70
     0
  9
$DIMZIN
 70
     0
  9
$DIMBLK
  1

  9
$DIMASO
 70
     1
  9
$DIMSHO
 70
     1
  9
$DIMPOST
  1
\X
  9
$DIMAPOST
  1

  9
$DIMALT
 70
     1
  9
$DIMALTD
 70
     2
  9
$DIMALTF
 40
25.3999999999999986
  9
$DIMLFAC
 40
1.0
  9
$DIMTOFL
 70
     0
  9
$DIMTVP
 40
0.0
  9
$DIMTIX
 70
     0
  9
$DIMSOXD
 70
     0
  9
$DIMSAH
 70
     0
  9
$DIMBLK1
  1

  9
$DIMBLK2
  1

  9
$DIMSTYLE
  2
STANDARD
  9
$DIMCLRD
 70
     0
  9
$DIMCLRE
 70
     0
  9
$DIMCLRT
 70
     0
  9
$DIMTFAC
 40
1.0
  9
$DIMGAP
 40
0.09
  9
$LUNITS
 70
     2
  9
$LUPREC
 70
     4
  9
$SKETCHINC
 40
0.1
  9
$FILLETRAD
 40
0.0
  9
$AUNITS
 70
     0
  9
$AUPREC
 70
     0
  9
$MENU
  1
.
  9
$ELEVATION
 40
0.0
  9
$PELEVATION
 40
0.0
  9
$THICKNESS
 40
0.0
  9
$LIMCHECK
 70
     0
  9
$BLIPMODE
 70
     0
  9
$CHAMFERA
 40
0.0
  9
$CHAMFERB
 40
0.0
  9
$SKPOLY
 70
     0
  9
$TDCREATE
 40
2458060.468368056230247
  9
$TDUPDATE
 40
2459084.1078125000931323
  9
$TDINDWG
 40
0.4246251157
  9
$TDUSRTIMER
 40
0.4246251157
  9
$USRTIMER
 70
     1
  9
$ANGBASE
 50
0.0
  9
$ANGDIR
 70
     0
  9
$PDMODE
 70
     0
  9
$PDSIZE
 40
0.3125
  9
$PLINEWID
 40
0.0
  9
$COORDS
 70
     1
  9
$SPLFRAME
 70
     0
  9
$SPLINETYPE
 70
     6
  9
$SPLINESEGS
 70
     8
  9
$ATTDIA
 70
     1
  9
$ATTREQ
 70
     1
  9
$HANDLING
 70
     1
  9
$HANDSEED
  5
A0F8
  9
$SURFTAB1
 70
     6
  9
$SURFTAB2
 70
     6
  9
$SURFTYPE
 70
     6
  9
$SURFU
 70
     6
  9
$SURFV
 70
     6
  9
$UCSNAME
  2

  9
$UCSORG
 10
0.0
 20
0.0
 30
0.0
  9
$UCSXDIR
 10
1.0
 20
0.0
 30
0.0
  9
$UCSYDIR
 10
0.0
 20
1.0
 30
0.0
  9
$PUCSNAME
  2

  9
$PUCSORG
 10
0.0
 20
0.0
 30
0.0
  9
$PUCSXDIR
 10
1.0
 20
0.0
 30
0.0
  9
$PUCSYDIR
 10
0.0
 20
1.0
 30
0.0
  9
$USERI1
 70
     0
  9
$USERI2
 70
     0
  9
$USERI3
 70
     0
  9
$USERI4
 70
     0
  9
$USERI5
 70
     0
  9
$USERR1
 40
0.0
  9
$USERR2
 40
0.0
  9
$USERR3
 40
0.0
  9
$USERR4
 40
0.0
  9
$USERR5
 40
0.0
  9
$WORLDVIEW
 70
     1
  9
$SHADEDGE
 70
     3
  9
$SHADEDIF
 70
    70
  9
$TILEMODE
 70
     1
  9
$MAXACTVP
 70
    64
  9
$PLIMCHECK
 70
     0
  9
$PEXTMIN
 10
1.0000000000000000E+20
 20
1.0000000000000000E+20
 30
1.0000000000000000E+20
  9
$PEXTMAX
 10
-1.0000000000000000E+20
 20
-1.0000000000000000E+20
 30
-1.0000000000000000E+20
  9
$PLIMMIN
 10
0.0
 20
0.0
  9
$PLIMMAX
 10
12.0
 20
9.0
  9
$UNITMODE
 70
     0
  9
$VISRETAIN
 70
     1
  9
$PLINEGEN
 70
     0
  9
$PSLTSCALE
 70
     1
  0
ENDSEC
  0
SECTION
  2
TABLES
  0
TABLE
  2
VPORT
 70
     1
  0
VPORT
  2
*ACTIVE
 70
     0
 10
0.0
 20
0.0
 11
1.0
 21
1.0
 12
304.9632564453308987
 22
-73.1136217137223525
 13
0.0
 23
0.0
 14
1.0
 24
1.0
 15
0.0
 25
0.0
 16
0.0
 26
0.0
 36
5.1040778033513332
 17
3792.35791015625
 27
120.1806564331053977
 37
0.0
 40
32.5325900314390921
 41
2.005224660397074
 42
50.0
 43
0.0
 44
0.0
 50
0.0
 51
0.0
 71
     0
 72
   100
 73
     1
 74
     1
 75
     0
 76
     0
 77
     0
 78
     0
  0
ENDTAB
  0
TABLE
  2
LTYPE
 70
     2
  0
LTYPE
  2
CONTINUOUS
 70
     0
  3
Solid line
 72
    65
 73
     0
 40
0.0
  0
LTYPE
  2
PHANTOM2
 70
     0
  3
___ _ _ ___ _ _ ___ _ _ ___ _ _
 72
    65
 73
     6
 40
1.25
 49
0.625
 49
-0.125
 49
0.125
 49
-0.125
 49
0.125
 49
-0.125
  0
ENDTAB
  0
TABLE
  2
LAYER
 70
     2
  0
LAYER
  2
0
 70
     0
 62
   255
  6
CONTINUOUS
  0
LAYER
  2
DEFPOINTS
 70
     0
 62
     7
  6
CONTINUOUS
  0
ENDTAB
  0
TABLE
  2
STYLE
 70
     1
  0
STYLE
  2
STANDARD
 70
     0
 40
0.0
 41
0.8
 50
0.0
 71
     0
 42
0.2
  3
txt
  4

  0
ENDTAB
  0
TABLE
  2
VIEW
 70
     0
  0
ENDTAB
  0
TABLE
  2
UCS
 70
     0
  0
ENDTAB
  0
TABLE
  2
APPID
 70
     9
  0
APPID
  2
ACAD
 70
     0
  0
APPID
  2
ACAD_MLEADERVER
 70
     0
  0
APPID
  2
ACAD_EXEMPT_FROM_CAD_STANDARDS
 70
     0
  0
APPID
  2
ACAD_NAV_VCDISPLAY
 70
     0
  0
APPID
  2
ACAECLAYERSTANDARD
 70
     0
  0
APPID
  2
ACCMTRANSPARENCY
 70
     0
  0
APPID
  2
ACAD_DSTYLE_DIMJAG
 70
     0
  0
APPID
  2
ACAD_DSTYLE_DIMTALN
 70
     0
  0
APPID
  2
ACDBATTR
 70
     0
  0
ENDTAB
  0
TABLE
  2
DIMSTYLE
 70
     1
  0
DIMSTYLE
  2
STANDARD
 70
     0
  3

  4

  5

  6

  7

 40
1.0
 41
0.1875
 42
0.0625
 43
0.38
 44
0.125
 45
0.0
 46
0.0
 47
0.01
 48
0.01
140
0.15625
141
0.09
142
0.0
143
25.3999999999999986
144
1.0
145
0.0
146
1.0
147
0.09
 71
     1
 72
     0
 73
     1
 74
     1
 75
     0
 76
     0
 77
     0
 78
     4
170
     0
171
     2
172
     0
173
     0
174
     0
175
     0
176
     0
177
     0
178
     0
  0
ENDTAB
  0
ENDSEC
  0
SECTION
  2
BLOCKS
  0
BLOCK
  8
0
  2
$MODEL_SPACE
 70
     0
 10
0.0
 20
0.0
 30
0.0
  3
$MODEL_SPACE
  1

  0
ENDBLK
  5
21
  8
0
  0
BLOCK
 67
     1
  8
0
  2
$PAPER_SPACE
 70
     0
 10
0.0
 20
0.0
 30
0.0
  3
$PAPER_SPACE
  1

  0
ENDBLK
  5
1D
 67
     1
  8
0
  0
BLOCK
  8
0
  2
_FILLED
 70
     0
 10
0.0
 20
0.0
 30
0.0
  3
_FILLED
  1

  0
SOLID
  5
69B4
  8
0
  6
BYBLOCK
 62
     0
 10
0.0
 20
0.0
 30
0.0
 11
-1.0
 21
0.1666666667
 31
0.0
 12
-1.0
 22
-0.1666666667
 32
0.0
 13
-1.0
 23
-0.1666666667
 33
0.0
  0
ENDBLK
  5
69B5
  8
0
  6
BYBLOCK
 62
     0
  0
BLOCK
  8
0
  2
A$CDFAF6206
 70
     0
 10
0.0
 20
0.0
 30
0.0
  3
A$CDFAF6206
  1

  0
LINE
  5
6A0E
  8
0
 10
7.4646650085734834
 20
10.9287685970688493
 30
0.0
 11
7.4646650085734896
 21
10.8905784766688498
 31
0.0
  0
ARC
  5
6A0F
  8
0
 10
7.7269027075262349
 20
10.8926811525838598
 30
0.0
 40
0.2622461286616791
 50
180.4593995232625048
 51
217.0214027758331099
  0
LINE
  5
6A10
  8
0
 10
9.767814609867095
 20
10.9287685970688493
 30
0.0
 11
9.767814609867095
 21
10.8905433757650094
 31
0.0
  0
ARC
  5
6A11
  8
0
 10
9.5068669568548287
 20
10.8922438613003703
 30
0.0
 40
0.2609531936261092
 50
322.8847083717149076
 51
359.6266329125650145
  0
LINE
  5
6A12
  8
0
 10
7.517522606271406
 20
10.7347792678688396
 30
0.0
 11
9.7149570120691777
 21
10.7347792678688396
 31
0.0
  0
LINE
  5
6A13
  8
0
 10
7.4646650085734834
 20
10.9287685970688493
 30
0.0
 11
9.7678146123202936
 21
10.9287685970688493
 31
0.0
  0
ARC
  5
6A14
  8
0
 10
4.0826771419203629
 20
8.527951346868889
 30
0.0
 40
4.0826771653999172
 50
13.3117747050523896
 51
32.7200330051415591
  0
ARC
  5
6A15
  8
0
 10
4.0826771460567306
 20
8.5279513475907933
 30
0.0
 40
4.0826771612084691
 50
359.6656501984817851
 51
13.3117747085593798
  0
ARC
  5
6A16
  8
0
 10
13.1498041284835097
 20
8.5279508235212234
 30
0.0
 40
4.0826788382043553
 50
147.2799733478981068
 51
166.6882233021349862
  0
ARC
  5
6A17
  8
0
 10
13.1498064934207992
 20
8.5279506557033251
 30
0.0
 40
4.0826811782395342
 50
166.688228652086309
 51
180.3343397625230011
  0
LINE
  5
6A18
  8
0
 10
8.1652847935202928
 20
8.504127000268852
 30
0.0
 11
9.0671948248202892
 21
8.5041270002687881
 31
0.0
  0
LINE
  5
6A19
  8
0
 10
8.1652847935202786
 20
8.5041270002667204
 30
0.0
 11
8.1652847935202928
 21
8.3607006934688481
 31
0.0
  0
ARC
  5
6A1A
  8
0
 10
5.6196779630382627
 20
8.3631022096452732
 30
0.0
 40
2.545607963272567
 50
342.0511668832173768
 51
359.945947387132378
  0
LINE
  5
6A1B
  8
0
 10
9.0671948248202892
 20
8.5041270002687881
 30
0.0
 11
9.0671948248202892
 21
8.2885990108688503
 31
0.0
  0
ARC
  5
6A1C
  8
0
 10
9.4521885297801163
 20
7.9614488056228501
 30
0.0
 40
0.5052201595850959
 50
139.6436242991769916
 51
174.6757930071850069
  0
ARC
  5
6A1D
  8
0
 10
9.9238413395551746
 20
8.1492417579399508
 30
0.0
 40
0.9848265662939324
 50
188.2263441834095943
 51
209.5593615864376034
  0
ARC
  5
6A1E
  8
0
 10
8.0788764238271256
 20
7.5665710856463297
 30
0.0
 40
0.0393715937169877
 50
162.1669117288323037
 51
227.2023190037006088
  0
ARC
  5
6A1F
  8
0
 10
8.7223682141740682
 20
8.2079667397440517
 30
0.0
 40
0.947895137885075
 50
225.0018610752970858
 51
261.4598823366255829
  0
ARC
  5
6A20
  8
0
 10
8.6645157662702701
 20
8.1695128573935332
 30
0.0
 40
0.9027466462812931
 50
264.7303071214498118
 51
281.8608311947915013
  0
ARC
  5
6A21
  8
0
 10
8.6645157662698935
 20
8.1695128573999671
 30
0.0
 40
0.9027466462876658
 50
299.1741886792128753
 51
299.1743179154552195
  0
ARC
  5
6A22
  8
0
 10
9.0843330931590316
 20
7.4150554710086141
 30
0.0
 40
0.0393703053609601
 50
251.9700352025496954
 51
252.4698971938937859
  0
ARC
  5
6A23
  8
0
 10
9.0843330931590316
 20
7.4150554710086141
 30
0.0
 40
0.0393703053609601
 50
297.2453716727138726
 51
6.8376113572703074
  0
LINE
  5
6A24
  8
0
 10
9.0671948248202892
 20
7.663402160468852
 30
0.0
 11
9.1234233799329516
 21
7.419742732911689
 31
0.0
  0
ARC
  5
6A25
  8
0
 10
8.8843741880892395
 20
9.8961379890094676
 30
0.0
 40
2.5255097382132701
 50
263.792800240752797
 51
274.9514951129821156
  0
ARC
  5
6A26
  8
0
 10
8.8258167405968848
 20
9.2763025889666508
 30
0.0
 40
1.9029970832759311
 50
246.0108363320686067
 51
263.5276935074397215
  0
ARC
  5
6A27
  8
0
 10
8.607491361665744
 20
8.3225444804829642
 30
0.0
 40
1.064510137163637
 50
283.1717405874071005
 51
297.7022170607311864
  0
LINE
  5
6A28
  8
0
 10
9.0671948248202892
 20
8.2885990108688503
 30
0.0
 11
26.2014378595979593
 21
8.2885990108689942
 31
0.0
  0
LINE
  5
6A29
  8
0
 10
26.2014378595979913
 20
7.6634021604689053
 30
0.0
 11
9.0671948248202892
 21
7.6634021604688618
 31
0.0
  0
LINE
  5
6A2A
  8
0
 10
27.8039676758446994
 20
10.9287685970690802
 30
0.0
 11
27.8039676758446888
 21
10.8905784766690807
 31
0.0
  0
ARC
  5
6A2B
  8
0
 10
27.5417299768919399
 20
10.8926811525840801
 30
0.0
 40
0.2622461286616791
 50
322.9785972241680838
 51
359.5406004767386889
  0
LINE
  5
6A2C
  8
0
 10
25.5008180745510913
 20
10.9287685970690305
 30
0.0
 11
25.5008180745510913
 21
10.8905433757651799
 31
0.0
  0
ARC
  5
6A2D
  8
0
 10
25.7617657275633505
 20
10.8922438613005497
 30
0.0
 40
0.2609531936261092
 50
180.3733670874362929
 51
217.1152916282862861
  0
LINE
  5
6A2E
  8
0
 10
27.7511100781467803
 20
10.7347792678690706
 30
0.0
 11
25.5536756723490015
 21
10.7347792678690208
 31
0.0
  0
LINE
  5
6A2F
  8
0
 10
27.8039676758446888
 20
10.9287685970686006
 30
0.0
 11
25.5008180745510806
 21
10.9287685970686006
 31
0.0
  0
ARC
  5
6A30
  8
0
 10
31.1859555424978616
 20
8.5279513468691981
 30
0.0
 40
4.0826771653999172
 50
147.2799669948597057
 51
166.6882252949490066
  0
ARC
  5
6A31
  8
0
 10
31.185955538361501
 20
8.5279513475911024
 30
0.0
 40
4.0826771612084691
 50
166.6882252914419098
 51
180.3343498015194086
  0
ARC
  5
6A32
  8
0
 10
22.1188285559344706
 20
8.5279508235212251
 30
0.0
 40
4.0826788382046102
 50
13.3117766978667795
 51
32.7200266521023977
  0
ARC
  5
6A33
  8
0
 10
22.1188261909974315
 20
8.5279506557034264
 30
0.0
 40
4.0826811782395342
 50
359.665660237478221
 51
13.31177134791497
  0
LINE
  5
6A34
  8
0
 10
27.1033478908979397
 20
8.5041270002690652
 30
0.0
 11
26.2014378595979416
 21
8.5041270002689835
 31
0.0
  0
LINE
  5
6A35
  8
0
 10
27.1033478908979504
 20
8.5041270002669354
 30
0.0
 11
27.1033478908979397
 21
8.3607006934690649
 31
0.0
  0
ARC
  5
6A36
  8
0
 10
29.6489547213799689
 20
8.3631022096455467
 30
0.0
 40
2.545607963272567
 50
180.0540526128687873
 51
197.9488331167837032
  0
LINE
  5
6A37
  8
0
 10
26.2014378595979416
 20
8.5041270002689835
 30
0.0
 11
26.2014378595979487
 21
8.2885990108690457
 31
0.0
  0
ARC
  5
6A38
  8
0
 10
25.8164441546381305
 20
7.9614488056230366
 30
0.0
 40
0.5052201595850959
 50
5.324206992816312
 51
40.3563757008241879
  0
ARC
  5
6A39
  8
0
 10
25.3447913448601803
 20
8.149241757940846
 30
0.0
 40
0.9848265662968968
 50
330.4406384136033807
 51
351.7736558165743759
  0
ARC
  5
6A3A
  8
0
 10
27.1897562605911212
 20
7.5665710856465473
 30
0.0
 40
0.0393715937169877
 50
312.7976809963004143
 51
17.8330882711689185
  0
ARC
  5
6A3B
  8
0
 10
26.5462644702441715
 20
8.2079667397442542
 30
0.0
 40
0.947895137885075
 50
278.5401176633754972
 51
314.9981389247041079
  0
ARC
  5
6A3C
  8
0
 10
26.6041169181479695
 20
8.1695128573937392
 30
0.0
 40
0.9027466462812931
 50
258.139168805210204
 51
275.2696928785518935
  0
ARC
  5
6A3D
  8
0
 10
26.6041169181483497
 20
8.1695128574001732
 30
0.0
 40
0.9027466462876658
 50
240.8256820845460027
 51
240.8258113207880058
  0
ARC
  5
6A3E
  8
0
 10
26.1842995912592293
 20
7.4150554710088086
 30
0.0
 40
0.0393703053609601
 50
287.5301028061073794
 51
288.0299647974517825
  0
ARC
  5
6A3F
  8
0
 10
26.1842995912592293
 20
7.4150554710088086
 30
0.0
 40
0.0393703053609601
 50
173.1623886427310026
 51
242.7546283272870085
  0
LINE
  5
6A40
  8
0
 10
26.2014378595981192
 20
7.6634021604690448
 30
0.0
 11
26.1452093044853093
 21
7.4197427329118826
 31
0.0
  0
ARC
  5
6A41
  8
0
 10
26.384258496328961
 20
9.8961379890096666
 30
0.0
 40
2.5255097382132701
 50
265.0485048870193054
 51
276.2071997592482262
  0
ARC
  5
6A42
  8
0
 10
26.4428159438213299
 20
9.2763025889668516
 30
0.0
 40
1.9029970832759311
 50
276.4723064925619838
 51
293.9891636679327007
  0
ARC
  5
6A43
  8
0
 10
26.6611413227524885
 20
8.3225444804831703
 30
0.0
 40
1.064510137163637
 50
242.2977829392704052
 51
256.8282594125943774
  0
LINE
  5
6A44
  8
0
 62
     4
 10
17.9031473532159602
 20
10.9287685970686006
 30
0.0
 11
24.6329820359843588
 21
20.0952817181593808
 31
0.0
  0
LINE
  5
6A45
  8
0
 62
     4
 10
17.9031473532159602
 20
-0.0000000300842942
 30
0.0
 11
22.3963351323106608
 21
4.993614497796286
 31
0.0
  0
ENDBLK
  5
6A49
  8
0
  0
ENDSEC
  0
SECTION
  2
ENTITIES
  0
ATTDEF
  5
3930
  8
DEFPOINTS
 10
4087.8022692600839036
 20
50.0574583864566733
 30
0.0
 40
0.001
  1
K-37351T-DPR
  3

  2
MODELNUMBER
 70
     0
1001
ACDBATTR
1070
     0
1070
     1
  0
ATTDEF
  5
3931
  8
DEFPOINTS
 10
4087.8022692600839036
 20
50.0557917197900011
 30
0.0
 40
0.001
  1
STRAYT
  3

  2
TRADENAME
 70
     0
1001
ACDBATTR
1070
     0
1070
     1
  0
ATTDEF
  5
3932
  8
DEFPOINTS
 10
4087.8022692600839036
 20
50.054125053123343
 30
0.0
 40
0.001
  1
TOILET TISSUE HOLDER
  3

  2
PRODUCT
 70
     0
1001
ACDBATTR
1070
     0
1070
     1
  0
ARC
  5
9FF7
  8
0
 10
4082.4361392646478635
 20
50.5793436007584702
 30
0.0
 40
0.0276348212042181
 50
90.1570505147597032
 51
179.934947614289797
  0
ARC
  5
9FF8
  8
0
 10
4082.4362120506680185
 20
49.5321924071742927
 30
0.0
 40
0.0277076577203811
 50
180.1272255728065943
 51
269.6928491738296998
  0
ARC
  5
9FF9
  8
0
 10
4084.1376774198179191
 20
49.0092448287960565
 30
0.0
 40
0.4957646785908546
 50
2.645893311600771
 51
87.3645618974428402
  0
ARC
  5
9FFA
  8
0
 10
4084.6604729651548951
 20
48.1384300948285215
 30
0.0
 40
0.0275590550999976
 50
90.0
 51
180.0000000000065086
  0
ARC
  5
9FFB
  8
0
 10
4084.6604729653258801
 20
47.0911860004992207
 30
0.0
 40
0.027559055270709
 50
180.0000001470060909
 51
269.9999996451034008
  0
LINE
  5
9FFC
  8
0
 10
4082.408504461254779
 20
50.5793749767285234
 30
0.0
 11
4082.408504461254779
 21
49.5321308822285218
 31
0.0
  0
LINE
  5
9FFD
  8
0
 10
4082.436063516356171
 20
49.5044851475857328
 30
0.0
 11
4084.1604731032548443
 21
49.5044851475857328
 31
0.0
  0
LINE
  5
9FFE
  8
0
 10
4084.6329135706550915
 20
49.0321308822285218
 30
0.0
 11
4084.6329139100548673
 21
47.0911860004285074
 31
0.0
  0
ARC
  5
9FFF
  8
0
 10
4087.7745704451631354
 20
50.5793436007584702
 30
0.0
 40
0.0276348212042181
 50
0.0650523857102325
 51
89.8429494852402968
  0
ARC
  5
A000
  8
0
 10
4087.7744976591429804
 20
49.5321924071742998
 30
0.0
 40
0.0277076577203811
 50
270.3071508261703002
 51
359.872774427193292
  0
ARC
  5
A001
  8
0
 10
4086.0730322899930798
 20
49.0092448287960565
 30
0.0
 40
0.4957646785908546
 50
92.635438102557174
 51
177.354106688399213
  0
ARC
  5
A002
  8
0
 10
4085.5502367446551943
 20
48.1384300948285215
 30
0.0
 40
0.0275590550999976
 50
359.9999999999935199
 51
90.0
  0
ARC
  5
A003
  8
0
 10
4085.5502367444842093
 20
47.0911860004992207
 30
0.0
 40
0.027559055270709
 50
270.0000003548964855
 51
359.9999998529938239
  0
LINE
  5
A004
  8
0
 10
4087.8022052485548556
 20
50.5793749767285306
 30
0.0
 11
4087.8022052485548556
 21
49.5321308822285218
 31
0.0
  0
LINE
  5
A005
  8
0
 10
4087.7746461934548279
 20
49.5044851475857328
 30
0.0
 11
4086.0502366065547903
 21
49.5044851475857328
 31
0.0
  0
LINE
  5
A006
  8
0
 10
4085.5777961391549979
 20
49.0321308822285218
 30
0.0
 11
4085.5777957997561316
 21
47.0911860004285074
 31
0.0
  0
LINE
  5
A007
  8
0
 10
4082.436063516356171
 20
50.6069783181477533
 30
0.0
 11
4087.7746461934571016
 21
50.6069783181477533
 31
0.0
  0
LINE
  5
A008
  8
0
 10
4084.6604729651548951
 20
48.1659891500285227
 30
0.0
 11
4085.5502367446551943
 21
48.1659891499285209
 31
0.0
  0
LINE
  5
A009
  8
0
 10
4084.6604729653258801
 20
47.0636269452285205
 30
0.0
 11
4085.5502367444842093
 21
47.0636269452285205
 31
0.0
  0
ARC
  5
A00A
  8
0
 10
4082.6152170659479452
 20
50.4580696767705206
 30
0.0
 40
0.0196942203723243
 50
89.9634173776399138
 51
179.9063881627666035
  0
ARC
  5
A00B
  8
0
 10
4082.6151963145980517
 20
50.2746640787708827
 30
0.0
 40
0.0196839794394375
 50
179.999096600832587
 51
270.0009036157313744
  0
ARC
  5
A00C
  8
0
 10
4087.5954915696461285
 20
50.4580678045474116
 30
0.0
 40
0.0196950691419153
 50
0.0990531255524762
 51
90.0249063115958279
  0
ARC
  5
A00D
  8
0
 10
4087.5955133952129472
 20
50.2746640787708827
 30
0.0
 40
0.0196839794394349
 50
269.9990965922925739
 51
0.0009033991727111
  0
LINE
  5
A00E
  8
0
 10
4087.5954915696461285
 20
50.477762873689322
 30
0.0
 11
4082.6152296404547997
 21
50.4777638931285111
 31
0.0
  0
LINE
  5
A00F
  8
0
 10
4082.5955228718607941
 20
50.4581018538583876
 30
0.0
 11
4082.5955123351609473
 21
50.274664389208688
 31
0.0
  0
LINE
  5
A010
  8
0
 10
4082.6151966250349687
 20
50.254980099333892
 30
0.0
 11
4087.5955130847751207
 21
50.254980099333892
 31
0.0
  0
LINE
  5
A011
  8
0
 10
4087.615186609355078
 20
50.4581018534285093
 30
0.0
 11
4087.6151973746500516
 21
50.2746643892104572
 31
0.0
  0
LINE
  5
A012
  8
0
 10
4087.6053548549562038
 20
50.469138756328519
 30
0.0
 11
4087.6053548549562038
 21
50.269138756328509
 31
0.0
  0
LINE
  5
A013
  8
0
 10
4087.6053548549562038
 20
50.269138756328509
 30
0.0
 11
4082.6053548549562038
 21
50.269138756328509
 31
0.0
  0
LINE
  5
A014
  8
0
 10
4082.6053548549562038
 20
50.269138756328509
 30
0.0
 11
4082.6053548549562038
 21
50.469138756328519
 31
0.0
  0
LINE
  5
A015
  8
0
 10
4082.6053548549562038
 20
50.469138756328519
 30
0.0
 11
4087.6053548549562038
 21
50.469138756328519
 31
0.0
  0
ARC
  5
A016
  8
0
 10
4083.569919599511195
 20
56.3854811618190368
 30
0.0
 40
6.1257253233182203
 50
269.2615297446890281
 51
270.7385106040268852
  0
LINE
  5
A017
  8
0
 10
4083.4998430438549804
 20
50.269138756328509
 30
0.0
 11
4083.4909689204559982
 21
50.260264632828509
 31
0.0
  0
LINE
  5
A018
  8
0
 10
4083.6400005241539475
 20
50.269138756328509
 30
0.0
 11
4083.6488745920551082
 21
50.2602646884285207
 31
0.0
  0
LINE
  5
A019
  8
0
 10
4086.1770083982551114
 20
50.269138756328509
 30
0.0
 11
4086.1681342747560848
 21
50.260264632828509
 31
0.0
  0
ARC
  5
A01A
  8
0
 10
4086.247030106755119
 20
56.393991193950967
 30
0.0
 40
6.1342353557148748
 50
269.2630662435560112
 51
270.7379983427563275
  0
LINE
  5
A01B
  8
0
 10
4086.317165878554988
 20
50.269138756328509
 30
0.0
 11
4086.3260399463561043
 21
50.2602646884285207
 31
0.0
  0
LINE
  5
A01C
  8
0
 10
4087.108540405554777
 20
50.469138756328519
 30
0.0
 11
4087.108540405554777
 21
50.4750482888285177
 31
0.0
  0
LINE
  5
A01D
  8
0
 10
4087.108540405554777
 20
50.4750482888285177
 30
0.0
 11
4087.1033846313548565
 21
50.4776259916285071
 31
0.0
  0
LINE
  5
A01E
  8
0
 10
4087.1033846313548565
 20
50.4776259916285071
 30
0.0
 11
4087.1040735582550951
 21
50.469138756328519
 31
0.0
  0
LINE
  5
A01F
  8
0
 10
4087.0391771782551587
 20
50.4750482888285177
 30
0.0
 11
4087.0443329801551045
 21
50.477602078828518
 31
0.0
  0
LINE
  5
A020
  8
0
 10
4087.0443329801551045
 20
50.477602078828518
 30
0.0
 11
4087.0436440255548405
 21
50.469138756328519
 31
0.0
  0
LINE
  5
A021
  8
0
 10
4087.0391771782551587
 20
50.4750482888285177
 30
0.0
 11
4087.0391771782551587
 21
50.469138756328519
 31
0.0
  0
LINE
  5
A022
  8
0
 10
4086.1198215897561568
 20
50.469138756328519
 30
0.0
 11
4086.1191326351549833
 21
50.477602078828518
 31
0.0
  0
LINE
  5
A023
  8
0
 10
4086.1191326351549833
 20
50.477602078828518
 30
0.0
 11
4086.1361104078227982
 21
50.469138756328519
 31
0.0
  0
LINE
  5
A024
  8
0
 10
4086.0593920570549926
 20
50.469138756328519
 30
0.0
 11
4086.0600810116548018
 21
50.477602078828518
 31
0.0
  0
LINE
  5
A025
  8
0
 10
4086.0600810116548018
 20
50.477602078828518
 30
0.0
 11
4086.0434518615179513
 21
50.469138756328519
 31
0.0
  0
LINE
  5
A026
  8
0
 10
4084.1513176527550968
 20
50.469138756328519
 30
0.0
 11
4084.1506286981548328
 21
50.477602078828518
 31
0.0
  0
LINE
  5
A027
  8
0
 10
4084.1506286981548328
 20
50.477602078828518
 30
0.0
 11
4084.1676064708231024
 21
50.469138756328519
 31
0.0
  0
LINE
  5
A028
  8
0
 10
4084.0908881200548421
 20
50.469138756328519
 30
0.0
 11
4084.0915770746551061
 21
50.477602078828518
 31
0.0
  0
LINE
  5
A029
  8
0
 10
4084.0915770746551061
 20
50.477602078828518
 30
0.0
 11
4084.0749479245168914
 21
50.469138756328519
 31
0.0
  0
LINE
  5
A02A
  8
0
 10
4085.1355696212558541
 20
50.469138756328519
 30
0.0
 11
4085.1348806666560449
 21
50.477602078828518
 31
0.0
  0
LINE
  5
A02B
  8
0
 10
4085.1348806666560449
 20
50.477602078828518
 30
0.0
 11
4085.1518584393238598
 21
50.469138756328519
 31
0.0
  0
LINE
  5
A02C
  8
0
 10
4085.0751400885551448
 20
50.469138756328519
 30
0.0
 11
4085.075829043154954
 21
50.477602078828518
 31
0.0
  0
LINE
  5
A02D
  8
0
 10
4085.075829043154954
 20
50.477602078828518
 30
0.0
 11
4085.059199893017194
 21
50.469138756328519
 31
0.0
  0
LINE
  5
A02E
  8
0
 10
4083.1670656842547942
 20
50.469138756328519
 30
0.0
 11
4083.166376729654985
 21
50.477602078828518
 31
0.0
  0
LINE
  5
A02F
  8
0
 10
4083.166376729654985
 20
50.477602078828518
 30
0.0
 11
4083.1833545023241641
 21
50.469138756328519
 31
0.0
  0
LINE
  5
A030
  8
0
 10
4083.1066361515549943
 20
50.469138756328519
 30
0.0
 11
4083.1073251061561677
 21
50.477602078828518
 31
0.0
  0
LINE
  5
A031
  8
0
 10
4083.1073251061561677
 20
50.477602078828518
 30
0.0
 11
4083.0906959560170435
 21
50.469138756328519
 31
0.0
  0
ENDSEC
  0
EOF
