  0
SECTION
  2
HEADER
  9
$ACADVER
  1
AC1009
  9
$INSBASE
 10
4104.3783813615873441
 20
54.8158841781147927
 30
0.0
  9
$EXTMIN
 10
4094.0345265126161394
 20
48.4172932132100371
 30
0.0
  9
$EXTMAX
 10
4107.569430113287126
 20
57.5347345008497584
 30
0.0
  9
$LIMMIN
 10
0.0
 20
0.0
  9
$LIMMAX
 10
11.6929133858000007
 20
8.2677165353999982
  9
$ORTHOMODE
 70
     0
  9
$REGENMODE
 70
     1
  9
$FILLMODE
 70
     1
  9
$QTEXTMODE
 70
     0
  9
$MIRRTEXT
 70
     0
  9
$DRAGMODE
 70
     2
  9
$LTSCALE
 40
0.6431102362
  9
$OSMODE
 70
  4095
  9
$ATTMODE
 70
     1
  9
$TEXTSIZE
 40
0.2
  9
$TRACEWID
 40
0.05
  9
$TEXTSTYLE
  7
STANDARD
  9
$CLAYER
  8
0
  9
$CELTYPE
  6
BYLAYER
  9
$CECOLOR
 62
   256
  9
$DIMSCALE
 40
1.0
  9
$DIMASZ
 40
0.1875
  9
$DIMEXO
 40
0.0625
  9
$DIMDLI
 40
0.4443307087
  9
$DIMRND
 40
0.0
  9
$DIMDLE
 40
0.0
  9
$DIMEXE
 40
0.125
  9
$DIMTP
 40
0.01
  9
$DIMTM
 40
0.01
  9
$DIMTXT
 40
2.0
  9
$DIMCEN
 40
0.1052362205
  9
$DIMTSZ
 40
0.0
  9
$DIMTOL
 70
     1
  9
$DIMLIM
 70
     0
  9
$DIMTIH
 70
     1
  9
$DIMTOH
 70
     1
  9
$DIMSE1
 70
     0
  9
$DIMSE2
 70
     0
  9
$DIMTAD
 70
     0
  9
$DIMZIN
 70
     0
  9
$DIMBLK
  1

  9
$DIMASO
 70
     1
  9
$DIMSHO
 70
     1
  9
$DIMPOST
  1
\X
  9
$DIMAPOST
  1

  9
$DIMALT
 70
     1
  9
$DIMALTD
 70
     2
  9
$DIMALTF
 40
25.3999999999999986
  9
$DIMLFAC
 40
1.0
  9
$DIMTOFL
 70
     0
  9
$DIMTVP
 40
0.0
  9
$DIMTIX
 70
     0
  9
$DIMSOXD
 70
     0
  9
$DIMSAH
 70
     0
  9
$DIMBLK1
  1

  9
$DIMBLK2
  1

  9
$DIMSTYLE
  2
STANDARD
  9
$DIMCLRD
 70
     0
  9
$DIMCLRE
 70
     0
  9
$DIMCLRT
 70
     0
  9
$DIMTFAC
 40
1.0
  9
$DIMGAP
 40
0.09
  9
$LUNITS
 70
     2
  9
$LUPREC
 70
     4
  9
$SKETCHINC
 40
0.1
  9
$FILLETRAD
 40
0.0
  9
$AUNITS
 70
     0
  9
$AUPREC
 70
     0
  9
$MENU
  1
.
  9
$ELEVATION
 40
0.0
  9
$PELEVATION
 40
0.0
  9
$THICKNESS
 40
0.0
  9
$LIMCHECK
 70
     0
  9
$BLIPMODE
 70
     0
  9
$CHAMFERA
 40
0.0
  9
$CHAMFERB
 40
0.0
  9
$SKPOLY
 70
     0
  9
$TDCREATE
 40
2458060.468368056230247
  9
$TDUPDATE
 40
2459089.5263425931334496
  9
$TDINDWG
 40
0.4254584491
  9
$TDUSRTIMER
 40
0.4254584491
  9
$USRTIMER
 70
     1
  9
$ANGBASE
 50
0.0
  9
$ANGDIR
 70
     0
  9
$PDMODE
 70
     0
  9
$PDSIZE
 40
0.3125
  9
$PLINEWID
 40
0.0
  9
$COORDS
 70
     1
  9
$SPLFRAME
 70
     0
  9
$SPLINETYPE
 70
     6
  9
$SPLINESEGS
 70
     8
  9
$ATTDIA
 70
     1
  9
$ATTREQ
 70
     1
  9
$HANDLING
 70
     1
  9
$HANDSEED
  5
A316
  9
$SURFTAB1
 70
     6
  9
$SURFTAB2
 70
     6
  9
$SURFTYPE
 70
     6
  9
$SURFU
 70
     6
  9
$SURFV
 70
     6
  9
$UCSNAME
  2

  9
$UCSORG
 10
0.0
 20
0.0
 30
0.0
  9
$UCSXDIR
 10
1.0
 20
0.0
 30
0.0
  9
$UCSYDIR
 10
0.0
 20
1.0
 30
0.0
  9
$PUCSNAME
  2

  9
$PUCSORG
 10
0.0
 20
0.0
 30
0.0
  9
$PUCSXDIR
 10
1.0
 20
0.0
 30
0.0
  9
$PUCSYDIR
 10
0.0
 20
1.0
 30
0.0
  9
$USERI1
 70
     0
  9
$USERI2
 70
     0
  9
$USERI3
 70
     0
  9
$USERI4
 70
     0
  9
$USERI5
 70
     0
  9
$USERR1
 40
0.0
  9
$USERR2
 40
0.0
  9
$USERR3
 40
0.0
  9
$USERR4
 40
0.0
  9
$USERR5
 40
0.0
  9
$WORLDVIEW
 70
     1
  9
$SHADEDGE
 70
     3
  9
$SHADEDIF
 70
    70
  9
$TILEMODE
 70
     1
  9
$MAXACTVP
 70
    64
  9
$PLIMCHECK
 70
     0
  9
$PEXTMIN
 10
1.0000000000000000E+20
 20
1.0000000000000000E+20
 30
1.0000000000000000E+20
  9
$PEXTMAX
 10
-1.0000000000000000E+20
 20
-1.0000000000000000E+20
 30
-1.0000000000000000E+20
  9
$PLIMMIN
 10
0.0
 20
0.0
  9
$PLIMMAX
 10
12.0
 20
9.0
  9
$UNITMODE
 70
     0
  9
$VISRETAIN
 70
     1
  9
$PLINEGEN
 70
     0
  9
$PSLTSCALE
 70
     1
  0
ENDSEC
  0
SECTION
  2
TABLES
  0
TABLE
  2
VPORT
 70
     1
  0
VPORT
  2
*ACTIVE
 70
     0
 10
0.0
 20
0.0
 11
1.0
 21
1.0
 12
323.1648774524467171
 22
-68.0672441031367299
 13
0.0
 23
0.0
 14
1.0
 24
1.0
 15
0.0
 25
0.0
 16
0.0
 26
0.0
 36
5.1040778033513332
 17
3792.35791015625
 27
120.1806564331053977
 37
0.0
 40
35.9106415939507713
 41
2.005224660397074
 42
50.0
 43
0.0
 44
0.0
 50
0.0
 51
0.0
 71
     0
 72
   100
 73
     1
 74
     1
 75
     0
 76
     0
 77
     0
 78
     0
  0
ENDTAB
  0
TABLE
  2
LTYPE
 70
     2
  0
LTYPE
  2
CONTINUOUS
 70
     0
  3
Solid line
 72
    65
 73
     0
 40
0.0
  0
LTYPE
  2
PHANTOM2
 70
     0
  3
___ _ _ ___ _ _ ___ _ _ ___ _ _
 72
    65
 73
     6
 40
1.25
 49
0.625
 49
-0.125
 49
0.125
 49
-0.125
 49
0.125
 49
-0.125
  0
ENDTAB
  0
TABLE
  2
LAYER
 70
     2
  0
LAYER
  2
0
 70
     0
 62
   255
  6
CONTINUOUS
  0
LAYER
  2
DEFPOINTS
 70
     0
 62
     7
  6
CONTINUOUS
  0
ENDTAB
  0
TABLE
  2
STYLE
 70
     1
  0
STYLE
  2
STANDARD
 70
     0
 40
0.0
 41
0.8
 50
0.0
 71
     0
 42
0.2
  3
txt
  4

  0
ENDTAB
  0
TABLE
  2
VIEW
 70
     0
  0
ENDTAB
  0
TABLE
  2
UCS
 70
     0
  0
ENDTAB
  0
TABLE
  2
APPID
 70
     9
  0
APPID
  2
ACAD
 70
     0
  0
APPID
  2
ACAD_MLEADERVER
 70
     0
  0
APPID
  2
ACAD_EXEMPT_FROM_CAD_STANDARDS
 70
     0
  0
APPID
  2
ACAD_NAV_VCDISPLAY
 70
     0
  0
APPID
  2
ACAECLAYERSTANDARD
 70
     0
  0
APPID
  2
ACCMTRANSPARENCY
 70
     0
  0
APPID
  2
ACAD_DSTYLE_DIMJAG
 70
     0
  0
APPID
  2
ACAD_DSTYLE_DIMTALN
 70
     0
  0
APPID
  2
ACDBATTR
 70
     0
  0
ENDTAB
  0
TABLE
  2
DIMSTYLE
 70
     1
  0
DIMSTYLE
  2
STANDARD
 70
     0
  3

  4

  5

  6

  7

 40
1.0
 41
0.1875
 42
0.0625
 43
0.38
 44
0.125
 45
0.0
 46
0.0
 47
0.01
 48
0.01
140
0.15625
141
0.09
142
0.0
143
25.3999999999999986
144
1.0
145
0.0
146
1.0
147
0.09
 71
     1
 72
     0
 73
     1
 74
     1
 75
     0
 76
     0
 77
     0
 78
     4
170
     0
171
     2
172
     0
173
     0
174
     0
175
     0
176
     0
177
     0
178
     0
  0
ENDTAB
  0
ENDSEC
  0
SECTION
  2
BLOCKS
  0
BLOCK
  8
0
  2
$MODEL_SPACE
 70
     0
 10
0.0
 20
0.0
 30
0.0
  3
$MODEL_SPACE
  1

  0
ENDBLK
  5
21
  8
0
  0
BLOCK
 67
     1
  8
0
  2
$PAPER_SPACE
 70
     0
 10
0.0
 20
0.0
 30
0.0
  3
$PAPER_SPACE
  1

  0
ENDBLK
  5
1D
 67
     1
  8
0
  0
BLOCK
  8
0
  2
_FILLED
 70
     0
 10
0.0
 20
0.0
 30
0.0
  3
_FILLED
  1

  0
SOLID
  5
69B4
  8
0
  6
BYBLOCK
 62
     0
 10
0.0
 20
0.0
 30
0.0
 11
-1.0
 21
0.1666666667
 31
0.0
 12
-1.0
 22
-0.1666666667
 32
0.0
 13
-1.0
 23
-0.1666666667
 33
0.0
  0
ENDBLK
  5
69B5
  8
0
  6
BYBLOCK
 62
     0
  0
BLOCK
  8
0
  2
A$CDFAF6206
 70
     0
 10
0.0
 20
0.0
 30
0.0
  3
A$CDFAF6206
  1

  0
LINE
  5
6A0E
  8
0
 10
7.4646650085734834
 20
10.9287685970688493
 30
0.0
 11
7.4646650085734896
 21
10.8905784766688498
 31
0.0
  0
ARC
  5
6A0F
  8
0
 10
7.7269027075262349
 20
10.8926811525838598
 30
0.0
 40
0.2622461286616791
 50
180.4593995232625048
 51
217.0214027758331099
  0
LINE
  5
6A10
  8
0
 10
9.767814609867095
 20
10.9287685970688493
 30
0.0
 11
9.767814609867095
 21
10.8905433757650094
 31
0.0
  0
ARC
  5
6A11
  8
0
 10
9.5068669568548287
 20
10.8922438613003703
 30
0.0
 40
0.2609531936261092
 50
322.8847083717149076
 51
359.6266329125650145
  0
LINE
  5
6A12
  8
0
 10
7.517522606271406
 20
10.7347792678688396
 30
0.0
 11
9.7149570120691777
 21
10.7347792678688396
 31
0.0
  0
LINE
  5
6A13
  8
0
 10
7.4646650085734834
 20
10.9287685970688493
 30
0.0
 11
9.7678146123202936
 21
10.9287685970688493
 31
0.0
  0
ARC
  5
6A14
  8
0
 10
4.0826771419203629
 20
8.527951346868889
 30
0.0
 40
4.0826771653999172
 50
13.3117747050523896
 51
32.7200330051415591
  0
ARC
  5
6A15
  8
0
 10
4.0826771460567306
 20
8.5279513475907933
 30
0.0
 40
4.0826771612084691
 50
359.6656501984817851
 51
13.3117747085593798
  0
ARC
  5
6A16
  8
0
 10
13.1498041284835097
 20
8.5279508235212234
 30
0.0
 40
4.0826788382043553
 50
147.2799733478981068
 51
166.6882233021349862
  0
ARC
  5
6A17
  8
0
 10
13.1498064934207992
 20
8.5279506557033251
 30
0.0
 40
4.0826811782395342
 50
166.688228652086309
 51
180.3343397625230011
  0
LINE
  5
6A18
  8
0
 10
8.1652847935202928
 20
8.504127000268852
 30
0.0
 11
9.0671948248202892
 21
8.5041270002687881
 31
0.0
  0
LINE
  5
6A19
  8
0
 10
8.1652847935202786
 20
8.5041270002667204
 30
0.0
 11
8.1652847935202928
 21
8.3607006934688481
 31
0.0
  0
ARC
  5
6A1A
  8
0
 10
5.6196779630382627
 20
8.3631022096452732
 30
0.0
 40
2.545607963272567
 50
342.0511668832173768
 51
359.945947387132378
  0
LINE
  5
6A1B
  8
0
 10
9.0671948248202892
 20
8.5041270002687881
 30
0.0
 11
9.0671948248202892
 21
8.2885990108688503
 31
0.0
  0
ARC
  5
6A1C
  8
0
 10
9.4521885297801163
 20
7.9614488056228501
 30
0.0
 40
0.5052201595850959
 50
139.6436242991769916
 51
174.6757930071850069
  0
ARC
  5
6A1D
  8
0
 10
9.9238413395551746
 20
8.1492417579399508
 30
0.0
 40
0.9848265662939324
 50
188.2263441834095943
 51
209.5593615864376034
  0
ARC
  5
6A1E
  8
0
 10
8.0788764238271256
 20
7.5665710856463297
 30
0.0
 40
0.0393715937169877
 50
162.1669117288323037
 51
227.2023190037006088
  0
ARC
  5
6A1F
  8
0
 10
8.7223682141740682
 20
8.2079667397440517
 30
0.0
 40
0.947895137885075
 50
225.0018610752970858
 51
261.4598823366255829
  0
ARC
  5
6A20
  8
0
 10
8.6645157662702701
 20
8.1695128573935332
 30
0.0
 40
0.9027466462812931
 50
264.7303071214498118
 51
281.8608311947915013
  0
ARC
  5
6A21
  8
0
 10
8.6645157662698935
 20
8.1695128573999671
 30
0.0
 40
0.9027466462876658
 50
299.1741886792128753
 51
299.1743179154552195
  0
ARC
  5
6A22
  8
0
 10
9.0843330931590316
 20
7.4150554710086141
 30
0.0
 40
0.0393703053609601
 50
251.9700352025496954
 51
252.4698971938937859
  0
ARC
  5
6A23
  8
0
 10
9.0843330931590316
 20
7.4150554710086141
 30
0.0
 40
0.0393703053609601
 50
297.2453716727138726
 51
6.8376113572703074
  0
LINE
  5
6A24
  8
0
 10
9.0671948248202892
 20
7.663402160468852
 30
0.0
 11
9.1234233799329516
 21
7.419742732911689
 31
0.0
  0
ARC
  5
6A25
  8
0
 10
8.8843741880892395
 20
9.8961379890094676
 30
0.0
 40
2.5255097382132701
 50
263.792800240752797
 51
274.9514951129821156
  0
ARC
  5
6A26
  8
0
 10
8.8258167405968848
 20
9.2763025889666508
 30
0.0
 40
1.9029970832759311
 50
246.0108363320686067
 51
263.5276935074397215
  0
ARC
  5
6A27
  8
0
 10
8.607491361665744
 20
8.3225444804829642
 30
0.0
 40
1.064510137163637
 50
283.1717405874071005
 51
297.7022170607311864
  0
LINE
  5
6A28
  8
0
 10
9.0671948248202892
 20
8.2885990108688503
 30
0.0
 11
26.2014378595979593
 21
8.2885990108689942
 31
0.0
  0
LINE
  5
6A29
  8
0
 10
26.2014378595979913
 20
7.6634021604689053
 30
0.0
 11
9.0671948248202892
 21
7.6634021604688618
 31
0.0
  0
LINE
  5
6A2A
  8
0
 10
27.8039676758446994
 20
10.9287685970690802
 30
0.0
 11
27.8039676758446888
 21
10.8905784766690807
 31
0.0
  0
ARC
  5
6A2B
  8
0
 10
27.5417299768919399
 20
10.8926811525840801
 30
0.0
 40
0.2622461286616791
 50
322.9785972241680838
 51
359.5406004767386889
  0
LINE
  5
6A2C
  8
0
 10
25.5008180745510913
 20
10.9287685970690305
 30
0.0
 11
25.5008180745510913
 21
10.8905433757651799
 31
0.0
  0
ARC
  5
6A2D
  8
0
 10
25.7617657275633505
 20
10.8922438613005497
 30
0.0
 40
0.2609531936261092
 50
180.3733670874362929
 51
217.1152916282862861
  0
LINE
  5
6A2E
  8
0
 10
27.7511100781467803
 20
10.7347792678690706
 30
0.0
 11
25.5536756723490015
 21
10.7347792678690208
 31
0.0
  0
LINE
  5
6A2F
  8
0
 10
27.8039676758446888
 20
10.9287685970686006
 30
0.0
 11
25.5008180745510806
 21
10.9287685970686006
 31
0.0
  0
ARC
  5
6A30
  8
0
 10
31.1859555424978616
 20
8.5279513468691981
 30
0.0
 40
4.0826771653999172
 50
147.2799669948597057
 51
166.6882252949490066
  0
ARC
  5
6A31
  8
0
 10
31.185955538361501
 20
8.5279513475911024
 30
0.0
 40
4.0826771612084691
 50
166.6882252914419098
 51
180.3343498015194086
  0
ARC
  5
6A32
  8
0
 10
22.1188285559344706
 20
8.5279508235212251
 30
0.0
 40
4.0826788382046102
 50
13.3117766978667795
 51
32.7200266521023977
  0
ARC
  5
6A33
  8
0
 10
22.1188261909974315
 20
8.5279506557034264
 30
0.0
 40
4.0826811782395342
 50
359.665660237478221
 51
13.31177134791497
  0
LINE
  5
6A34
  8
0
 10
27.1033478908979397
 20
8.5041270002690652
 30
0.0
 11
26.2014378595979416
 21
8.5041270002689835
 31
0.0
  0
LINE
  5
6A35
  8
0
 10
27.1033478908979504
 20
8.5041270002669354
 30
0.0
 11
27.1033478908979397
 21
8.3607006934690649
 31
0.0
  0
ARC
  5
6A36
  8
0
 10
29.6489547213799689
 20
8.3631022096455467
 30
0.0
 40
2.545607963272567
 50
180.0540526128687873
 51
197.9488331167837032
  0
LINE
  5
6A37
  8
0
 10
26.2014378595979416
 20
8.5041270002689835
 30
0.0
 11
26.2014378595979487
 21
8.2885990108690457
 31
0.0
  0
ARC
  5
6A38
  8
0
 10
25.8164441546381305
 20
7.9614488056230366
 30
0.0
 40
0.5052201595850959
 50
5.324206992816312
 51
40.3563757008241879
  0
ARC
  5
6A39
  8
0
 10
25.3447913448601803
 20
8.149241757940846
 30
0.0
 40
0.9848265662968968
 50
330.4406384136033807
 51
351.7736558165743759
  0
ARC
  5
6A3A
  8
0
 10
27.1897562605911212
 20
7.5665710856465473
 30
0.0
 40
0.0393715937169877
 50
312.7976809963004143
 51
17.8330882711689185
  0
ARC
  5
6A3B
  8
0
 10
26.5462644702441715
 20
8.2079667397442542
 30
0.0
 40
0.947895137885075
 50
278.5401176633754972
 51
314.9981389247041079
  0
ARC
  5
6A3C
  8
0
 10
26.6041169181479695
 20
8.1695128573937392
 30
0.0
 40
0.9027466462812931
 50
258.139168805210204
 51
275.2696928785518935
  0
ARC
  5
6A3D
  8
0
 10
26.6041169181483497
 20
8.1695128574001732
 30
0.0
 40
0.9027466462876658
 50
240.8256820845460027
 51
240.8258113207880058
  0
ARC
  5
6A3E
  8
0
 10
26.1842995912592293
 20
7.4150554710088086
 30
0.0
 40
0.0393703053609601
 50
287.5301028061073794
 51
288.0299647974517825
  0
ARC
  5
6A3F
  8
0
 10
26.1842995912592293
 20
7.4150554710088086
 30
0.0
 40
0.0393703053609601
 50
173.1623886427310026
 51
242.7546283272870085
  0
LINE
  5
6A40
  8
0
 10
26.2014378595981192
 20
7.6634021604690448
 30
0.0
 11
26.1452093044853093
 21
7.4197427329118826
 31
0.0
  0
ARC
  5
6A41
  8
0
 10
26.384258496328961
 20
9.8961379890096666
 30
0.0
 40
2.5255097382132701
 50
265.0485048870193054
 51
276.2071997592482262
  0
ARC
  5
6A42
  8
0
 10
26.4428159438213299
 20
9.2763025889668516
 30
0.0
 40
1.9029970832759311
 50
276.4723064925619838
 51
293.9891636679327007
  0
ARC
  5
6A43
  8
0
 10
26.6611413227524885
 20
8.3225444804831703
 30
0.0
 40
1.064510137163637
 50
242.2977829392704052
 51
256.8282594125943774
  0
LINE
  5
6A44
  8
0
 62
     4
 10
17.9031473532159602
 20
10.9287685970686006
 30
0.0
 11
24.6329820359843588
 21
20.0952817181593808
 31
0.0
  0
LINE
  5
6A45
  8
0
 62
     4
 10
17.9031473532159602
 20
-0.0000000300842942
 30
0.0
 11
22.3963351323106608
 21
4.993614497796286
 31
0.0
  0
ENDBLK
  5
6A49
  8
0
  0
ENDSEC
  0
SECTION
  2
ENTITIES
  0
ATTDEF
  5
3930
  8
DEFPOINTS
 10
4104.3783813615873441
 20
54.8177652944471419
 30
0.0
 40
0.001
  1
K-37352T
  3

  2
MODELNUMBER
 70
     0
1001
ACDBATTR
1070
     0
1070
     1
  0
ATTDEF
  5
3931
  8
DEFPOINTS
 10
4104.3783813615873441
 20
54.8160986277804696
 30
0.0
 40
0.001
  1
MEMOIRS
  3

  2
TRADENAME
 70
     0
1001
ACDBATTR
1070
     0
1070
     1
  0
ATTDEF
  5
3932
  8
DEFPOINTS
 10
4104.3783813615873441
 20
54.8144319611138116
 30
0.0
 40
0.001
  1
TOILET TISSUE HOLDER
  3

  2
PRODUCT
 70
     0
1001
ACDBATTR
1070
     0
1070
     1
  0
ARC
  5
A23F
  8
0
 10
4103.484219680050046
 20
54.7208762199678418
 30
0.0
 40
0.0149920426071925
 50
204.860843427328291
 51
270.0181733520381044
  0
ARC
  5
A240
  8
0
 10
4103.6411583607396096
 20
54.7936702229144572
 30
0.0
 40
0.1879912217506706
 50
182.3733918955369973
 51
204.8818089130928115
  0
LINE
  5
A241
  8
0
 10
4103.4533284036169789
 20
54.7858851951057915
 30
0.0
 11
4103.4533284036169789
 21
54.8158841781147927
 31
0.0
  0
LINE
  5
A242
  8
0
 10
4103.4533284036169789
 20
54.8158841781147927
 30
0.0
 11
4105.3033284049788563
 21
54.8158841781147927
 31
0.0
  0
ARC
  5
A243
  8
0
 10
4098.0203578996988654
 20
52.2578174314148001
 30
0.0
 40
5.9999999999998286
 50
1.5096008950997031
 51
6.2606281897534126
  0
ARC
  5
A244
  8
0
 10
4098.020357899244118
 20
52.2578174313402286
 30
0.0
 40
6.0000000004597984
 50
6.2606281899877327
 51
23.245880235332379
  0
LINE
  5
A245
  8
0
 10
4103.9845746596092795
 20
52.3174589814257871
 30
0.0
 11
4104.08299985622034
 21
52.4158841779362135
 31
0.0
  0
ARC
  5
A246
  8
0
 10
4104.3822078186676663
 20
52.4537841062571886
 30
0.0
 40
0.0381025351446287
 50
231.0244165058282988
 51
264.0887333400787043
  0
ARC
  5
A247
  8
0
 10
4103.5039366956416416
 20
51.5577239107184866
 30
0.0
 40
1.2167798523143329
 50
45.4040105618684109
 51
65.6066459395306083
  0
ARC
  5
A248
  8
0
 10
4105.275651404043856
 20
54.7208862603964192
 30
0.0
 40
0.0150020823746822
 50
270.0063813091426255
 51
337.9259574212458119
  0
ARC
  5
A249
  8
0
 10
4105.1153351058801491
 20
54.7858835343921626
 30
0.0
 40
0.1879932991073452
 50
337.9304295458791216
 51
0.0005060566553196
  0
LINE
  5
A24A
  8
0
 10
4105.3033284049788563
 20
54.7858851951057915
 30
0.0
 11
4105.3033284049788563
 21
54.8158841781147927
 31
0.0
  0
ARC
  5
A24B
  8
0
 10
4110.8614372771789931
 20
52.2493117008180619
 30
0.0
 40
6.1254271026084552
 50
173.7879318083778912
 51
178.4417288072332894
  0
ARC
  5
A24C
  8
0
 10
4110.7452400352121913
 20
52.2554349855137517
 30
0.0
 40
6.0092530558417172
 50
156.7672930255899928
 51
173.7260882506421922
  0
LINE
  5
A24D
  8
0
 10
4104.7720821489865557
 20
52.3174589814257871
 30
0.0
 11
4104.6735510374319347
 21
52.4158841781803204
 31
0.0
  0
ARC
  5
A24E
  8
0
 10
4104.3745049753097192
 20
52.4536898517473631
 30
0.0
 40
0.0379940494333064
 50
275.7078426830823901
 51
308.9993517581798983
  0
ARC
  5
A24F
  8
0
 10
4105.2527201129541936
 20
51.5577239107184866
 30
0.0
 40
1.2167798523143329
 50
114.3933540604694059
 51
134.5959894381315962
  0
LINE
  5
A250
  8
0
 10
4104.0182754469533393
 20
52.4158841779094473
 30
0.0
 11
4104.7382754530635793
 21
52.4158844028424582
 31
0.0
  0
LINE
  5
A251
  8
0
 10
4103.9845746596092795
 20
52.317458981314779
 30
0.0
 11
4104.7719762343976981
 21
52.317458981314779
 31
0.0
  0
LINE
  5
A252
  8
0
 10
4103.484224435302167
 20
54.7058841781147791
 30
0.0
 11
4105.2756530748984005
 21
54.7058841781147791
 31
0.0
  0
LINE
  5
A253
  8
0
 10
4103.5332754469982319
 20
54.7058841781147791
 30
0.0
 11
4103.5332754469436622
 21
54.6258841782067179
 31
0.0
  0
LINE
  5
A254
  8
0
 10
4103.5332754469436622
 20
54.6258841782067179
 30
0.0
 11
4105.2232754469987412
 21
54.6258841781147808
 31
0.0
  0
LINE
  5
A255
  8
0
 10
4105.2232754469987412
 20
54.6258841781147808
 30
0.0
 11
4105.2232754469987412
 21
54.7058841781147791
 31
0.0
  0
ARC
  5
A256
  8
0
 10
4102.9310758949777664
 20
47.4739188148371269
 30
0.0
 40
4.6664711342709699
 50
89.6318652696627254
 51
100.4451207679440046
  0
ARC
  5
A257
  8
0
 10
4102.2137725043958199
 20
51.4514405139059576
 30
0.0
 40
0.1290189341485292
 50
117.0644341589023014
 51
175.9593280093218084
  0
ARC
  5
A258
  8
0
 10
4102.2793332092105629
 20
51.3495874649467368
 30
0.0
 40
0.249838456549578
 50
89.4056865568314549
 51
119.8264602995358956
  0
ARC
  5
A259
  8
0
 10
4102.1968174101157274
 20
52.5603054931715192
 30
0.0
 40
1.2760958304856449
 50
250.9332643646949919
 51
264.9763799941691218
  0
ARC
  5
A25A
  8
0
 10
4101.6587214766996112
 20
51.2865283507720022
 30
0.0
 40
0.2726046678612977
 50
182.0708900737647014
 51
226.8109872465647072
  0
ARC
  5
A25B
  8
0
 10
4102.1147638478032604
 20
52.0506442430279606
 30
0.0
 40
1.157616679539847
 50
236.2810893990659054
 51
268.5303651956295994
  0
ARC
  5
A25C
  8
0
 10
4102.5002759848202913
 20
49.8912304126968209
 30
0.0
 40
2.2111635846392459
 50
100.8229764724728028
 51
109.0119318652557041
  0
ARC
  5
A25D
  8
0
 10
4102.0259970495862945
 20
51.1972977831053697
 30
0.0
 40
0.8221576970800061
 50
107.4133064951212049
 51
123.3262896871265042
  0
ARC
  5
A25E
  8
0
 10
4101.7509151672566077
 20
51.564438168588957
 30
0.0
 40
0.3653449600618493
 50
118.9093016401941014
 51
176.4904357524422096
  0
LINE
  5
A25F
  8
0
 10
4101.3862553773869877
 20
51.5868028169238713
 30
0.0
 11
4101.3862948518117264
 21
51.2766775136299913
 31
0.0
  0
LINE
  5
A260
  8
0
 10
4101.7799561651336262
 20
51.3542179047215868
 30
0.0
 11
4101.7799561647861992
 21
51.5480687326257794
 31
0.0
  0
ARC
  5
A261
  8
0
 10
4102.2755219369519182
 20
50.673043766757651
 30
0.0
 40
1.005611319265276
 50
100.9168934963066988
 51
119.5248178444108049
  0
ARC
  5
A262
  8
0
 10
4102.9228852470096172
 20
47.6374728049760066
 30
0.0
 40
4.1092973437421314
 50
89.4677437265035138
 51
101.7640489852612973
  0
LINE
  5
A263
  8
0
 10
4102.0850742749871642
 20
49.7867159869255289
 30
0.0
 11
4102.0850742749871642
 21
51.4605317798258071
 31
0.0
  0
LINE
  5
A264
  8
0
 10
4102.9709010466867767
 20
52.1973802412257868
 30
0.0
 11
4102.9709010466867767
 21
51.5774612306257865
 31
0.0
  0
LINE
  5
A265
  8
0
 10
4102.9709010466867767
 20
51.5994124811257819
 30
0.0
 11
4102.28192466868677
 21
51.5994124811257819
 31
0.0
  0
LINE
  5
A266
  8
0
 10
4102.9610585269883813
 20
51.7465928397257784
 30
0.0
 11
4102.9709010466867767
 21
51.7465928397257784
 31
0.0
  0
LINE
  5
A267
  8
0
 10
4102.9610585269883813
 20
52.1402936271257929
 30
0.0
 11
4102.9709010466867767
 21
52.1402936271257929
 31
0.0
  0
LINE
  5
A268
  8
0
 10
4102.9709010466867767
 20
52.1973802412257868
 30
0.0
 11
4103.9453104954873197
 21
52.1973802412257868
 31
0.0
  0
LINE
  5
A269
  8
0
 10
4103.9453104954873197
 20
52.1973802412257868
 30
0.0
 11
4103.9453104954873197
 21
51.3736884823257824
 31
0.0
  0
LINE
  5
A26A
  8
0
 10
4103.9453104954873197
 20
52.1402936271257929
 30
0.0
 11
4103.986984114651932
 21
52.1402936271257929
 31
0.0
  0
LINE
  5
A26B
  8
0
 10
4103.9846805741872231
 20
52.317458981314779
 30
0.0
 11
4103.9846805741872231
 21
52.1442306349257834
 31
0.0
  0
ARC
  5
A26C
  8
0
 10
4103.6460286541223468
 20
51.9434432333757883
 30
0.0
 40
0.3937012872536082
 50
329.3362133919512189
 51
30.6637866080484685
  0
LINE
  5
A26D
  8
0
 10
4103.9453104954873197
 20
51.7465928397257784
 30
0.0
 11
4103.9869755896370407
 21
51.7465780745796593
 31
0.0
  0
LINE
  5
A26E
  8
0
 10
4103.9846805741872231
 20
51.742655831825779
 30
0.0
 11
4103.9846805741608478
 21
51.6297964008257821
 31
0.0
  0
LINE
  5
A26F
  8
0
 10
4103.9846805741608478
 20
51.6297964008257821
 30
0.0
 11
4104.7720821490138405
 21
51.6297964008257821
 31
0.0
  0
ARC
  5
A270
  8
0
 10
4104.3783813617237684
 20
52.2190337840745187
 30
0.0
 40
0.7086614168487341
 50
236.2510113628005968
 51
303.7489886069603813
  0
ARC
  5
A271
  8
0
 10
4106.5429902187788684
 20
51.4514405139059576
 30
0.0
 40
0.1290189341485292
 50
4.040671990678149
 51
62.9355658410976488
  0
ARC
  5
A272
  8
0
 10
4106.4774295139632159
 20
51.3495874649467368
 30
0.0
 40
0.249838456549578
 50
60.1735397004640973
 51
90.5943134431685451
  0
LINE
  5
A273
  8
0
 10
4106.6716884481866146
 20
49.7867159869255289
 30
0.0
 11
4106.6716884481866146
 21
51.4605317798258071
 31
0.0
  0
LINE
  5
A274
  8
0
 10
4105.7858616764860926
 20
52.1973802412257868
 30
0.0
 11
4105.785861676586137
 21
51.5774612306257865
 31
0.0
  0
LINE
  5
A275
  8
0
 10
4105.7858616764860926
 20
51.5994124811257819
 30
0.0
 11
4106.4748380544870088
 21
51.5994124811257819
 31
0.0
  0
LINE
  5
A276
  8
0
 10
4105.7957041961872164
 20
51.7465928397257784
 30
0.0
 11
4105.7858616764860926
 21
51.7465928397257784
 31
0.0
  0
LINE
  5
A277
  8
0
 10
4105.7957041961872164
 20
52.1402936271257929
 30
0.0
 11
4105.7858616764860926
 21
52.1402936271257929
 31
0.0
  0
LINE
  5
A278
  8
0
 10
4105.7858616764860926
 20
52.1973802412257868
 30
0.0
 11
4104.8114522276873686
 21
52.1973802412257868
 31
0.0
  0
LINE
  5
A279
  8
0
 10
4104.8114522276873686
 20
52.1973802412257868
 30
0.0
 11
4104.8114522276873686
 21
51.3736884823257824
 31
0.0
  0
LINE
  5
A27A
  8
0
 10
4104.8114522276873686
 20
52.1402936271257929
 30
0.0
 11
4104.7697786085209373
 21
52.1402936271257929
 31
0.0
  0
LINE
  5
A27B
  8
0
 10
4104.7720821489865557
 20
52.317458981314779
 30
0.0
 11
4104.7720821489865557
 21
52.1442306349257834
 31
0.0
  0
ARC
  5
A27C
  8
0
 10
4105.1107340690523415
 20
51.9434432333757883
 30
0.0
 40
0.3937012872536082
 50
149.3362133919515031
 51
210.6637866080488095
  0
LINE
  5
A27D
  8
0
 10
4104.8114522276873686
 20
51.7465928397257784
 30
0.0
 11
4104.7697871335376476
 21
51.7465780745796593
 31
0.0
  0
LINE
  5
A27E
  8
0
 10
4104.7720821489865557
 20
51.742655831825779
 30
0.0
 11
4104.7720821490138405
 21
51.6297964008257821
 31
0.0
  0
ARC
  5
A27F
  8
0
 10
4105.7957041962872609
 20
51.9434432334257821
 30
0.0
 40
0.1968503936999983
 50
270.0
 51
90.0000000291035605
  0
ARC
  5
A280
  8
0
 10
4106.4867654843819764
 20
53.9510979822456633
 30
0.0
 40
2.6648086523413941
 50
273.9792078915264142
 51
287.8665320100870986
  0
ARC
  5
A281
  8
0
 10
4106.4793288785003824
 20
53.9711899016069125
 30
0.0
 40
3.0796129263175231
 50
273.5811548687668164
 51
288.1927389218780036
  0
ARC
  5
A282
  8
0
 10
4107.3725797196111671
 20
51.2301624004093483
 30
0.0
 40
0.1968503936763996
 50
359.9999942094253811
 51
110.2859171995808936
  0
ARC
  5
A283
  8
0
 10
4107.3725797195866107
 20
51.2301624004257903
 30
0.0
 40
0.1968503937000073
 50
290.2859207066999261
 51
359.9999942046405863
  0
ARC
  5
A284
  8
0
 10
4102.086107458704646
 20
49.7867894072683725
 30
0.0
 40
0.0010357891399542
 50
184.0647331774534905
 51
233.1965020053170008
  0
ARC
  5
A285
  8
0
 10
4102.2771215692882834
 20
55.3947028353069086
 30
0.0
 40
5.6166159863882159
 50
269.0394637353247731
 51
270.0489970043008157
  0
ARC
  5
A286
  8
0
 10
4102.1726952330909626
 20
50.3117690077547408
 30
0.0
 40
0.5329918749730975
 50
260.5829060949773179
 51
271.1041709151587042
  0
LINE
  5
A287
  8
0
 10
4102.28192466868677
 20
49.7780889026257825
 30
0.0
 11
4106.4748380544870088
 21
49.7780889026257825
 31
0.0
  0
ARC
  5
A288
  8
0
 10
4106.6706552644682233
 20
49.7867894072683725
 30
0.0
 40
0.0010357891399542
 50
306.8034979946830276
 51
355.9352668225465095
  0
ARC
  5
A289
  8
0
 10
4106.4796411538864049
 20
55.3947028353069086
 30
0.0
 40
5.6166159863882159
 50
269.9510029956991843
 51
270.9605362646752269
  0
ARC
  5
A28A
  8
0
 10
4106.5840674900837257
 20
50.3117690077547408
 30
0.0
 40
0.5329918749730975
 50
268.8958290848411821
 51
279.4170939050227958
  0
LINE
  5
A28B
  8
0
 10
4103.9453104954873197
 20
51.3736884823257824
 30
0.0
 11
4104.8114522276873686
 21
51.3736884823257824
 31
0.0
  0
ARC
  5
A28C
  8
0
 10
4102.2796005586442334
 20
51.324634339837182
 30
0.0
 40
0.2528375727484418
 50
89.4733236423083582
 51
116.0510485937493002
  0
ARC
  5
A28D
  8
0
 10
4102.2238362353800767
 20
51.4236336059371268
 30
0.0
 40
0.139563356056986
 50
113.3318038413889042
 51
173.8569583881609049
  0
LINE
  5
A28E
  8
0
 10
4102.28192466868677
 20
51.5774612306257865
 30
0.0
 11
4102.9709010466867767
 21
51.5774612306257865
 31
0.0
  0
ARC
  5
A28F
  8
0
 10
4106.4771621645295454
 20
51.324634339837182
 30
0.0
 40
0.2528375727484418
 50
63.9489514062506785
 51
90.526676357691656
  0
ARC
  5
A290
  8
0
 10
4106.5329264877937021
 20
51.4236336059371268
 30
0.0
 40
0.139563356056986
 50
6.1430416118391156
 51
66.6681961586110816
  0
LINE
  5
A291
  8
0
 10
4106.4748380544870088
 20
51.5774612306257865
 30
0.0
 11
4105.7858616764860926
 21
51.5774612306257865
 31
0.0
  0
LINE
  5
A293
  8
0
 10
4103.9453104954873197
 20
51.3967193236257813
 30
0.0
 11
4104.8114522277883225
 21
51.3967193236257813
 31
0.0
  0
ENDSEC
  0
EOF
