  0
SECTION
  2
HEADER
  9
$ACADVER
  1
AC1009
  9
$INSBASE
 10
4002.7973938615709812
 20
135.8364884874696088
 30
0.0
  9
$EXTMIN
 10
3970.2280466347328911
 20
127.9189972287097987
 30
0.0
  9
$EXTMAX
 10
4018.8375713912350875
 20
144.9469785339119881
 30
0.0
  9
$LIMMIN
 10
0.0
 20
0.0
  9
$LIMMAX
 10
11.6929133858000007
 20
8.2677165353999982
  9
$ORTHOMODE
 70
     0
  9
$REGENMODE
 70
     1
  9
$FILLMODE
 70
     1
  9
$QTEXTMODE
 70
     0
  9
$MIRRTEXT
 70
     0
  9
$DRAGMODE
 70
     2
  9
$LTSCALE
 40
0.6431102362
  9
$OSMODE
 70
  4095
  9
$ATTMODE
 70
     1
  9
$TEXTSIZE
 40
0.2
  9
$TRACEWID
 40
0.05
  9
$TEXTSTYLE
  7
STANDARD
  9
$CLAYER
  8
0
  9
$CELTYPE
  6
BYLAYER
  9
$CECOLOR
 62
   256
  9
$DIMSCALE
 40
1.0
  9
$DIMASZ
 40
0.1875
  9
$DIMEXO
 40
0.0625
  9
$DIMDLI
 40
0.4443307087
  9
$DIMRND
 40
0.0
  9
$DIMDLE
 40
0.0
  9
$DIMEXE
 40
0.125
  9
$DIMTP
 40
0.01
  9
$DIMTM
 40
0.01
  9
$DIMTXT
 40
2.0
  9
$DIMCEN
 40
0.1052362205
  9
$DIMTSZ
 40
0.0
  9
$DIMTOL
 70
     1
  9
$DIMLIM
 70
     0
  9
$DIMTIH
 70
     1
  9
$DIMTOH
 70
     1
  9
$DIMSE1
 70
     0
  9
$DIMSE2
 70
     0
  9
$DIMTAD
 70
     0
  9
$DIMZIN
 70
     0
  9
$DIMBLK
  1

  9
$DIMASO
 70
     1
  9
$DIMSHO
 70
     1
  9
$DIMPOST
  1
\X
  9
$DIMAPOST
  1

  9
$DIMALT
 70
     1
  9
$DIMALTD
 70
     2
  9
$DIMALTF
 40
25.3999999999999986
  9
$DIMLFAC
 40
1.0
  9
$DIMTOFL
 70
     0
  9
$DIMTVP
 40
0.0
  9
$DIMTIX
 70
     0
  9
$DIMSOXD
 70
     0
  9
$DIMSAH
 70
     0
  9
$DIMBLK1
  1

  9
$DIMBLK2
  1

  9
$DIMSTYLE
  2
STANDARD
  9
$DIMCLRD
 70
     0
  9
$DIMCLRE
 70
     0
  9
$DIMCLRT
 70
     0
  9
$DIMTFAC
 40
1.0
  9
$DIMGAP
 40
0.09
  9
$LUNITS
 70
     2
  9
$LUPREC
 70
     4
  9
$SKETCHINC
 40
0.1
  9
$FILLETRAD
 40
0.0
  9
$AUNITS
 70
     0
  9
$AUPREC
 70
     0
  9
$MENU
  1
.
  9
$ELEVATION
 40
0.0
  9
$PELEVATION
 40
0.0
  9
$THICKNESS
 40
0.0
  9
$LIMCHECK
 70
     0
  9
$BLIPMODE
 70
     0
  9
$CHAMFERA
 40
0.0
  9
$CHAMFERB
 40
0.0
  9
$SKPOLY
 70
     0
  9
$TDCREATE
 40
2458060.468368056230247
  9
$TDUPDATE
 40
2459128.593912037089467
  9
$TDINDWG
 40
0.4161413194
  9
$TDUSRTIMER
 40
0.4161413194
  9
$USRTIMER
 70
     1
  9
$ANGBASE
 50
0.0
  9
$ANGDIR
 70
     0
  9
$PDMODE
 70
     0
  9
$PDSIZE
 40
0.3125
  9
$PLINEWID
 40
0.0
  9
$COORDS
 70
     1
  9
$SPLFRAME
 70
     0
  9
$SPLINETYPE
 70
     6
  9
$SPLINESEGS
 70
     8
  9
$ATTDIA
 70
     1
  9
$ATTREQ
 70
     1
  9
$HANDLING
 70
     1
  9
$HANDSEED
  5
9369
  9
$SURFTAB1
 70
     6
  9
$SURFTAB2
 70
     6
  9
$SURFTYPE
 70
     6
  9
$SURFU
 70
     6
  9
$SURFV
 70
     6
  9
$UCSNAME
  2

  9
$UCSORG
 10
0.0
 20
0.0
 30
0.0
  9
$UCSXDIR
 10
1.0
 20
0.0
 30
0.0
  9
$UCSYDIR
 10
0.0
 20
1.0
 30
0.0
  9
$PUCSNAME
  2

  9
$PUCSORG
 10
0.0
 20
0.0
 30
0.0
  9
$PUCSXDIR
 10
1.0
 20
0.0
 30
0.0
  9
$PUCSYDIR
 10
0.0
 20
1.0
 30
0.0
  9
$USERI1
 70
     0
  9
$USERI2
 70
     0
  9
$USERI3
 70
     0
  9
$USERI4
 70
     0
  9
$USERI5
 70
     0
  9
$USERR1
 40
0.0
  9
$USERR2
 40
0.0
  9
$USERR3
 40
0.0
  9
$USERR4
 40
0.0
  9
$USERR5
 40
0.0
  9
$WORLDVIEW
 70
     1
  9
$SHADEDGE
 70
     3
  9
$SHADEDIF
 70
    70
  9
$TILEMODE
 70
     1
  9
$MAXACTVP
 70
    64
  9
$PLIMCHECK
 70
     0
  9
$PEXTMIN
 10
1.0000000000000000E+20
 20
1.0000000000000000E+20
 30
1.0000000000000000E+20
  9
$PEXTMAX
 10
-1.0000000000000000E+20
 20
-1.0000000000000000E+20
 30
-1.0000000000000000E+20
  9
$PLIMMIN
 10
0.0
 20
0.0
  9
$PLIMMAX
 10
12.0
 20
9.0
  9
$UNITMODE
 70
     0
  9
$VISRETAIN
 70
     1
  9
$PLINEGEN
 70
     0
  9
$PSLTSCALE
 70
     1
  0
ENDSEC
  0
SECTION
  2
TABLES
  0
TABLE
  2
VPORT
 70
     1
  0
VPORT
  2
*ACTIVE
 70
     0
 10
0.0
 20
0.0
 11
1.0
 21
1.0
 12
226.1363695061259023
 22
13.7419149088310295
 13
0.0
 23
0.0
 14
1.0
 24
1.0
 15
0.0
 25
0.0
 16
0.0
 26
0.0
 36
5.1040778033513332
 17
3792.35791015625
 27
120.1806564331053977
 37
0.0
 40
63.9117166354779371
 41
2.005224660397074
 42
50.0
 43
0.0
 44
0.0
 50
0.0
 51
0.0
 71
     0
 72
   100
 73
     1
 74
     1
 75
     0
 76
     0
 77
     0
 78
     0
  0
ENDTAB
  0
TABLE
  2
LTYPE
 70
     2
  0
LTYPE
  2
CONTINUOUS
 70
     0
  3
Solid line
 72
    65
 73
     0
 40
0.0
  0
LTYPE
  2
PHANTOM2
 70
     0
  3
___ _ _ ___ _ _ ___ _ _ ___ _ _
 72
    65
 73
     6
 40
1.25
 49
0.625
 49
-0.125
 49
0.125
 49
-0.125
 49
0.125
 49
-0.125
  0
ENDTAB
  0
TABLE
  2
LAYER
 70
     2
  0
LAYER
  2
0
 70
     0
 62
   255
  6
CONTINUOUS
  0
LAYER
  2
DEFPOINTS
 70
     0
 62
     7
  6
CONTINUOUS
  0
ENDTAB
  0
TABLE
  2
STYLE
 70
     1
  0
STYLE
  2
STANDARD
 70
     0
 40
0.0
 41
0.8
 50
0.0
 71
     0
 42
0.2
  3
txt
  4

  0
ENDTAB
  0
TABLE
  2
VIEW
 70
     0
  0
ENDTAB
  0
TABLE
  2
UCS
 70
     0
  0
ENDTAB
  0
TABLE
  2
APPID
 70
     9
  0
APPID
  2
ACAD
 70
     0
  0
APPID
  2
ACAD_MLEADERVER
 70
     0
  0
APPID
  2
ACAD_EXEMPT_FROM_CAD_STANDARDS
 70
     0
  0
APPID
  2
ACAD_NAV_VCDISPLAY
 70
     0
  0
APPID
  2
ACAECLAYERSTANDARD
 70
     0
  0
APPID
  2
ACCMTRANSPARENCY
 70
     0
  0
APPID
  2
ACAD_DSTYLE_DIMJAG
 70
     0
  0
APPID
  2
ACAD_DSTYLE_DIMTALN
 70
     0
  0
APPID
  2
ACDBATTR
 70
     0
  0
ENDTAB
  0
TABLE
  2
DIMSTYLE
 70
     1
  0
DIMSTYLE
  2
STANDARD
 70
     0
  3

  4

  5

  6

  7

 40
1.0
 41
0.1875
 42
0.0625
 43
0.38
 44
0.125
 45
0.0
 46
0.0
 47
0.01
 48
0.01
140
0.15625
141
0.09
142
0.0
143
25.3999999999999986
144
1.0
145
0.0
146
1.0
147
0.09
 71
     1
 72
     0
 73
     1
 74
     1
 75
     0
 76
     0
 77
     0
 78
     4
170
     0
171
     2
172
     0
173
     0
174
     0
175
     0
176
     0
177
     0
178
     0
  0
ENDTAB
  0
ENDSEC
  0
SECTION
  2
BLOCKS
  0
BLOCK
  8
0
  2
$MODEL_SPACE
 70
     0
 10
0.0
 20
0.0
 30
0.0
  3
$MODEL_SPACE
  1

  0
ENDBLK
  5
21
  8
0
  0
BLOCK
 67
     1
  8
0
  2
$PAPER_SPACE
 70
     0
 10
0.0
 20
0.0
 30
0.0
  3
$PAPER_SPACE
  1

  0
ENDBLK
  5
1D
 67
     1
  8
0
  0
BLOCK
  8
0
  2
_FILLED
 70
     0
 10
0.0
 20
0.0
 30
0.0
  3
_FILLED
  1

  0
SOLID
  5
69B4
  8
0
  6
BYBLOCK
 62
     0
 10
0.0
 20
0.0
 30
0.0
 11
-1.0
 21
0.1666666667
 31
0.0
 12
-1.0
 22
-0.1666666667
 32
0.0
 13
-1.0
 23
-0.1666666667
 33
0.0
  0
ENDBLK
  5
69B5
  8
0
  6
BYBLOCK
 62
     0
  0
BLOCK
  8
0
  2
A$CDFAF6206
 70
     0
 10
0.0
 20
0.0
 30
0.0
  3
A$CDFAF6206
  1

  0
LINE
  5
6A0E
  8
0
 10
7.4646650085734834
 20
10.9287685970688493
 30
0.0
 11
7.4646650085734896
 21
10.8905784766688498
 31
0.0
  0
ARC
  5
6A0F
  8
0
 10
7.7269027075262349
 20
10.8926811525838598
 30
0.0
 40
0.2622461286616791
 50
180.4593995232625048
 51
217.0214027758331099
  0
LINE
  5
6A10
  8
0
 10
9.767814609867095
 20
10.9287685970688493
 30
0.0
 11
9.767814609867095
 21
10.8905433757650094
 31
0.0
  0
ARC
  5
6A11
  8
0
 10
9.5068669568548287
 20
10.8922438613003703
 30
0.0
 40
0.2609531936261092
 50
322.8847083717149076
 51
359.6266329125650145
  0
LINE
  5
6A12
  8
0
 10
7.517522606271406
 20
10.7347792678688396
 30
0.0
 11
9.7149570120691777
 21
10.7347792678688396
 31
0.0
  0
LINE
  5
6A13
  8
0
 10
7.4646650085734834
 20
10.9287685970688493
 30
0.0
 11
9.7678146123202936
 21
10.9287685970688493
 31
0.0
  0
ARC
  5
6A14
  8
0
 10
4.0826771419203629
 20
8.527951346868889
 30
0.0
 40
4.0826771653999172
 50
13.3117747050523896
 51
32.7200330051415591
  0
ARC
  5
6A15
  8
0
 10
4.0826771460567306
 20
8.5279513475907933
 30
0.0
 40
4.0826771612084691
 50
359.6656501984817851
 51
13.3117747085593798
  0
ARC
  5
6A16
  8
0
 10
13.1498041284835097
 20
8.5279508235212234
 30
0.0
 40
4.0826788382043553
 50
147.2799733478981068
 51
166.6882233021349862
  0
ARC
  5
6A17
  8
0
 10
13.1498064934207992
 20
8.5279506557033251
 30
0.0
 40
4.0826811782395342
 50
166.688228652086309
 51
180.3343397625230011
  0
LINE
  5
6A18
  8
0
 10
8.1652847935202928
 20
8.504127000268852
 30
0.0
 11
9.0671948248202892
 21
8.5041270002687881
 31
0.0
  0
LINE
  5
6A19
  8
0
 10
8.1652847935202786
 20
8.5041270002667204
 30
0.0
 11
8.1652847935202928
 21
8.3607006934688481
 31
0.0
  0
ARC
  5
6A1A
  8
0
 10
5.6196779630382627
 20
8.3631022096452732
 30
0.0
 40
2.545607963272567
 50
342.0511668832173768
 51
359.945947387132378
  0
LINE
  5
6A1B
  8
0
 10
9.0671948248202892
 20
8.5041270002687881
 30
0.0
 11
9.0671948248202892
 21
8.2885990108688503
 31
0.0
  0
ARC
  5
6A1C
  8
0
 10
9.4521885297801163
 20
7.9614488056228501
 30
0.0
 40
0.5052201595850959
 50
139.6436242991769916
 51
174.6757930071850069
  0
ARC
  5
6A1D
  8
0
 10
9.9238413395551746
 20
8.1492417579399508
 30
0.0
 40
0.9848265662939324
 50
188.2263441834095943
 51
209.5593615864376034
  0
ARC
  5
6A1E
  8
0
 10
8.0788764238271256
 20
7.5665710856463297
 30
0.0
 40
0.0393715937169877
 50
162.1669117288323037
 51
227.2023190037006088
  0
ARC
  5
6A1F
  8
0
 10
8.7223682141740682
 20
8.2079667397440517
 30
0.0
 40
0.947895137885075
 50
225.0018610752970858
 51
261.4598823366255829
  0
ARC
  5
6A20
  8
0
 10
8.6645157662702701
 20
8.1695128573935332
 30
0.0
 40
0.9027466462812931
 50
264.7303071214498118
 51
281.8608311947915013
  0
ARC
  5
6A21
  8
0
 10
8.6645157662698935
 20
8.1695128573999671
 30
0.0
 40
0.9027466462876658
 50
299.1741886792128753
 51
299.1743179154552195
  0
ARC
  5
6A22
  8
0
 10
9.0843330931590316
 20
7.4150554710086141
 30
0.0
 40
0.0393703053609601
 50
251.9700352025496954
 51
252.4698971938937859
  0
ARC
  5
6A23
  8
0
 10
9.0843330931590316
 20
7.4150554710086141
 30
0.0
 40
0.0393703053609601
 50
297.2453716727138726
 51
6.8376113572703074
  0
LINE
  5
6A24
  8
0
 10
9.0671948248202892
 20
7.663402160468852
 30
0.0
 11
9.1234233799329516
 21
7.419742732911689
 31
0.0
  0
ARC
  5
6A25
  8
0
 10
8.8843741880892395
 20
9.8961379890094676
 30
0.0
 40
2.5255097382132701
 50
263.792800240752797
 51
274.9514951129821156
  0
ARC
  5
6A26
  8
0
 10
8.8258167405968848
 20
9.2763025889666508
 30
0.0
 40
1.9029970832759311
 50
246.0108363320686067
 51
263.5276935074397215
  0
ARC
  5
6A27
  8
0
 10
8.607491361665744
 20
8.3225444804829642
 30
0.0
 40
1.064510137163637
 50
283.1717405874071005
 51
297.7022170607311864
  0
LINE
  5
6A28
  8
0
 10
9.0671948248202892
 20
8.2885990108688503
 30
0.0
 11
26.2014378595979593
 21
8.2885990108689942
 31
0.0
  0
LINE
  5
6A29
  8
0
 10
26.2014378595979913
 20
7.6634021604689053
 30
0.0
 11
9.0671948248202892
 21
7.6634021604688618
 31
0.0
  0
LINE
  5
6A2A
  8
0
 10
27.8039676758446994
 20
10.9287685970690802
 30
0.0
 11
27.8039676758446888
 21
10.8905784766690807
 31
0.0
  0
ARC
  5
6A2B
  8
0
 10
27.5417299768919399
 20
10.8926811525840801
 30
0.0
 40
0.2622461286616791
 50
322.9785972241680838
 51
359.5406004767386889
  0
LINE
  5
6A2C
  8
0
 10
25.5008180745510913
 20
10.9287685970690305
 30
0.0
 11
25.5008180745510913
 21
10.8905433757651799
 31
0.0
  0
ARC
  5
6A2D
  8
0
 10
25.7617657275633505
 20
10.8922438613005497
 30
0.0
 40
0.2609531936261092
 50
180.3733670874362929
 51
217.1152916282862861
  0
LINE
  5
6A2E
  8
0
 10
27.7511100781467803
 20
10.7347792678690706
 30
0.0
 11
25.5536756723490015
 21
10.7347792678690208
 31
0.0
  0
LINE
  5
6A2F
  8
0
 10
27.8039676758446888
 20
10.9287685970686006
 30
0.0
 11
25.5008180745510806
 21
10.9287685970686006
 31
0.0
  0
ARC
  5
6A30
  8
0
 10
31.1859555424978616
 20
8.5279513468691981
 30
0.0
 40
4.0826771653999172
 50
147.2799669948597057
 51
166.6882252949490066
  0
ARC
  5
6A31
  8
0
 10
31.185955538361501
 20
8.5279513475911024
 30
0.0
 40
4.0826771612084691
 50
166.6882252914419098
 51
180.3343498015194086
  0
ARC
  5
6A32
  8
0
 10
22.1188285559344706
 20
8.5279508235212251
 30
0.0
 40
4.0826788382046102
 50
13.3117766978667795
 51
32.7200266521023977
  0
ARC
  5
6A33
  8
0
 10
22.1188261909974315
 20
8.5279506557034264
 30
0.0
 40
4.0826811782395342
 50
359.665660237478221
 51
13.31177134791497
  0
LINE
  5
6A34
  8
0
 10
27.1033478908979397
 20
8.5041270002690652
 30
0.0
 11
26.2014378595979416
 21
8.5041270002689835
 31
0.0
  0
LINE
  5
6A35
  8
0
 10
27.1033478908979504
 20
8.5041270002669354
 30
0.0
 11
27.1033478908979397
 21
8.3607006934690649
 31
0.0
  0
ARC
  5
6A36
  8
0
 10
29.6489547213799689
 20
8.3631022096455467
 30
0.0
 40
2.545607963272567
 50
180.0540526128687873
 51
197.9488331167837032
  0
LINE
  5
6A37
  8
0
 10
26.2014378595979416
 20
8.5041270002689835
 30
0.0
 11
26.2014378595979487
 21
8.2885990108690457
 31
0.0
  0
ARC
  5
6A38
  8
0
 10
25.8164441546381305
 20
7.9614488056230366
 30
0.0
 40
0.5052201595850959
 50
5.324206992816312
 51
40.3563757008241879
  0
ARC
  5
6A39
  8
0
 10
25.3447913448601803
 20
8.149241757940846
 30
0.0
 40
0.9848265662968968
 50
330.4406384136033807
 51
351.7736558165743759
  0
ARC
  5
6A3A
  8
0
 10
27.1897562605911212
 20
7.5665710856465473
 30
0.0
 40
0.0393715937169877
 50
312.7976809963004143
 51
17.8330882711689185
  0
ARC
  5
6A3B
  8
0
 10
26.5462644702441715
 20
8.2079667397442542
 30
0.0
 40
0.947895137885075
 50
278.5401176633754972
 51
314.9981389247041079
  0
ARC
  5
6A3C
  8
0
 10
26.6041169181479695
 20
8.1695128573937392
 30
0.0
 40
0.9027466462812931
 50
258.139168805210204
 51
275.2696928785518935
  0
ARC
  5
6A3D
  8
0
 10
26.6041169181483497
 20
8.1695128574001732
 30
0.0
 40
0.9027466462876658
 50
240.8256820845460027
 51
240.8258113207880058
  0
ARC
  5
6A3E
  8
0
 10
26.1842995912592293
 20
7.4150554710088086
 30
0.0
 40
0.0393703053609601
 50
287.5301028061073794
 51
288.0299647974517825
  0
ARC
  5
6A3F
  8
0
 10
26.1842995912592293
 20
7.4150554710088086
 30
0.0
 40
0.0393703053609601
 50
173.1623886427310026
 51
242.7546283272870085
  0
LINE
  5
6A40
  8
0
 10
26.2014378595981192
 20
7.6634021604690448
 30
0.0
 11
26.1452093044853093
 21
7.4197427329118826
 31
0.0
  0
ARC
  5
6A41
  8
0
 10
26.384258496328961
 20
9.8961379890096666
 30
0.0
 40
2.5255097382132701
 50
265.0485048870193054
 51
276.2071997592482262
  0
ARC
  5
6A42
  8
0
 10
26.4428159438213299
 20
9.2763025889668516
 30
0.0
 40
1.9029970832759311
 50
276.4723064925619838
 51
293.9891636679327007
  0
ARC
  5
6A43
  8
0
 10
26.6611413227524885
 20
8.3225444804831703
 30
0.0
 40
1.064510137163637
 50
242.2977829392704052
 51
256.8282594125943774
  0
LINE
  5
6A44
  8
0
 62
     4
 10
17.9031473532159602
 20
10.9287685970686006
 30
0.0
 11
24.6329820359843588
 21
20.0952817181593808
 31
0.0
  0
LINE
  5
6A45
  8
0
 62
     4
 10
17.9031473532159602
 20
-0.0000000300842942
 30
0.0
 11
22.3963351323106608
 21
4.993614497796286
 31
0.0
  0
ENDBLK
  5
6A49
  8
0
  0
ENDSEC
  0
SECTION
  2
ENTITIES
  0
ATTDEF
  5
3930
  8
DEFPOINTS
 10
4002.7985217956011184
 20
135.8409039065878119
 30
0.0
 40
0.001
  1
K-37398T-4
  3

  2
MODELNUMBER
 70
     0
1001
ACDBATTR
1070
     0
1070
     1
  0
ATTDEF
  5
3931
  8
DEFPOINTS
 10
4002.7985217956011184
 20
135.8392372399212036
 30
0.0
 40
0.001
  1
JULY
  3

  2
TRADENAME
 70
     0
1001
ACDBATTR
1070
     0
1070
     1
  0
ATTDEF
  5
3932
  8
DEFPOINTS
 10
4002.7985217956011184
 20
135.83757057325451
 30
0.0
 40
0.001
  1
BATH AND SHOWER FAUCET
  3

  2
PRODUCT
 70
     0
1001
ACDBATTR
1070
     0
1070
     1
  0
ARC
  5
906F
  8
0
 10
4014.7854448347297875
 20
132.8651139655501936
 30
0.0
 40
0.7355047934923594
 50
310.1463051894421028
 51
1.075775904064135
  0
ARC
  5
9070
  8
0
 10
4012.4378644540770438
 20
135.7295883783172883
 30
0.0
 40
4.4390022132339997
 50
301.1495546577219216
 51
309.4705373816988185
  0
ARC
  5
9071
  8
0
 10
4017.8497837909580994
 20
126.8902360973336982
 30
0.0
 40
5.9256324075287639
 50
121.7225993652243972
 51
127.5288615377058932
  0
ARC
  5
9072
  8
0
 10
4015.4994962623068204
 20
129.9177701534453035
 30
0.0
 40
2.0930454526813351
 50
126.9914436548921941
 51
157.4247593259842972
  0
ARC
  5
9073
  8
0
 10
4015.7947889273741566
 20
129.9362186933755936
 30
0.0
 40
2.3622310820786532
 50
160.5891326106057022
 51
176.3570046214923082
  0
ARC
  5
9074
  8
0
 10
4015.2550198924727738
 20
130.1685417495424133
 30
0.0
 40
1.819547716239762
 50
182.590168921851614
 51
209.3540501901470918
  0
ARC
  5
9075
  8
0
 10
4015.8191134398680333
 20
130.550617329222888
 30
0.0
 40
2.4991497626601888
 50
210.6494492953526958
 51
234.7786401727445025
  0
ARC
  5
9076
  8
0
 10
4016.1017241100389583
 20
131.2803447192081023
 30
0.0
 40
3.263812238092457
 50
238.1157329932140954
 51
270.5468896847963833
  0
ARC
  5
9077
  8
0
 10
4015.0724510701729741
 20
130.3427840444684023
 30
0.0
 40
1.3104679581863561
 50
180.53567339195979
 51
204.2464091506761008
  0
ARC
  5
9078
  8
0
 10
4015.3450346443951275
 20
130.489290878750495
 30
0.0
 40
1.619315726156296
 50
205.0122378208793066
 51
229.5180672015673906
  0
ARC
  5
9079
  8
0
 10
4015.2295335237067775
 20
129.7550038836052977
 30
0.0
 40
1.059744292997659
 50
177.316218331632399
 51
207.9915559894018884
  0
ARC
  5
907A
  8
0
 10
4013.9871001491351308
 20
130.283926740104107
 30
0.0
 40
0.1115298116728741
 50
85.9376119174833804
 51
169.1001338940804999
  0
ARC
  5
907B
  8
0
 10
4013.7244618457712022
 20
129.886011374685495
 30
0.0
 40
0.446106500597703
 50
69.9257425199818812
 51
85.1678664810108472
  0
ARC
  5
907C
  8
0
 10
4019.05279437829995
 20
130.4743013852582862
 30
0.0
 40
4.8864688891398904
 50
179.8527577200441101
 51
187.2925126103496893
  0
ARC
  5
907D
  8
0
 10
4015.069105731135096
 20
130.3215784191943953
 30
0.0
 40
1.3070960148029089
 50
149.5150598928443912
 51
179.6075083643349046
  0
ARC
  5
907E
  8
0
 10
4015.6305146716349554
 20
129.944629318701999
 30
0.0
 40
1.982532154726955
 50
114.1335111147278951
 51
148.3580676847755058
  0
ARC
  5
907F
  8
0
 10
4016.1245172479011671
 20
128.9562480208766999
 30
0.0
 40
3.0868576258928391
 50
89.6873446511681465
 51
115.000548265019404
  0
ARC
  5
9080
  8
0
 10
4014.1903737516117872
 20
129.8061199468097016
 30
0.0
 40
0.0144238707011299
 50
186.0742640801566097
 51
231.645064771458209
  0
ARC
  5
9081
  8
0
 10
4014.1726017168098224
 20
129.8057450139270088
 30
0.0
 40
0.0140504920392003
 50
308.8915291098704188
 51
355.3025222905507121
  0
ARC
  5
9082
  8
0
 10
4013.8398124943219045
 20
129.8629658210304001
 30
0.0
 40
0.3516706972078929
 50
350.4456381907244236
 51
358.4305027054579114
  0
ARC
  5
9083
  8
0
 10
4015.4449193529608237
 20
130.3954447489226141
 30
0.0
 40
1.2818414717419631
 50
135.4044940699751862
 51
175.910495658652593
  0
ARC
  5
9084
  8
0
 10
4016.080018962019949
 20
129.6614220435089067
 30
0.0
 40
2.2507492517630991
 50
88.438244445839473
 51
133.4495267847912032
  0
LINE
  5
9085
  8
0
 10
4014.1866050131479824
 20
129.8045943540195992
 30
0.0
 11
4013.8775823966479948
 21
129.8046250322196045
 31
0.0
  0
LINE
  5
9086
  8
0
 10
4013.8775824295480561
 20
130.305016263319601
 30
0.0
 11
4013.8775823966479948
 21
129.8046250322196045
 31
0.0
  0
LINE
  5
9087
  8
0
 10
4013.99500121734809
 20
130.395176333419613
 30
0.0
 11
4014.1669499622571493
 21
130.3950933986868108
 31
0.0
  0
ARC
  5
9088
  8
0
 10
4017.4801715883031648
 20
132.860086340808607
 30
0.0
 40
0.7185162033165752
 50
178.4977431620339985
 51
231.1195534243641134
  0
ARC
  5
9089
  8
0
 10
4019.9395375402391437
 20
135.8188874774139947
 30
0.0
 40
4.5659138588744543
 50
230.4007540950535997
 51
239.1353495501357997
  0
ARC
  5
908A
  8
0
 10
4014.7264245922601731
 20
127.3209336664539961
 30
0.0
 40
5.4041912988180378
 50
51.8427375146911231
 51
57.9129416057921915
  0
ARC
  5
908B
  8
0
 10
4016.8323516363639101
 20
129.9511595096344081
 30
0.0
 40
2.0351441971542141
 50
21.7858702519208514
 51
52.7131752868472603
  0
ARC
  5
908C
  8
0
 10
4016.3223652183428385
 20
129.9390535481433062
 30
0.0
 40
2.5194971112221651
 50
3.344402124171765
 51
17.7338192705217885
  0
ARC
  5
908D
  8
0
 10
4017.0804372359461922
 20
130.1173719202762129
 30
0.0
 40
1.757413562799522
 50
331.4160571237493969
 51
358.97829519298989
  0
ARC
  5
908E
  8
0
 10
4016.6888447710239234
 20
130.3945559628714079
 30
0.0
 40
2.2345980498739908
 50
302.4541468925864933
 51
329.9789138516165963
  0
ARC
  5
908F
  8
0
 10
4016.1640738911441986
 20
131.2803423346246916
 30
0.0
 40
3.2638102775613822
 50
269.4523307925634867
 51
301.8832200342242231
  0
LINE
  5
9090
  8
0
 10
4014.1913695332491443
 20
129.853332625382194
 30
0.0
 11
4014.1995535169749019
 21
129.8533380274274123
 31
0.0
  0
LINE
  5
9091
  8
0
 10
4014.1995535169749019
 20
129.8533380274274123
 30
0.0
 11
4014.2058519460510979
 21
129.8540375196257912
 31
0.0
  0
ARC
  5
9092
  8
0
 10
4016.0160269504840471
 20
130.4964215226225122
 30
0.0
 40
1.920609567487195
 50
199.5391766157559914
 51
237.534384025890688
  0
ARC
  5
9093
  8
0
 10
4015.9024649477269122
 20
130.3642340478743904
 30
0.0
 40
1.7857401213370481
 50
196.6246513936532949
 51
237.372017045346098
  0
ARC
  5
9094
  8
0
 10
4015.8411035439421539
 20
131.051300396243505
 30
0.0
 40
2.3692048388453859
 50
229.2368025852995004
 51
247.6354633440955126
  0
ARC
  5
9095
  8
0
 10
4015.9679330955500518
 20
131.2816543334066921
 30
0.0
 40
2.6306593463123762
 50
246.9900695926918104
 51
254.1572109994980053
  0
ARC
  5
9096
  8
0
 10
4016.1326408819231801
 20
131.8097585168362116
 30
0.0
 40
3.1837002255597202
 50
253.9002294204219083
 51
270.1569524849031154
  0
ARC
  5
9097
  8
0
 10
4014.9956254443918624
 20
128.8890112477575087
 30
0.0
 40
0.0167809171405231
 50
230.962987076729803
 51
265.1415300334182916
  0
ARC
  5
9098
  8
0
 10
4014.9951765039199927
 20
128.8771082479198071
 30
0.0
 40
0.0049147617356014
 50
258.5895846605553743
 51
334.3475119144164864
  0
ARC
  5
9099
  8
0
 10
4003.4252628918361552
 20
129.106423684484497
 30
0.0
 40
11.5766577871433007
 50
358.8544535955346078
 51
359.5229737587720251
  0
ARC
  5
909A
  8
0
 10
4015.0052046410078219
 20
129.0102240962507949
 30
0.0
 40
0.003689731320977
 50
115.8589283740166991
 51
182.8429012706012031
  0
ARC
  5
909B
  8
0
 10
4015.0068376526642169
 20
129.0050833168714917
 30
0.0
 40
0.0090610229666587
 50
67.2436787333710697
 51
110.9670384514721064
  0
ARC
  5
909C
  8
0
 10
4015.6641699353249351
 20
130.9990140439716129
 30
0.0
 40
2.0904541180649052
 50
251.7738714776378117
 51
255.270036729856713
  0
ARC
  5
909D
  8
0
 10
4016.0748168457471365
 20
133.0153546010321861
 30
0.0
 40
4.146549879694895
 50
256.8666213588617211
 51
270.9195427091937063
  0
ARC
  5
909E
  8
0
 10
4016.0696272433101512
 20
132.9235749593383105
 30
0.0
 40
4.086725984051049
 50
256.6274961782715991
 51
271.0057731246398021
  0
ARC
  5
909F
  8
0
 10
4015.1494861986329852
 20
128.8673818278147962
 30
0.0
 40
0.0527009698353048
 50
188.6569167074131883
 51
241.6310948835682098
  0
ARC
  5
90A0
  8
0
 10
4016.3218909955539857
 20
130.8135387351437942
 30
0.0
 40
2.3246605925038728
 50
238.9954931793652975
 51
242.5297236557076133
  0
ARC
  5
90A1
  8
0
 10
4015.1155065675097831
 20
128.9317200568115993
 30
0.0
 40
0.0181758007058658
 50
60.4384847711989295
 51
175.5465322581160876
  0
LINE
  5
90A2
  8
0
 10
4015.0973856324480948
 20
128.8594494115195914
 30
0.0
 11
4015.0973856445480124
 21
128.9331313974196007
 31
0.0
  0
LINE
  5
90A3
  8
0
 10
4014.9996069161438754
 20
128.8749805433465951
 30
0.0
 11
4015.1411971899869968
 21
128.7842804449400091
 31
0.0
  0
LINE
  5
90A4
  8
0
 10
4015.0090597636699385
 20
128.9071971549298041
 30
0.0
 11
4015.0003115073491244
 21
128.9134316944195859
 31
0.0
  0
LINE
  5
90A5
  8
0
 10
4015.0094197056191661
 20
128.8779408524308963
 30
0.0
 11
4015.0094197056191661
 21
129.0137686573793019
 31
0.0
  0
ARC
  5
90A6
  8
0
 10
4015.0211327349438761
 20
128.8780616615011922
 30
0.0
 40
0.0117135852558534
 50
180.2389425740088029
 51
235.4899942658502141
  0
ARC
  5
90A7
  8
0
 10
4016.4680828256318819
 20
131.0390935593462984
 30
0.0
 40
2.6124510131487648
 50
236.1957072195565956
 51
239.9117166903010059
  0
ARC
  5
90A8
  8
0
 10
4015.6018143753608456
 20
130.6172808979663955
 30
0.0
 40
1.4519366039003001
 50
188.7991594017161106
 51
245.9787697970996874
  0
ARC
  5
90A9
  8
0
 10
4016.1243354411831206
 20
131.5778791377902053
 30
0.0
 40
2.543509436638498
 50
244.0359049346498921
 51
270.3835520578152227
  0
ARC
  5
90AA
  8
0
 10
4017.2102820262912246
 20
130.3427905359750127
 30
0.0
 40
1.3104679581863561
 50
335.7539388056683265
 51
359.4646745643884174
  0
ARC
  5
90AB
  8
0
 10
4016.9376975623390535
 20
130.4892957148587129
 30
0.0
 40
1.619315726156296
 50
310.4822807547885759
 51
334.9881101354691282
  0
ARC
  5
90AC
  8
0
 10
4017.0532031423381341
 20
129.7550094211634075
 30
0.0
 40
1.059744292997659
 50
332.0087919669500138
 51
2.6841296247169031
  0
ARC
  5
90AD
  8
0
 10
4018.2956333047482076
 20
130.2839398229303924
 30
0.0
 40
0.1115298116728741
 50
10.9002140622661692
 51
94.0627360388508151
  0
ARC
  5
90AE
  8
0
 10
4018.5582740246400135
 20
129.8860260525173942
 30
0.0
 40
0.446106500597703
 50
94.832481475335328
 51
110.0746054363466016
  0
ARC
  5
90AF
  8
0
 10
4013.2299379195342226
 20
130.4742837042014116
 30
0.0
 40
4.8864688891398904
 50
352.7078353459987738
 51
0.1475902363048627
  0
ARC
  5
90B0
  8
0
 10
4017.2136274941090051
 20
130.3215849310174974
 30
0.0
 40
1.3070960148029089
 50
0.3928395920133858
 51
30.4852880635072516
  0
ARC
  5
90B1
  8
0
 10
4016.6522208428250451
 20
129.9446324211045862
 30
0.0
 40
1.982532154726955
 50
31.6422802715791889
 51
65.8668368416342105
  0
ARC
  5
90B2
  8
0
 10
4018.0923626039871124
 20
129.8061317951676017
 30
0.0
 40
0.0144238707011299
 50
308.355283184881273
 51
353.9260838761898071
  0
ARC
  5
90B3
  8
0
 10
4018.1101346410650876
 20
129.8057569702141052
 30
0.0
 40
0.0140504920392003
 50
184.6978256657995985
 51
231.1088188464827056
  0
ARC
  5
90B4
  8
0
 10
4018.4429235160469034
 20
129.862979798340092
 30
0.0
 40
0.3516706972078929
 50
181.5698452508902108
 51
189.554709765627905
  0
ARC
  5
90B5
  8
0
 10
4016.8378134237018457
 20
130.3954489784343025
 30
0.0
 40
1.2818414717419631
 50
4.0898522976948133
 51
44.5958538863685376
  0
ARC
  5
90B6
  8
0
 10
4016.2027182723609258
 20
129.661422416084406
 30
0.0
 40
2.2507492517630991
 50
46.5508211715449605
 51
91.5621035105103545
  0
LINE
  5
90B7
  8
0
 10
4018.0961313517159397
 20
129.8046062252649051
 30
0.0
 11
4018.4051539680240239
 21
129.8046387801543062
 31
0.0
  0
LINE
  5
90B8
  8
0
 10
4018.4051508962547814
 20
130.3050300112448951
 30
0.0
 11
4018.4051539680240239
 21
129.8046387801543062
 31
0.0
  0
LINE
  5
90B9
  8
0
 10
4018.2877315609171092
 20
130.3951893682607874
 30
0.0
 11
4018.1157828165160026
 21
130.3951053892861012
 31
0.0
  0
LINE
  5
90BA
  8
0
 10
4018.0913665356279125
 20
129.8533444676918123
 30
0.0
 11
4018.0831825518698679
 21
129.853349820035703
 31
0.0
  0
LINE
  5
90BB
  8
0
 10
4018.0831825518698679
 20
129.853349820035703
 30
0.0
 11
4018.0768841185449674
 21
129.8540492739838896
 31
0.0
  0
ARC
  5
90BC
  8
0
 10
4016.2667052129590957
 20
130.4964222838050887
 30
0.0
 40
1.920609567487195
 50
302.4659639304700249
 51
340.461171340589317
  0
ARC
  5
90BD
  8
0
 10
4016.3802680184858218
 20
130.3642354987196086
 30
0.0
 40
1.7857401213370481
 50
302.6283309109969082
 51
343.3756965626997726
  0
ARC
  5
90BE
  8
0
 10
4016.4416252497271671
 20
131.0513022197227997
 30
0.0
 40
2.3692048388453859
 50
292.3648846122536042
 51
310.7635453710569209
  0
ARC
  5
90BF
  8
0
 10
4016.3147942991859054
 20
131.2816553866479126
 30
0.0
 40
2.6306593463123762
 50
285.8431369568536979
 51
293.0102783636573918
  0
ARC
  5
90C0
  8
0
 10
4016.1500827550271424
 20
131.8097611522989894
 30
0.0
 40
3.1837028594657082
 50
269.8430578084909826
 51
286.1001151679549253
  0
ARC
  5
90C1
  8
0
 10
4017.2871164808088906
 20
128.8890182058516132
 30
0.0
 40
0.0167809171405231
 50
274.8588179229412845
 51
309.037360879616017
  0
ARC
  5
90C2
  8
0
 10
4017.2875654935669445
 20
128.8771152087404914
 30
0.0
 40
0.0049147617356014
 50
205.6528360419347052
 51
281.4107632958032923
  0
ARC
  5
90C3
  8
0
 10
4028.8574777128101232
 20
129.1065009092004914
 30
0.0
 40
11.5766577871433007
 50
180.4773741975764949
 51
181.1458943608139975
  0
ARC
  5
90C4
  8
0
 10
4017.2775365480688379
 20
129.0102309961683886
 30
0.0
 40
0.003689731320977
 50
357.1574466857462085
 51
64.1414195823308404
  0
ARC
  5
90C5
  8
0
 10
4017.2759035676322128
 20
129.0050902068718983
 30
0.0
 40
0.0090610229666587
 50
69.033309504862487
 51
112.7566692229794967
  0
ARC
  5
90C6
  8
0
 10
4016.6185591758739974
 20
130.999016941966886
 30
0.0
 40
2.0904541180649052
 50
284.7303112265055915
 51
288.226476478689392
  0
ARC
  5
90C7
  8
0
 10
4016.2078968520841045
 20
133.0153736958340005
 30
0.0
 40
4.1465688013734336
 50
269.080608460410815
 51
283.1337105457548091
  0
ARC
  5
90C8
  8
0
 10
4016.2130867770129043
 20
132.9235951411745873
 30
0.0
 40
4.086745981938793
 50
268.9943762692100222
 51
283.3728341654834821
  0
ARC
  5
90C9
  8
0
 10
4017.1332558579260876
 20
128.8673878515155025
 30
0.0
 40
0.0527009698353048
 50
298.3692530727817029
 51
351.3434312489358149
  0
ARC
  5
90CA
  8
0
 10
4015.960839242046859
 20
130.8135376388129885
 30
0.0
 40
2.3246605925038728
 50
297.4706243006457953
 51
301.0048547769903848
  0
ARC
  5
90CB
  8
0
 10
4017.1672350983221804
 20
128.931726286868809
 30
0.0
 40
0.0181758007058658
 50
4.453815698232046
 51
119.5618631851567955
  0
LINE
  5
90CC
  8
0
 10
4017.1853564722828196
 20
128.8594557516263137
 30
0.0
 11
4017.1853560127128731
 21
128.9331377375249019
 31
0.0
  0
LINE
  5
90CD
  8
0
 10
4017.2831350942651625
 20
128.8749874772616124
 30
0.0
 11
4017.1415453712438648
 21
128.7842865189811903
 31
0.0
  0
LINE
  5
90CE
  8
0
 10
4017.2736820510881444
 20
128.9072040314372032
 30
0.0
 11
4017.2824302695471488
 21
128.9134386240548906
 31
0.0
  0
LINE
  5
90CF
  8
0
 10
4017.2733222868109806
 20
128.8779477267528932
 30
0.0
 11
4017.2733214619311184
 21
129.0137755316987977
 31
0.0
  0
ARC
  5
90D0
  8
0
 10
4017.2616092567532178
 20
128.8780684646901022
 30
0.0
 40
0.0117135852558534
 50
304.5103536904848056
 51
359.7614053823396034
  0
ARC
  5
90D1
  8
0
 10
4015.8146460421808115
 20
131.0390915751908096
 30
0.0
 40
2.6124510131487648
 50
300.088631266032678
 51
303.8046407368061068
  0
ARC
  5
90D2
  8
0
 10
4016.6809170540977902
 20
130.6172841746530082
 30
0.0
 40
1.4519366039003001
 50
294.0215781592440862
 51
351.2011885546324947
  0
ARC
  5
90D3
  8
0
 10
4016.1583894488740043
 20
131.5778812447858002
 30
0.0
 40
2.5435115469672192
 50
269.6164368854015834
 51
295.9644375542334842
  0
ARC
  5
90D4
  8
0
 10
4016.1597049559081825
 20
128.963014381936091
 30
0.0
 40
3.0800999267853491
 50
64.9715692261703737
 51
90.3412212717442884
  0
ARC
  5
90D5
  8
0
 10
4015.6433047577261277
 20
131.0475464408451103
 30
0.0
 40
0.0330415982118891
 50
101.9405375222206942
 51
187.7114402935272892
  0
ARC
  5
90D6
  8
0
 10
4015.6508269097530501
 20
131.0303372819508922
 30
0.0
 40
0.0515748050423913
 50
59.4794361314485585
 51
106.1646370492428986
  0
ARC
  5
90D7
  8
0
 10
4015.6511653965931146
 20
131.0544365551994019
 30
0.0
 40
0.0421528850980761
 50
195.5830993575457057
 51
264.1788806228017279
  0
ARC
  5
90D8
  8
0
 10
4015.6551586071191196
 20
131.0599731234366061
 30
0.0
 40
0.0481867916762018
 50
260.1195878243185007
 51
296.0537221275292268
  0
ARC
  5
90D9
  8
0
 10
4015.6616375383791819
 20
131.0448766870545114
 30
0.0
 40
0.0336151196871962
 50
341.4583925654159771
 51
62.7691236578527807
  0
ARC
  5
90DA
  8
0
 10
4015.6621325452151723
 20
131.0478021301506999
 30
0.0
 40
0.0342018987433322
 50
294.5130055796947204
 51
336.5422849771396159
  0
ARC
  5
90DB
  8
0
 10
4015.6529947870990327
 20
131.0014086414684868
 30
0.0
 40
0.0487458716215573
 50
37.1637391365577798
 51
140.6683988749709044
  0
ARC
  5
90DC
  8
0
 10
4015.6760843156462215
 20
130.8984149550288123
 30
0.0
 40
0.2586527435216195
 50
37.2993273488771919
 51
94.3190298413406225
  0
ARC
  5
90DD
  8
0
 10
4015.7374496283568988
 20
130.930732589635312
 30
0.0
 40
0.1905999394224224
 50
286.7251556355249136
 51
40.7518026659318693
  0
ARC
  5
90DE
  8
0
 10
4015.6284667300069486
 20
131.2330795314898069
 30
0.0
 40
0.3085723255391022
 50
229.2806721338941998
 51
285.2992246845089994
  0
ARC
  5
90DF
  8
0
 10
4015.5202597148600034
 20
131.0937993485767947
 30
0.0
 40
0.132715884164553
 50
168.705429789149207
 51
225.457846483227712
  0
ARC
  5
90E0
  8
0
 10
4015.5647451207469203
 20
131.0509466190351873
 30
0.0
 40
0.1934727644364724
 50
103.9759643566861058
 51
118.6291043996921957
  0
ARC
  5
90E1
  8
0
 10
4015.6844141873471017
 20
131.0452958812354041
 30
0.0
 40
0.1127677500574411
 50
283.0548699011412168
 51
350.3537063498200155
  0
ARC
  5
90E2
  8
0
 10
4015.6923810805160429
 20
131.0345980380284914
 30
0.0
 40
0.1035315229886057
 50
355.4582820210648038
 51
32.7652072630624787
  0
ARC
  5
90E3
  8
0
 10
4015.6570346498951949
 20
131.009911723571804
 30
0.0
 40
0.1466234016563592
 50
33.4018609128999699
 51
75.5074804005276548
  0
ARC
  5
90E4
  8
0
 10
4015.6639349402680637
 20
131.0606912551581047
 30
0.0
 40
0.0959223698146246
 50
71.9050744790456946
 51
94.3824300119293866
  0
ARC
  5
90E5
  8
0
 10
4015.6812681568858352
 20
130.9004188675723981
 30
0.0
 40
0.2570999646463377
 50
95.5047059379903942
 51
111.0052286783734985
  0
ARC
  5
90E6
  8
0
 10
4015.6239959912331869
 20
131.0409874883119983
 30
0.0
 40
0.1053880499747729
 50
109.3310270404346056
 51
186.961816333507187
  0
ARC
  5
90E7
  8
0
 10
4015.6617334674879203
 20
131.0762262525263111
 30
0.0
 40
0.1499094987835662
 50
198.6562764755516923
 51
270.0391398319450786
  0
ARC
  5
90E8
  8
0
 10
4015.6390379196409413
 20
130.8769100245567074
 30
0.0
 40
0.3814864391919358
 50
34.8936985133545292
 51
108.4955525687199014
  0
ARC
  5
90E9
  8
0
 10
4015.7447700804159467
 20
130.9802652435490131
 30
0.0
 40
0.2368869130043496
 50
281.5747828003296718
 51
29.0086303172737701
  0
ARC
  5
90EA
  8
0
 10
4015.6622416133877778
 20
131.094521706161089
 30
0.0
 40
0.3699419348890058
 50
213.5456156924387017
 51
290.5831438544939829
  0
ARC
  5
90EB
  8
0
 10
4015.5637042455318806
 20
131.0042653553136915
 30
0.0
 40
0.2388368644652492
 50
101.0277256294478008
 51
112.8935895864364056
  0
ARC
  5
90EC
  8
0
 10
4015.5637042455318806
 20
131.0042653553136915
 30
0.0
 40
0.2388368644652492
 50
153.0446325142015951
 51
208.556704709273987
  0
ARC
  5
90ED
  8
0
 10
4015.5746650717778721
 20
131.6149444618409063
 30
0.0
 40
0.0330415982118891
 50
101.9405375222206942
 51
187.7114402935272892
  0
ARC
  5
90EE
  8
0
 10
4015.5821872238047945
 20
131.597735302946802
 30
0.0
 40
0.0515748050423913
 50
59.4794361314485585
 51
106.1646370492428986
  0
ARC
  5
90EF
  8
0
 10
4015.5825257106462232
 20
131.621834576195198
 30
0.0
 40
0.0421528850980761
 50
195.5830993575457057
 51
264.1788806228017279
  0
ARC
  5
90F0
  8
0
 10
4015.5865189211708639
 20
131.6273711444324022
 30
0.0
 40
0.0481867916762018
 50
260.1195878243185007
 51
296.0537221275292268
  0
ARC
  5
90F1
  8
0
 10
4015.5929978524318358
 20
131.6122747080503075
 30
0.0
 40
0.0336151196871962
 50
341.4583925654159771
 51
62.7691236578527807
  0
ARC
  5
90F2
  8
0
 10
4015.5934928592678261
 20
131.615200151146496
 30
0.0
 40
0.0342018987433322
 50
294.5130055796947204
 51
336.5422849771396159
  0
ARC
  5
90F3
  8
0
 10
4015.5843551011530508
 20
131.5688066624643113
 30
0.0
 40
0.0487458716215573
 50
37.1637391365577798
 51
140.6683988749709044
  0
ARC
  5
90F4
  8
0
 10
4015.6074446296997849
 20
131.4658129760269958
 30
0.0
 40
0.2586527435193546
 50
37.2993349375215573
 51
94.319029841445257
  0
ARC
  5
90F5
  8
0
 10
4015.6688099405810135
 20
131.4981306124452942
 30
0.0
 40
0.190599941686212
 50
286.7251560051184924
 51
40.751812173812219
  0
ARC
  5
90F6
  8
0
 10
4015.5598270440600572
 20
131.8004775524856029
 30
0.0
 40
0.3085723255391022
 50
229.2806721338941998
 51
285.2992246845089994
  0
ARC
  5
90F7
  8
0
 10
4015.451620028913112
 20
131.6611973695725908
 30
0.0
 40
0.132715884164553
 50
148.6306631496717898
 51
225.457846483227712
  0
ARC
  5
90F8
  8
0
 10
4015.4961054348009384
 20
131.618344640031097
 30
0.0
 40
0.1934727644364724
 50
103.9759643566861058
 51
144.6496783810461011
  0
ARC
  5
90F9
  8
0
 10
4015.6157745014011198
 20
131.6126939022312001
 30
0.0
 40
0.1127677500574411
 50
283.0548699011412168
 51
350.3537063498200155
  0
ARC
  5
90FA
  8
0
 10
4015.6237413945700609
 20
131.6019960590244011
 30
0.0
 40
0.1035315229886057
 50
355.4582820210648038
 51
32.7652072630624787
  0
ARC
  5
90FB
  8
0
 10
4015.588394068352045
 20
131.5773088818669976
 30
0.0
 40
0.1466246242500827
 50
33.4019496853059579
 51
75.506985279373481
  0
ARC
  5
90FC
  8
0
 10
4015.595295254319808
 20
131.6280892761539008
 30
0.0
 40
0.0959223698146246
 50
71.9050744790456946
 51
94.3824300119293866
  0
ARC
  5
90FD
  8
0
 10
4015.6126284709389438
 20
131.4678168885681941
 30
0.0
 40
0.2570999646463265
 50
95.5047059379903942
 51
111.0052286783734985
  0
ARC
  5
90FE
  8
0
 10
4015.555356305287205
 20
131.608385509307908
 30
0.0
 40
0.1053880499747729
 50
109.3310270404346056
 51
186.961816333507187
  0
ARC
  5
90FF
  8
0
 10
4015.5930937815410289
 20
131.6436242735221924
 30
0.0
 40
0.1499094987835662
 50
198.6562764755516923
 51
270.0391398319450786
  0
ARC
  5
9100
  8
0
 10
4015.5703982336949593
 20
131.4443080455525887
 30
0.0
 40
0.3814864391919358
 50
34.8936985133545292
 51
108.4955525687199014
  0
ARC
  5
9101
  8
0
 10
4015.6761303944690553
 20
131.5476632645448944
 30
0.0
 40
0.2368869130043504
 50
281.5747828003296718
 51
29.0086303172737701
  0
ARC
  5
9102
  8
0
 10
4015.5936019274417959
 20
131.6619197271569135
 30
0.0
 40
0.3699419348890058
 50
213.5456156924387017
 51
290.5831438544939829
  0
ARC
  5
9103
  8
0
 10
4015.4950645595849892
 20
131.5716633763094876
 30
0.0
 40
0.2388368644652492
 50
101.0277256294478008
 51
208.556704709273987
  0
ARC
  5
9104
  8
0
 10
4016.7010829600008037
 20
131.6262095071683973
 30
0.0
 40
0.0330415982118891
 50
101.9405375222206942
 51
187.7114402935272892
  0
ARC
  5
9105
  8
0
 10
4016.7086051120281809
 20
131.6090003482742929
 30
0.0
 40
0.0515748050423913
 50
59.4794361314485585
 51
106.1646370492428986
  0
ARC
  5
9106
  8
0
 10
4016.7089435988691548
 20
131.6330996215226889
 30
0.0
 40
0.0421528850980761
 50
195.5830993575457057
 51
264.1788806228017279
  0
ARC
  5
9107
  8
0
 10
4016.7129368093937956
 20
131.6386361897598931
 30
0.0
 40
0.0481867916762018
 50
260.1195878243185007
 51
296.0537221275292268
  0
ARC
  5
9108
  8
0
 10
4016.7194157406552222
 20
131.6235397533777984
 30
0.0
 40
0.0336151196871962
 50
341.4583925654159771
 51
62.7691236578527807
  0
ARC
  5
9109
  8
0
 10
4016.7199107474898483
 20
131.6264651964739869
 30
0.0
 40
0.0342018987433322
 50
294.5130055796947204
 51
336.5422849771396159
  0
ARC
  5
910A
  8
0
 10
4016.7107729893759824
 20
131.5800717077918023
 30
0.0
 40
0.0487458716215573
 50
37.1637391365577798
 51
140.6683988749709044
  0
ARC
  5
910B
  8
0
 10
4016.7338625179231713
 20
131.4770780213544867
 30
0.0
 40
0.2586527435193546
 50
37.2993349375215573
 51
94.319029841445257
  0
ARC
  5
910C
  8
0
 10
4016.7952278288030357
 20
131.5093956577728136
 30
0.0
 40
0.1905999416862055
 50
286.7251560051182082
 51
40.7518121738140735
  0
ARC
  5
910D
  8
0
 10
4016.6862449322829889
 20
131.8117425978130939
 30
0.0
 40
0.3085723255391022
 50
229.2806721338941998
 51
285.2992246845089994
  0
ARC
  5
910E
  8
0
 10
4016.5780379171360437
 20
131.6724624149001102
 30
0.0
 40
0.132715884164553
 50
148.6306631496717898
 51
225.457846483227712
  0
ARC
  5
910F
  8
0
 10
4016.6225233230229605
 20
131.6296096853585027
 30
0.0
 40
0.1934727644364724
 50
103.9759643566861058
 51
144.6496783810461011
  0
ARC
  5
9110
  8
0
 10
4016.7421923896240514
 20
131.6239589475588048
 30
0.0
 40
0.1127677500574411
 50
283.0548699011412168
 51
350.3537063498200155
  0
ARC
  5
9111
  8
0
 10
4016.7501592827920831
 20
131.6132611043518921
 30
0.0
 40
0.1035315229886057
 50
355.4582820210648038
 51
32.7652072630624787
  0
ARC
  5
9112
  8
0
 10
4016.7148119565749766
 20
131.5885739271944885
 30
0.0
 40
0.1466246242500827
 50
33.4019496853059579
 51
75.506985279373481
  0
ARC
  5
9113
  8
0
 10
4016.7217131425431944
 20
131.6393543214815054
 30
0.0
 40
0.0959223698146246
 50
71.9050744790456946
 51
94.3824300119293866
  0
ARC
  5
9114
  8
0
 10
4016.7390463591618754
 20
131.4790819338957135
 30
0.0
 40
0.2570999646463697
 50
95.5047059379903942
 51
111.0052286783732001
  0
ARC
  5
9115
  8
0
 10
4016.6817741935101367
 20
131.619650554635399
 30
0.0
 40
0.1053880499747729
 50
109.3310270404346056
 51
186.961816333507187
  0
ARC
  5
9116
  8
0
 10
4016.719511669763051
 20
131.6548893188497118
 30
0.0
 40
0.1499094987835662
 50
198.6562764755516923
 51
270.0391398319450786
  0
ARC
  5
9117
  8
0
 10
4016.6968161219169815
 20
131.4555730908799944
 30
0.0
 40
0.3814864391919358
 50
34.8936985133545292
 51
108.4955525687199014
  0
ARC
  5
9118
  8
0
 10
4016.8025482826910775
 20
131.5589283098724138
 30
0.0
 40
0.2368869130043542
 50
281.5747828003296718
 51
29.0086303172730595
  0
ARC
  5
9119
  8
0
 10
4016.720019815663818
 20
131.6731847724844044
 30
0.0
 40
0.3699419348890058
 50
213.5456156924387017
 51
290.5831438544939829
  0
ARC
  5
911A
  8
0
 10
4016.6214824478079208
 20
131.582928421637007
 30
0.0
 40
0.2388368644652492
 50
101.0277256294478008
 51
208.556704709273987
  0
ARC
  5
911B
  8
0
 10
4013.7387491783861151
 20
134.3102555416288055
 30
0.0
 40
0.019686755630113
 50
90.3112816277765518
 51
179.9944569323351971
  0
ARC
  5
911C
  8
0
 10
4013.7927177756591846
 20
134.5813335039115941
 30
0.0
 40
0.251574335440822
 50
267.8031185265188014
 51
310.4640540747911928
  0
ARC
  5
911D
  8
0
 10
4012.6814199874788756
 20
134.7590175739468918
 30
0.0
 40
1.362657866157452
 50
348.7926772666853026
 51
356.4680274071096164
  0
ARC
  5
911E
  8
0
 10
4013.7752808905911479
 20
134.568225518629788
 30
0.0
 40
0.2538530888825154
 50
315.3843435625150846
 51
343.0391069267450916
  0
LINE
  5
911F
  8
0
 10
4013.738642222947874
 20
134.3299420067195911
 30
0.0
 11
4013.7830740708491248
 21
134.3299440745196023
 31
0.0
  0
LINE
  5
9120
  8
0
 10
4013.6084187047481464
 20
135.8364884874696088
 30
0.0
 11
4013.6084187050269065
 21
135.5215232741857108
 31
0.0
  0
ARC
  5
9121
  8
0
 10
4013.6477887837190792
 20
135.5215270257903057
 30
0.0
 40
0.0393700788707239
 50
180.0054597582696942
 51
269.9999997515645873
  0
LINE
  5
9122
  8
0
 10
4014.0555773201767806
 20
135.4821569468346922
 30
0.0
 11
4014.0414895889671243
 21
134.6750703327195993
 31
0.0
  0
ARC
  5
9123
  8
0
 10
4013.7387953017700966
 20
133.1773822049318881
 30
0.0
 40
0.0197232883617137
 50
180.1062927732637888
 51
269.8638936018120944
  0
ARC
  5
9124
  8
0
 10
4016.1242932955278775
 20
133.3619214581684105
 30
0.0
 40
0.8867631754535519
 50
88.8971613598809256
 51
122.7798517867240946
  0
ARC
  5
9125
  8
0
 10
4015.9962800789708126
 20
133.5782393635359995
 30
0.0
 40
0.6356552383110352
 50
123.6352095782190048
 51
147.0029394879148015
  0
ARC
  5
9126
  8
0
 10
4015.9829268179341852
 20
133.5790720756598091
 30
0.0
 40
0.624037011943523
 50
146.3993624439812891
 51
196.1976529598130128
  0
ARC
  5
9127
  8
0
 10
4013.7258421258729868
 20
132.6918483404757865
 30
0.0
 40
1.804700086726913
 50
5.9499471139301559
 51
23.2760299724025614
  0
ARC
  5
9128
  8
0
 10
4016.1584287821629005
 20
133.3619214671390978
 30
0.0
 40
0.8867631754535517
 50
57.2201783278255292
 51
91.1028687546891831
  0
ARC
  5
9129
  8
0
 10
4016.2864418850240327
 20
133.578239439790309
 30
0.0
 40
0.635655238311035
 50
32.9970906266316319
 51
56.3648205363279615
  0
ARC
  5
912A
  8
0
 10
4016.2997951456231931
 20
133.5790721589324903
 30
0.0
 40
0.6240370119435229
 50
343.8023771547444198
 51
33.6006676705704024
  0
ARC
  5
912B
  8
0
 10
4018.5568803040068815
 20
132.6918496100682034
 30
0.0
 40
1.804700086726913
 50
156.7240001421540114
 51
174.0500830006272963
  0
LINE
  5
912C
  8
0
 10
4013.7190624228478555
 20
134.3102574462195946
 30
0.0
 11
4013.7190720473481633
 21
133.1773456151196058
 31
0.0
  0
LINE
  5
912D
  8
0
 10
4013.7387484490491261
 20
133.1576589722195934
 30
0.0
 11
4015.4631568952190719
 21
133.1576518525502024
 31
0.0
  0
ARC
  5
912E
  8
0
 10
4015.4630949446650447
 20
133.1775895880408882
 30
0.0
 40
0.0199378317368348
 50
270.1780289386283016
 51
287.6551206613484055
  0
ARC
  5
912F
  8
0
 10
4015.4631632611972236
 20
134.3102603080797053
 30
0.0
 40
0.0196786735307082
 50
359.9922841721843838
 51
88.9516563483920208
  0
ARC
  5
9130
  8
0
 10
4015.5194434229929357
 20
134.3101364231135904
 30
0.0
 40
0.0198077152910021
 50
90.1455191365212443
 51
182.4224682266550133
  0
ARC
  5
9131
  8
0
 10
4016.6311789679898538
 20
134.3101825899634889
 30
0.0
 40
0.0197542142015775
 50
1.7044646228534639
 51
88.5795395860512258
  0
ARC
  5
9132
  8
0
 10
4016.6359747493538634
 20
134.1294222637839084
 30
0.0
 40
0.0196919233347112
 50
270.0197541846400782
 51
1.4794617503114611
  0
ARC
  5
9133
  8
0
 10
4017.6850270590398395
 20
128.0812160478062083
 30
0.0
 40
6.3951022688147177
 50
95.5612820552989177
 51
102.2822539629408993
  0
ARC
  5
9134
  8
0
 10
4017.1026401860581245
 20
133.9347182767729123
 30
0.0
 40
0.5128619477931384
 50
75.8336650798677425
 51
94.1780024079694869
  0
ARC
  5
9135
  8
0
 10
4017.1524525005588657
 20
134.1515964222080868
 30
0.0
 40
0.2904276133719403
 50
10.82010381893142
 51
74.8904671727612339
  0
ARC
  5
9136
  8
0
 10
4017.1453733608927905
 20
134.1552618565048078
 30
0.0
 40
0.2963965764995055
 50
306.8984327850358795
 51
9.5378159090777004
  0
ARC
  5
9137
  8
0
 10
4016.2995129955320408
 20
135.5243759269725956
 30
0.0
 40
1.904703247760297
 50
288.6116634643727252
 51
302.5149839467599122
  0
LINE
  5
9138
  8
0
 10
4016.655660108272059
 20
134.1299306818607135
 30
0.0
 11
4016.6509244418480193
 21
134.3107701619190095
 31
0.0
  0
LINE
  5
9139
  8
0
 10
4016.653495954616119
 20
134.2125668481463094
 30
0.0
 11
4017.191313314891886
 21
134.439856330889711
 31
0.0
  0
LINE
  5
913A
  8
0
 10
4015.5193931156481995
 20
134.3299440745196023
 30
0.0
 11
4016.6316686585951174
 21
134.3299307337202038
 31
0.0
  0
ARC
  5
913B
  8
0
 10
4015.9231245367041083
 20
134.6915189537070887
 30
0.0
 40
0.7479575771703852
 50
181.2600913786388048
 51
197.6846438645382875
  0
ARC
  5
913C
  8
0
 10
4015.4130732303819968
 20
134.5503553510860115
 30
0.0
 40
0.2200795811344478
 50
203.0162077906277034
 51
271.0193027839048909
  0
LINE
  5
913D
  8
0
 10
4015.4169882813480399
 20
134.3303105956196077
 30
0.0
 11
4015.4635233027479444
 21
134.3299356876696038
 31
0.0
  0
LINE
  5
913E
  8
0
 10
4015.4828419345481052
 20
134.3102576580195944
 30
0.0
 11
4015.4828420059479868
 21
133.9530482324339005
 31
0.0
  0
LINE
  5
913F
  8
0
 10
4015.4996534092238107
 20
134.3092992014771028
 30
0.0
 11
4015.4997081522478766
 21
133.9750842951195864
 31
0.0
  0
LINE
  5
9140
  8
0
 10
4015.4828419835489512
 20
134.1905239655195885
 30
0.0
 11
4015.4997081033961877
 21
134.1908183646916939
 31
0.0
  0
LINE
  5
9141
  8
0
 10
4015.1612600897478842
 20
135.4821569280196059
 30
0.0
 11
4015.1753478385890048
 21
134.6750706406438098
 31
0.0
  0
LINE
  5
9142
  8
0
 10
4013.6084187047481464
 20
135.8364884874696088
 30
0.0
 11
4015.6084187047490559
 21
135.8364884874696088
 31
0.0
  0
LINE
  5
9143
  8
0
 10
4015.6084187047490559
 20
135.8364884874696088
 30
0.0
 11
4015.6084336265421371
 21
135.521527026426611
 31
0.0
  0
LINE
  5
9144
  8
0
 10
4013.6477887835490037
 20
135.4821569469195879
 30
0.0
 11
4015.569048641075824
 21
135.4821569470196039
 31
0.0
  0
ARC
  5
9145
  8
0
 10
4015.5690380699111302
 20
135.5215525104754022
 30
0.0
 40
0.0393955648740637
 50
270.015374399389998
 51
359.9629367278075165
  0
LINE
  5
9146
  8
0
 10
4000.3592040211478889
 20
134.8049924728786095
 30
0.0
 11
4000.3592039982481765
 21
135.0490869609984941
 31
0.0
  0
LINE
  5
9147
  8
0
 10
3999.3300701628481875
 20
134.8049923761606124
 30
0.0
 11
3999.3300701399230093
 21
135.0490868643406941
 31
0.0
  0
LINE
  5
9148
  8
0
 10
3999.2760774660491734
 20
135.0490868592696074
 30
0.0
 11
4000.4132058971490551
 21
135.0490869660696092
 31
0.0
  0
LINE
  5
9149
  8
0
 10
3999.2275909579489053
 20
135.0657789213695992
 30
0.0
 11
3998.6210816143238844
 21
135.5396358619696002
 31
0.0
  0
LINE
  5
914A
  8
0
 10
3998.5454250066491113
 20
135.694756081869599
 30
0.0
 11
3998.5454250066491113
 21
135.8168033259696017
 31
0.0
  0
LINE
  5
914B
  8
0
 10
3998.5651094378490598
 20
135.8364883672695953
 30
0.0
 11
4001.1241645541481375
 21
135.8364886076695939
 31
0.0
  0
LINE
  5
914C
  8
0
 10
4001.1438495953480015
 20
135.8168035701696112
 30
0.0
 11
4001.1438496068481072
 21
135.6947563261180107
 31
0.0
  0
LINE
  5
914D
  8
0
 10
4001.0681933466480587
 20
135.5396362757695954
 30
0.0
 11
4000.4616831771058969
 21
135.065779037269607
 31
0.0
  0
ARC
  5
914E
  8
0
 10
3999.276068235476032
 20
135.1278270194910931
 30
0.0
 40
0.0787401607624851
 50
232.0000056083354991
 51
270.0067166853621075
  0
ARC
  5
914F
  8
0
 10
3998.7422724520538395
 20
135.6947541963037906
 30
0.0
 40
0.1968474454139481
 50
179.9994511741707868
 51
232.0002035510757139
  0
ARC
  5
9150
  8
0
 10
3998.5651090078731613
 20
135.816804365922593
 30
0.0
 40
0.0196840013516582
 50
89.9987538203600508
 51
180.0030215429661098
  0
ARC
  5
9151
  8
0
 10
4000.9469971455769155
 20
135.6947567849059055
 30
0.0
 40
0.1968524612721409
 50
308.0006369058821747
 51
359.9998664654125946
  0
ARC
  5
9152
  8
0
 10
4001.124164555948937
 20
135.8168035683696075
 30
0.0
 40
0.0196850394000098
 50
0.0000104783149052
 51
89.9999999999739515
  0
ARC
  5
9153
  8
0
 10
4000.413205889748042
 20
135.1278271235688067
 30
0.0
 40
0.0787401574991552
 50
270.0000053841829981
 51
308.0000053787272236
  0
LINE
  5
9154
  8
0
 10
3998.6210816142502154
 20
135.5396358620274953
 30
0.0
 11
4001.0681924315272227
 21
135.5396360918695962
 31
0.0
  0
LINE
  5
9155
  8
0
 10
3999.3595285092678751
 20
134.2734964156192916
 30
0.0
 11
3999.35952643184919
 21
134.7459372815195877
 31
0.0
  0
LINE
  5
9156
  8
0
 10
3999.7391977555539597
 20
134.2734963778196118
 30
0.0
 11
3999.950077691442857
 21
134.2734963950196061
 31
0.0
  0
LINE
  5
9157
  8
0
 10
3999.950077691442857
 20
134.2734963950196061
 30
0.0
 11
3999.950077646949012
 21
134.7459373399196068
 31
0.0
  0
LINE
  5
9158
  8
0
 10
3999.950077646949012
 20
134.7459373399196068
 30
0.0
 11
3999.7391977556490019
 21
134.7459373227563049
 31
0.0
  0
LINE
  5
9159
  8
0
 10
3999.7391977556490019
 20
134.7459373227563049
 30
0.0
 11
3999.7391977556490019
 21
134.2734963778196118
 31
0.0
  0
ARC
  5
915A
  8
0
 10
3999.5493631755362003
 20
134.7063945178701942
 30
0.0
 40
0.4726922544841298
 50
246.3215668026684
 51
293.6784217944565967
  0
ARC
  5
915B
  8
0
 10
3999.5493621407281353
 20
134.3130031667722051
 30
0.0
 40
0.4727256541356744
 50
66.3232164347618749
 51
113.6767960001318016
  0
ARC
  5
915C
  8
0
 10
4000.1399132986139193
 20
134.3079135011275866
 30
0.0
 40
0.4773913048994514
 50
66.5685249106054755
 51
113.4314813068230023
  0
ARC
  5
915D
  8
0
 10
4000.1399132534861565
 20
134.7115199728908976
 30
0.0
 40
0.4773910298563301
 50
246.5685161099765992
 51
293.4314952987526226
  0
LINE
  5
915E
  8
0
 10
4000.4351887861480463
 20
134.2734964328195986
 30
0.0
 11
4000.3297489027490883
 21
134.2734964328195986
 31
0.0
  0
LINE
  5
915F
  8
0
 10
4000.3297489027490883
 20
134.2734964328195986
 30
0.0
 11
4000.3297489027490883
 21
134.7459373605196049
 31
0.0
  0
LINE
  5
9160
  8
0
 10
4000.3297489027490883
 20
134.7459373605196049
 30
0.0
 11
4000.4351887861480463
 21
134.7459373605196049
 31
0.0
  0
LINE
  5
9161
  8
0
 10
3999.2540864579491426
 20
134.7459373777195992
 30
0.0
 11
3999.35952643184919
 21
134.7459372815195877
 31
0.0
  0
LINE
  5
9162
  8
0
 10
3999.3595285092678751
 20
134.2734964156192916
 30
0.0
 11
3999.2540864239831535
 21
134.2734964328195986
 31
0.0
  0
LINE
  5
9163
  8
0
 10
3999.2737714633490214
 20
134.2144413353196057
 30
0.0
 11
3999.2540864239831535
 21
134.2341263747196081
 31
0.0
  0
LINE
  5
9164
  8
0
 10
3999.2540864239831535
 20
134.2341263747196081
 30
0.0
 11
3999.2540864239831535
 21
134.785305649919593
 31
0.0
  0
LINE
  5
9165
  8
0
 10
3999.2540864239831535
 20
134.785305649919593
 30
0.0
 11
3999.2737763663490114
 21
134.8049925164195884
 31
0.0
  0
LINE
  5
9166
  8
0
 10
3999.2737763663490114
 20
134.8049925164195884
 30
0.0
 11
4000.4154988437480824
 21
134.8049925164195884
 31
0.0
  0
LINE
  5
9167
  8
0
 10
4000.4154988437480824
 20
134.8049925164195884
 30
0.0
 11
4000.4351887861480463
 21
134.785305649919593
 31
0.0
  0
LINE
  5
9168
  8
0
 10
4000.4351887861480463
 20
134.785305649919593
 30
0.0
 11
4000.4351887861480463
 21
134.2341281322196096
 31
0.0
  0
LINE
  5
9169
  8
0
 10
4000.4351887861480463
 20
134.2341281322196096
 30
0.0
 11
4000.4155037467480724
 21
134.2144413353196057
 31
0.0
  0
LINE
  5
916A
  8
0
 10
4000.4155037467480724
 20
134.2144413353196057
 30
0.0
 11
3999.2737714633490214
 21
134.2144413353196057
 31
0.0
  0
LINE
  5
916B
  8
0
 10
3999.4233777625490802
 20
134.2144413353196057
 30
0.0
 11
3999.4233777602430564
 21
134.147512199706
 31
0.0
  0
LINE
  5
916C
  8
0
 10
4000.2658974475480136
 20
134.2144413353196057
 30
0.0
 11
4000.2658974475480136
 21
134.1475121706754976
 31
0.0
  0
LINE
  5
916D
  8
0
 10
4006.2647133806481179
 20
134.8049922889786103
 30
0.0
 11
4006.2647133577479508
 21
135.0490867770986085
 31
0.0
  0
LINE
  5
916E
  8
0
 10
4005.2355795223479618
 20
134.8049921922606131
 30
0.0
 11
4005.2355794994218741
 21
135.0490866804406949
 31
0.0
  0
LINE
  5
916F
  8
0
 10
4005.1815868255489477
 20
135.0490866753696082
 30
0.0
 11
4006.3187152566479199
 21
135.0490867821696099
 31
0.0
  0
LINE
  5
9170
  8
0
 10
4005.1331003174491343
 20
135.0657787374695999
 30
0.0
 11
4004.526590973823204
 21
135.539635678069601
 31
0.0
  0
LINE
  5
9171
  8
0
 10
4004.4509337694480564
 20
135.6947558979695998
 30
0.0
 11
4004.4509337580479951
 21
135.8168031420696025
 31
0.0
  0
LINE
  5
9172
  8
0
 10
4004.4706187973479246
 20
135.8364881833695961
 30
0.0
 11
4007.0296739136479118
 21
135.8364884237695946
 31
0.0
  0
LINE
  5
9173
  8
0
 10
4007.0493627164942154
 20
135.816803386269612
 30
0.0
 11
4007.0493627164942154
 21
135.6947561422180115
 31
0.0
  0
LINE
  5
9174
  8
0
 10
4006.9737027061478329
 20
135.5396360918695962
 30
0.0
 11
4006.3671925366070354
 21
135.0657788533696078
 31
0.0
  0
ARC
  5
9175
  8
0
 10
4005.1815775949748968
 20
135.1278268355910939
 30
0.0
 40
0.0787401607624851
 50
232.0000056083354991
 51
270.0067166853621075
  0
ARC
  5
9176
  8
0
 10
4004.6477841627702219
 20
135.6947559163824053
 30
0.0
 40
0.1968503933222221
 50
180.0000053592735014
 51
232.0000054571962949
  0
ARC
  5
9177
  8
0
 10
4004.4706187973479246
 20
135.8168031439695937
 30
0.0
 40
0.019685039400005
 50
90.0000053844175056
 51
180.0
  0
ARC
  5
9178
  8
0
 10
4006.8524917261620431
 20
135.6947685685454985
 30
0.0
 40
0.196870990724534
 50
308.0018818786198267
 51
359.9963835397173852
  0
ARC
  5
9179
  8
0
 10
4007.0296712549488802
 20
135.8167969614555091
 30
0.0
 40
0.0196914625938249
 50
0.0186993662691465
 51
89.9922588088179367
  0
ARC
  5
917A
  8
0
 10
4006.3187152492491805
 20
135.1278269396688074
 30
0.0
 40
0.0787401574991552
 50
270.0000053841829981
 51
308.0000053787272236
  0
LINE
  5
917B
  8
0
 10
4004.5265909737499896
 20
135.5396356781276097
 30
0.0
 11
4006.9737017910279064
 21
135.5396359079695969
 31
0.0
  0
LINE
  5
917C
  8
0
 10
4005.2650378687690136
 20
134.2734962317192924
 30
0.0
 11
4005.2650357913489643
 21
134.7459370976195885
 31
0.0
  0
LINE
  5
917D
  8
0
 10
4005.6447071150528245
 20
134.2734961939196126
 30
0.0
 11
4005.8555870509439956
 21
134.2734962111196069
 31
0.0
  0
LINE
  5
917E
  8
0
 10
4005.8555870509439956
 20
134.2734962111196069
 30
0.0
 11
4005.8555870064478768
 21
134.7459371560196075
 31
0.0
  0
LINE
  5
917F
  8
0
 10
4005.8555870064478768
 20
134.7459371560196075
 30
0.0
 11
4005.6447071151469572
 21
134.7459371388563056
 31
0.0
  0
LINE
  5
9180
  8
0
 10
4005.6447071151469572
 20
134.7459371388563056
 30
0.0
 11
4005.6447071151469572
 21
134.2734961939196126
 31
0.0
  0
ARC
  5
9181
  8
0
 10
4005.4548725350350651
 20
134.7063943339703087
 30
0.0
 40
0.4726922544841359
 50
246.3215668026684
 51
293.6784217944565967
  0
ARC
  5
9182
  8
0
 10
4005.4548715002279096
 20
134.3130029828722058
 30
0.0
 40
0.4727256541356744
 50
66.3232164347618749
 51
113.6767960001318016
  0
ARC
  5
9183
  8
0
 10
4006.0454226581150579
 20
134.3079133172275874
 30
0.0
 40
0.4773913048994514
 50
66.5685249106054755
 51
113.4314813068230023
  0
ARC
  5
9184
  8
0
 10
4006.0454226129859308
 20
134.7115197889908131
 30
0.0
 40
0.4773910298563303
 50
246.5685161099762013
 51
293.4314952987526226
  0
LINE
  5
9185
  8
0
 10
4006.3407012991601732
 20
134.2734962489195993
 30
0.0
 11
4006.2352582622488626
 21
134.2734962489195993
 31
0.0
  0
LINE
  5
9186
  8
0
 10
4006.2352582622488626
 20
134.2734962489195993
 30
0.0
 11
4006.2352582622488626
 21
134.7459371766196057
 31
0.0
  0
LINE
  5
9187
  8
0
 10
4006.2352582622488626
 20
134.7459371766196057
 30
0.0
 11
4006.3407012991601732
 21
134.7459371766196057
 31
0.0
  0
LINE
  5
9188
  8
0
 10
4005.1595958174480074
 20
134.7459371938196
 30
0.0
 11
4005.2650357913489643
 21
134.7459370976195885
 31
0.0
  0
LINE
  5
9189
  8
0
 10
4005.2650378687690136
 20
134.2734962317192924
 30
0.0
 11
4005.1595958174480074
 21
134.2734962489195993
 31
0.0
  0
LINE
  5
918A
  8
0
 10
4005.1792808228478862
 20
134.2144411514196065
 30
0.0
 11
4005.1595957834488217
 21
134.2341261908196088
 31
0.0
  0
LINE
  5
918B
  8
0
 10
4005.1595957834488217
 20
134.2341261908196088
 30
0.0
 11
4005.1595957834488217
 21
134.7853054660195937
 31
0.0
  0
LINE
  5
918C
  8
0
 10
4005.1595957834488217
 20
134.7853054660195937
 30
0.0
 11
4005.1792857258478762
 21
134.8049923325195891
 31
0.0
  0
LINE
  5
918D
  8
0
 10
4005.1792857258478762
 20
134.8049923325195891
 30
0.0
 11
4006.3210082032478567
 21
134.8049923325195891
 31
0.0
  0
LINE
  5
918E
  8
0
 10
4006.3210082032478567
 20
134.8049923325195891
 30
0.0
 11
4006.3407012991601732
 21
134.7853054660195937
 31
0.0
  0
LINE
  5
918F
  8
0
 10
4006.3407012991601732
 20
134.7853054660195937
 30
0.0
 11
4006.3407012991601732
 21
134.2341279483196104
 31
0.0
  0
LINE
  5
9190
  8
0
 10
4006.3407012991601732
 20
134.2341279483196104
 30
0.0
 11
4006.321013106249211
 21
134.2144411514196065
 31
0.0
  0
LINE
  5
9191
  8
0
 10
4006.321013106249211
 20
134.2144411514196065
 30
0.0
 11
4005.1792808228478862
 21
134.2144411514196065
 31
0.0
  0
LINE
  5
9192
  8
0
 10
4005.3288871220488545
 20
134.2144411514196065
 30
0.0
 11
4005.3288871197419212
 21
134.1475120158060008
 31
0.0
  0
LINE
  5
9193
  8
0
 10
4006.1714068070477879
 20
134.2144411514196065
 30
0.0
 11
4006.1714068070477879
 21
134.1475119867754984
 31
0.0
  0
ARC
  5
9194
  8
0
 10
3999.358136029185971
 20
134.126979350732114
 30
0.0
 40
0.042099623878146
 50
150.8091290589875939
 51
178.8458459092510111
  0
ARC
  5
9195
  8
0
 10
4000.6618482590879466
 20
134.1393386706903073
 30
0.0
 40
0.0281164650512152
 50
97.7683154807786252
 51
163.0998678201094094
  0
ARC
  5
9196
  8
0
 10
4000.7247384018028242
 20
134.1427485393427901
 30
0.0
 40
0.0252478392688845
 50
104.4552648550106966
 51
169.1245767080322082
  0
ARC
  5
9197
  8
0
 10
4004.8689436759827913
 20
134.1417114062531937
 30
0.0
 40
0.0265401316794937
 50
12.6243507731631404
 51
73.7951760318548224
  0
ARC
  5
9198
  8
0
 10
4004.9329404630789213
 20
134.1393393018574898
 30
0.0
 40
0.0281157392312074
 50
16.8986312399404497
 51
82.2330112379993068
  0
ARC
  5
9199
  8
0
 10
4003.3258944547092142
 20
133.1202300379603969
 30
0.0
 40
1.4653065518072581
 50
175.4644465189454081
 51
193.777183090725714
  0
ARC
  5
919A
  8
0
 10
4002.8074439510310185
 20
133.2249169240081983
 30
0.0
 40
0.9423337724051734
 50
90.6110693612823752
 51
179.3198421571970016
  0
ARC
  5
919B
  8
0
 10
3999.3556141940830457
 20
133.3975131717926104
 30
0.0
 40
0.0395695837777574
 50
180.2361669920142049
 51
256.8641766067286198
  0
ARC
  5
919C
  8
0
 10
3999.9834294737670461
 20
136.1063478359955923
 30
0.0
 40
2.8202056644674469
 50
256.9499612007223277
 51
266.7650584043400954
  0
ARC
  5
919D
  8
0
 10
6844.4212261279126324
 20
48242.4956217919534538
 30
0.0
 40
48193.2291456001694314
 50
266.6161600916723842
 51
266.6181182555135933
  0
ARC
  5
919E
  8
0
 10
4001.4212106785180367
 20
132.642630717754912
 30
0.0
 40
0.552853019054807
 50
42.9929368762602735
 51
85.0712242542409598
  0
ARC
  5
919F
  8
0
 10
4001.3828973828790367
 20
132.7897681949660011
 30
0.0
 40
0.498808273646161
 50
14.9327895661404195
 51
27.4396061364194601
  0
ARC
  5
91A0
  8
0
 10
3958.8669407997758753
 20
121.7606448415986051
 30
0.0
 40
44.4220039857734079
 50
14.3145090507908606
 51
14.5470032706300394
  0
ARC
  5
91A1
  8
0
 10
4004.0246389259309581
 20
210.4059344213372071
 30
0.0
 40
77.1872410179469171
 50
266.5208235861541084
 51
266.8957149712699106
  0
ARC
  5
91A2
  8
0
 10
1704.8368216780600051
 20
-41160.1520387318887515
 30
0.0
 40
41357.2107559158175718
 50
86.816633215797026
 51
86.8188897959985724
  0
ARC
  5
91A3
  8
0
 10
4001.425091663702915
 20
132.5333585341356866
 30
0.0
 40
0.7096645599960004
 50
71.6831943790177064
 51
86.2899405792917378
  0
ARC
  5
91A4
  8
0
 10
4001.5416988824699729
 20
132.9055991943737922
 30
0.0
 40
0.3196996235581058
 50
40.6976312736949595
 51
70.5566866897478633
  0
ARC
  5
91A5
  8
0
 10
4001.4336431855881528
 20
132.8519544614051995
 30
0.0
 40
0.4376182363275824
 50
7.2323616404702538
 51
36.7945514393633673
  0
ARC
  5
91A6
  8
0
 10
3997.0110849808938838
 20
131.3899443900911024
 30
0.0
 40
5.082320395229651
 50
2.563270740676252
 51
15.4485382612639501
  0
ARC
  5
91A7
  8
0
 10
224.9362003732053097
 20
0.9401299007678858
 30
0.0
 40
3779.411954340864213
 50
1.944765179123001
 51
1.981461034077159
  0
ARC
  5
91A8
  8
0
 10
5965.2739859064968186
 20
239.4731135197405081
 30
0.0
 40
1966.1204489058450235
 50
183.1446592256482973
 51
183.2020632755827023
  0
ARC
  5
91A9
  8
0
 10
3998.0983884363517973
 20
131.3552837296037126
 30
0.0
 40
4.0242504759910922
 50
3.735054603035644
 51
13.3078265456460603
  0
ARC
  5
91AA
  8
0
 10
4002.7944601759299985
 20
129.6836098565607927
 30
0.0
 40
0.572275899146036
 50
183.3047825244715909
 51
270.2909409390500741
  0
ARC
  5
91AB
  8
0
 10
4002.7977696473540163
 20
129.1991499170217139
 30
0.0
 40
0.626531103226094
 50
180.068657227279914
 51
269.8451136746169823
  0
LINE
  5
91AC
  8
0
 10
3999.316044946448983
 20
134.1278273393195946
 30
0.0
 11
3999.316044946448983
 21
133.3973500707195967
 31
0.0
  0
LINE
  5
91AD
  8
0
 10
3999.3213830660488384
 20
134.1475122032196055
 30
0.0
 11
4000.6999440204490384
 21
134.1475121557195962
 31
0.0
  0
ARC
  5
91AE
  8
0
 10
4006.2366037893139037
 20
134.1270653343509025
 30
0.0
 40
0.042099623878146
 50
1.019899576506669
 51
29.056616426771491
  0
ARC
  5
91AF
  8
0
 10
4002.278232769233
 20
133.1214574702096058
 30
0.0
 40
1.4653065518072581
 50
351.8747344500246754
 51
4.4012989668117157
  0
ARC
  5
91B0
  8
0
 10
4002.7970403010967857
 20
133.2249769973959133
 30
0.0
 40
0.9422201726070291
 50
0.5430652504744802
 51
89.9784924440346146
  0
ARC
  5
91B1
  8
0
 10
4006.239254083302967
 20
133.3973946770128975
 30
0.0
 40
0.0394316464970153
 50
283.1041545329384235
 51
358.9431783093800163
  0
ARC
  5
91B2
  8
0
 10
4005.6114148283982104
 20
136.1057755771512916
 30
0.0
 40
2.8196311247058969
 50
273.2344485126636187
 51
283.0521483608441144
  0
ARC
  5
91B3
  8
0
 10
17840.7800825884696678
 20
-233931.0526877839001827
 30
0.0
 40
234472.8647534250922035
 50
93.3826871444623379
 51
93.3830896747211341
  0
ARC
  5
91B4
  8
0
 10
4004.1730918985640528
 20
132.6394564439256101
 30
0.0
 40
0.5559666490487407
 50
94.8496376428803387
 51
136.436161313476191
  0
ARC
  5
91B5
  8
0
 10
4004.1662214967200271
 20
132.809105359262503
 30
0.0
 40
0.4498765257170333
 50
151.6679970431449931
 51
166.4702219247978121
  0
ARC
  5
91B6
  8
0
 10
4007.0316889259238451
 20
131.9683393079012887
 30
0.0
 40
3.4356692453333859
 50
164.0170671644679885
 51
166.9671108717321886
  0
ARC
  5
91B7
  8
0
 10
4010.4405956157770561
 20
51.4563038079157167
 30
0.0
 40
82.0099153225616107
 50
92.9302756630383016
 51
93.2787738655781453
  0
ARC
  5
91B8
  8
0
 10
4294.7784929581821416
 20
-5073.0148552734954137
 30
0.0
 40
5214.363309612732337
 50
93.1774921230289692
 51
93.1953899758784559
  0
ARC
  5
91B9
  8
0
 10
4004.1295989403279236
 20
132.7138992887431073
 30
0.0
 40
0.527568056599344
 50
90.6319279801544155
 51
109.4365627601833069
  0
ARC
  5
91BA
  8
0
 10
4004.0702928858340783
 20
132.885401973451593
 30
0.0
 40
0.346106254113528
 50
109.6258643907843009
 51
137.93209370954321
  0
ARC
  5
91BB
  8
0
 10
4004.1728451560411486
 20
132.8484865759128013
 30
0.0
 40
0.4488744233052875
 50
143.2121158279747988
 51
171.5619640556396064
  0
ARC
  5
91BC
  8
0
 10
4008.0797007864221086
 20
131.4709760855359093
 30
0.0
 40
4.5755831365253528
 50
163.8574305190091991
 51
178.1644416273593947
  0
ARC
  5
91BD
  8
0
 10
3745.6308674920060184
 20
139.2455533232771074
 30
0.0
 40
257.9883948385626127
 50
357.7680967662720946
 51
358.3056761788403151
  0
ARC
  5
91BE
  8
0
 10
3867.8344034264341644
 20
138.1098025713214952
 30
0.0
 40
135.8015338248438013
 50
356.4287586775100749
 51
357.2597725573016874
  0
ARC
  5
91BF
  8
0
 10
4014.4932617482231763
 20
130.3639215567689007
 30
0.0
 40
11.0837172755198896
 50
170.5423623930875863
 51
173.5062363958303138
  0
ARC
  5
91C0
  8
0
 10
4002.8021224012259154
 20
129.6822962779714032
 30
0.0
 40
0.5709747531442967
 50
269.5227134834502181
 51
356.8361830592821207
  0
ARC
  5
91C1
  8
0
 10
4002.7972747485209766
 20
129.1988942643228029
 30
0.0
 40
0.6262743086086557
 50
269.890326956136505
 51
359.9547186450889171
  0
LINE
  5
91C2
  8
0
 10
4006.278696743492219
 20
134.1278146935783013
 30
0.0
 11
4006.2786790222980926
 21
133.3966674008196094
 31
0.0
  0
LINE
  5
91C3
  8
0
 10
4006.2734047637482035
 20
134.1475120116195967
 30
0.0
 11
4004.894842172448989
 21
134.1475119640195999
 31
0.0
  0
LINE
  5
91C4
  8
0
 10
4000.6580478220489567
 20
134.1671971036195998
 30
0.0
 11
4004.9367401569479625
 21
134.1671971036195998
 31
0.0
  0
ARC
  5
91C5
  8
0
 10
4426.229945948823115
 20
-1598.6605439409379414
 30
0.0
 40
1780.8435890486050539
 50
103.3935214292415026
 51
103.7318572458190999
  0
ARC
  5
91C6
  8
0
 10
4454.0443328806268255
 20
-1714.3567463137330833
 30
0.0
 40
1899.2850369704760851
 50
103.4052699724128956
 51
103.723075968586798
  0
ARC
  5
91C7
  8
0
 10
4002.2978704936449503
 20
130.7326414168967972
 30
0.0
 40
0.2758095092452366
 50
132.4306165442719134
 51
231.5139174837678127
  0
LINE
  5
91C8
  8
0
 10
4001.4981812641490251
 20
134.1671971036195998
 30
0.0
 11
4001.4981812641490251
 21
134.1868821950195922
 31
0.0
  0
LINE
  5
91C9
  8
0
 10
4001.4981812641490251
 20
134.1868821950195922
 30
0.0
 11
4001.7344017365480795
 21
134.1868821950195922
 31
0.0
  0
LINE
  5
91CA
  8
0
 10
4001.7344017365480795
 20
134.1868821950195922
 30
0.0
 11
4001.7344017365480795
 21
134.1671971557196059
 31
0.0
  0
ARC
  5
91CB
  8
0
 10
4002.8524322094208401
 20
133.2050594213609997
 30
0.0
 40
1.3819014142767969
 50
135.8737356947362969
 51
178.4874557150480996
  0
ARC
  5
91CC
  8
0
 10
4002.7423424236330902
 20
133.2050506128603047
 30
0.0
 40
1.381917039141294
 50
1.5087212032825079
 51
44.1261447299553993
  0
ARC
  5
91CE
  8
0
 10
4016.1314344541551691
 20
130.6444592664940956
 30
0.0
 40
0.051200520923651
 50
100.113372388520105
 51
159.4000583933955113
  0
ARC
  5
91CF
  8
0
 10
4016.1411974724592255
 20
130.6178216139346944
 30
0.0
 40
0.0792922848336286
 50
65.3605982018066669
 51
103.6808214558586059
  0
ARC
  5
91D0
  8
0
 10
4016.1146615180359731
 20
130.6546014532634103
 30
0.0
 40
0.0321330444396159
 50
165.8188206716868933
 51
224.1869663435913935
  0
ARC
  5
91D1
  8
0
 10
4016.1581292156220115
 20
130.650841727762014
 30
0.0
 40
0.0422509355417761
 50
5.3661320983839644
 51
67.5631742119428509
  0
ARC
  5
91D2
  8
0
 10
4016.1384188617980726
 20
130.6776147093794975
 30
0.0
 40
0.0652090137953744
 50
224.1370420238656038
 51
272.5873444583916125
  0
ARC
  5
91D3
  8
0
 10
4016.1435940018168367
 20
130.6787392067265046
 30
0.0
 40
0.0663045947461349
 50
268.0713706927894009
 51
318.17015059596838
  0
ARC
  5
91D4
  8
0
 10
4016.1667750634787808
 20
130.6552406049733008
 30
0.0
 40
0.0334229164900364
 50
321.6858316244184266
 51
359.232709896113704
  0
ARC
  5
91D5
  8
0
 10
4016.1098448595062109
 20
130.6448335637049922
 30
0.0
 40
0.1239295819833796
 50
105.9726013315805062
 51
157.9871028183563055
  0
ARC
  5
91D6
  8
0
 10
4016.1414299085117818
 20
130.5705477496593971
 30
0.0
 40
0.2042801638818598
 50
73.0673453666285155
 51
108.7571069834363016
  0
ARC
  5
91D7
  8
0
 10
4016.0743054818990458
 20
130.6663883011937912
 30
0.0
 40
0.0831693003219015
 50
162.5819856415571962
 51
224.0805084251637993
  0
ARC
  5
91D8
  8
0
 10
4016.1355879910011026
 20
130.7295597204031026
 30
0.0
 40
0.1711608073614424
 50
225.0003362806897087
 51
271.9332166531247026
  0
ARC
  5
91D9
  8
0
 10
4016.1673867597878598
 20
130.6374672426125869
 30
0.0
 40
0.1328093708918704
 50
29.0449412429404212
 51
75.3723333440449039
  0
ARC
  5
91DA
  8
0
 10
4016.1459731698610085
 20
130.7348655652143066
 30
0.0
 40
0.176429500347274
 50
268.5023544102679125
 51
310.4232362806008041
  0
ARC
  5
91DB
  8
0
 10
4016.2045114342631678
 20
130.6666233469711074
 30
0.0
 40
0.0865210563586973
 50
310.2156116707694764
 51
24.0949688024074007
  0
ARC
  5
91DC
  8
0
 10
4015.3353325781808962
 20
131.2561859681626117
 30
0.0
 40
0.1444886020919853
 50
228.1005464125830997
 51
276.1510948250863748
  0
ARC
  5
91DD
  8
0
 10
4015.2844592340197778
 20
131.192147293720609
 30
0.0
 40
0.0630397348759442
 50
182.7742827691164962
 51
223.6418677914658986
  0
ARC
  5
91DE
  8
0
 10
4015.2945105268690895
 20
131.1875059018944114
 30
0.0
 40
0.0730344563153389
 50
128.1515031365786115
 51
178.7524019690036994
  0
ARC
  5
91DF
  8
0
 10
4015.3528189389771796
 20
131.1175196503965878
 30
0.0
 40
0.1641107619929903
 50
92.4361427946605829
 51
129.0659292805665928
  0
ARC
  5
91E0
  8
0
 10
4015.3589311381670086
 20
131.1220439095461927
 30
0.0
 40
0.1599744554456919
 50
59.6153538927879225
 51
94.6927433925357462
  0
ARC
  5
91E1
  8
0
 10
4015.3995542523348377
 20
131.1939067393566063
 30
0.0
 40
0.0774457565960944
 50
23.0977493049270883
 51
58.649913232668851
  0
ARC
  5
91E2
  8
0
 10
4015.3674294119809929
 20
131.1454264872440092
 30
0.0
 40
0.1133167770728009
 50
39.2040437814967504
 51
72.7406844761139979
  0
ARC
  5
91E3
  8
0
 10
4015.3482300782698076
 20
131.0954940703014984
 30
0.0
 40
0.1667343656854141
 50
71.5309887083454328
 51
101.9800737336411061
  0
ARC
  5
91E4
  8
0
 10
4015.3375459180278995
 20
131.1323828870467878
 30
0.0
 40
0.1284616621804429
 50
100.7336363477943024
 51
134.7539206789984121
  0
ARC
  5
91E5
  8
0
 10
4015.2961478575498404
 20
131.1737676410085101
 30
0.0
 40
0.0699264394218303
 50
134.5402152595075052
 51
185.3027654577838064
  0
ARC
  5
91E6
  8
0
 10
4015.3421963127398158
 20
131.2691175370447922
 30
0.0
 40
0.1568253080568092
 50
273.1502740623481031
 51
289.3477501395483955
  0
ARC
  5
91E7
  8
0
 10
4015.3653275441311052
 20
131.236173863924904
 30
0.0
 40
0.1185817339250764
 50
284.0685339403623857
 51
332.3240265118748198
  0
ARC
  5
91E8
  8
0
 10
4015.4172451782028475
 20
131.2032474349655047
 30
0.0
 40
0.057532341641113
 50
337.354788828293124
 51
21.4525659730956306
  0
ARC
  5
91E9
  8
0
 10
4015.396774465747967
 20
131.171343749915394
 30
0.0
 40
0.0742112830514844
 50
7.5512853711667649
 51
38.0190396615353166
  0
ARC
  5
91EA
  8
0
 10
4017.5092888330082133
 20
131.0513223343309051
 30
0.0
 40
0.0330415982118891
 50
101.9405375222206942
 51
187.7114402935272892
  0
ARC
  5
91EB
  8
0
 10
4017.5168109850351357
 20
131.0341131754368007
 30
0.0
 40
0.0515748050423913
 50
59.4794361314485585
 51
106.1646370492428986
  0
ARC
  5
91EC
  8
0
 10
4017.5171494718770191
 20
131.0582124486853104
 30
0.0
 40
0.0421528850980761
 50
195.5830993575457057
 51
264.1788806228017279
  0
ARC
  5
91ED
  8
0
 10
4017.5211426824021146
 20
131.0637490169224861
 30
0.0
 40
0.0481867916762018
 50
260.1195878243185007
 51
296.0537221275292268
  0
ARC
  5
91EE
  8
0
 10
4017.527621613662177
 20
131.0486525805403062
 30
0.0
 40
0.0336151196871962
 50
341.4583925654159771
 51
62.7691236578527807
  0
ARC
  5
91EF
  8
0
 10
4017.5281166204981673
 20
131.0515780236366083
 30
0.0
 40
0.0342018987433322
 50
294.5130055796947204
 51
336.5422849771396159
  0
ARC
  5
91F0
  8
0
 10
4017.5189788623829372
 20
131.0051845349543953
 30
0.0
 40
0.0487458716215573
 50
37.1637391365577798
 51
140.6683988749709044
  0
ARC
  5
91F1
  8
0
 10
4017.542068390930126
 20
130.9021908485169945
 30
0.0
 40
0.2586527435193546
 50
37.2993349375215573
 51
94.319029841445257
  0
ARC
  5
91F2
  8
0
 10
4017.6034337018099905
 20
130.9345084849354066
 30
0.0
 40
0.190599941686212
 50
286.7251560051184924
 51
40.751812173812219
  0
ARC
  5
91F3
  8
0
 10
4017.4944508052899437
 20
131.2368554249756869
 30
0.0
 40
0.3085723255391022
 50
229.2806721338941998
 51
285.2992246845089994
  0
ARC
  5
91F4
  8
0
 10
4017.3862437901429985
 20
131.0975752420627032
 30
0.0
 40
0.132715884164553
 50
148.6306631496717898
 51
225.457846483227712
  0
ARC
  5
91F5
  8
0
 10
4017.4307291960299153
 20
131.0547225125210957
 30
0.0
 40
0.1934727644364724
 50
103.9759643566861058
 51
144.6496783810461011
  0
ARC
  5
91F6
  8
0
 10
4017.5503982626300967
 20
131.0490717747213125
 30
0.0
 40
0.1127677500574411
 50
283.0548699011412168
 51
350.3537063498200155
  0
ARC
  5
91F7
  8
0
 10
4017.5583651557999474
 20
131.0383739315143998
 30
0.0
 40
0.1035315229886057
 50
355.4582820210648038
 51
32.7652072630624787
  0
ARC
  5
91F8
  8
0
 10
4017.5230178295819314
 20
131.01368675435711
 30
0.0
 40
0.1466246242500827
 50
33.4019496853059579
 51
75.506985279373481
  0
ARC
  5
91F9
  8
0
 10
4017.5299190155510587
 20
131.0644671486440132
 30
0.0
 40
0.0959223698146246
 50
71.9050744790456946
 51
94.3824300119293866
  0
ARC
  5
91FA
  8
0
 10
4017.5472522321679207
 20
130.9041947610583065
 30
0.0
 40
0.2570999646463265
 50
95.5047059379903942
 51
111.0052286783734985
  0
ARC
  5
91FB
  8
0
 10
4017.4899800665170915
 20
131.0447633817979067
 30
0.0
 40
0.1053880499747729
 50
109.3310270404346056
 51
186.961816333507187
  0
ARC
  5
91FC
  8
0
 10
4017.5277175427709153
 20
131.0800021460121911
 30
0.0
 40
0.1499094987835662
 50
198.6562764755516923
 51
270.0391398319450786
  0
ARC
  5
91FD
  8
0
 10
4017.5050219949239363
 20
130.8806859180425874
 30
0.0
 40
0.3814864391919358
 50
34.8936985133545292
 51
108.4955525687199014
  0
ARC
  5
91FE
  8
0
 10
4017.6107541556989418
 20
130.9840411370348932
 30
0.0
 40
0.2368869130043504
 50
281.5747828003296718
 51
29.0086303172737701
  0
ARC
  5
91FF
  8
0
 10
4017.5282256886707728
 20
131.0982975996469975
 30
0.0
 40
0.3699419348890058
 50
213.5456156924387017
 51
290.5831438544939829
  0
ARC
  5
9200
  8
0
 10
4017.4296883208148756
 20
131.0080412487994863
 30
0.0
 40
0.2388368644652492
 50
101.0277256294478008
 51
208.556704709273987
  0
ARC
  5
9201
  8
0
 10
4016.613548928074124
 20
130.3540899527359898
 30
0.0
 40
0.0330415982118891
 50
101.9405375222206942
 51
187.7114402935272892
  0
ARC
  5
9202
  8
0
 10
4016.6210710801010464
 20
130.3368807938418001
 30
0.0
 40
0.0515748050423913
 50
59.4794361314485585
 51
106.1646370492428986
  0
ARC
  5
9203
  8
0
 10
4016.6214095669429298
 20
130.3609800670903098
 30
0.0
 40
0.0421528850980761
 50
195.5830993575457057
 51
264.1788806228017279
  0
ARC
  5
9204
  8
0
 10
4016.6254027774680253
 20
130.3665166353274003
 30
0.0
 40
0.0481867916762018
 50
260.1195878243185007
 51
296.0537221275292268
  0
ARC
  5
9205
  8
0
 10
4016.6318817087280877
 20
130.3514201989453909
 30
0.0
 40
0.0336151196871962
 50
341.4583925654159771
 51
62.7691236578527807
  0
ARC
  5
9206
  8
0
 10
4016.632376715564078
 20
130.3543456420416078
 30
0.0
 40
0.0342018987433322
 50
294.5130055796947204
 51
336.5422849771396159
  0
ARC
  5
9207
  8
0
 10
4016.6232389574488479
 20
130.3079521533593947
 30
0.0
 40
0.0487458716215573
 50
37.1637391365577798
 51
140.6683988749709044
  0
ARC
  5
9208
  8
0
 10
4016.6463284859969463
 20
130.2049584669219939
 30
0.0
 40
0.2586527435193546
 50
37.2993349375215573
 51
94.319029841445257
  0
ARC
  5
9209
  8
0
 10
4016.7076937968768107
 20
130.2372761033402924
 30
0.0
 40
0.190599941686212
 50
286.7251560051184924
 51
304.8129698600640154
  0
ARC
  5
920A
  8
0
 10
4016.7076937968768107
 20
130.2372761033402924
 30
0.0
 40
0.190599941686212
 50
328.414428933549118
 51
40.751812173812219
  0
ARC
  5
920B
  8
0
 10
4016.5987109003558544
 20
130.5396230433806863
 30
0.0
 40
0.3085723255391022
 50
229.2806721338941998
 51
285.2992246845089994
  0
ARC
  5
920C
  8
0
 10
4016.4905038852098187
 20
130.4003428604677026
 30
0.0
 40
0.132715884164553
 50
148.6306631496717898
 51
225.457846483227712
  0
ARC
  5
920D
  8
0
 10
4016.5349892910971903
 20
130.3574901309260952
 30
0.0
 40
0.1934727644364724
 50
103.9759643566861058
 51
144.6496783810461011
  0
ARC
  5
920E
  8
0
 10
4016.6546583576969169
 20
130.351839393126312
 30
0.0
 40
0.1127677500574411
 50
283.0548699011412168
 51
350.3537063498200155
  0
ARC
  5
920F
  8
0
 10
4016.6626252508649486
 20
130.3411415499193993
 30
0.0
 40
0.1035315229886057
 50
355.4582820210648038
 51
32.7652072630624787
  0
ARC
  5
9210
  8
0
 10
4016.6272779246492064
 20
130.3164543727621094
 30
0.0
 40
0.1466246242500827
 50
33.4019496853059579
 51
75.506985279373481
  0
ARC
  5
9211
  8
0
 10
4016.6341791106169694
 20
130.3672347670490126
 30
0.0
 40
0.0959223698146246
 50
71.9050744790456946
 51
94.3824300119293866
  0
ARC
  5
9212
  8
0
 10
4016.6515123272351957
 20
130.206962379463306
 30
0.0
 40
0.2570999646463265
 50
95.5047059379903942
 51
111.0052286783734985
  0
ARC
  5
9213
  8
0
 10
4016.5942401615830022
 20
130.3475310002029062
 30
0.0
 40
0.1053880499747729
 50
109.3310270404346056
 51
186.961816333507187
  0
ARC
  5
9214
  8
0
 10
4016.631977637836826
 20
130.3827697644171906
 30
0.0
 40
0.1499094987835662
 50
198.6562764755516923
 51
270.0391398319450786
  0
ARC
  5
9215
  8
0
 10
4016.6092820899912113
 20
130.1834535364475869
 30
0.0
 40
0.3814864391919358
 50
34.8936985133545292
 51
108.4955525687199014
  0
ARC
  5
9216
  8
0
 10
4016.7150142507648525
 20
130.2868087554398926
 30
0.0
 40
0.2368869130043504
 50
281.5747828003296718
 51
294.4797876706821853
  0
ARC
  5
9217
  8
0
 10
4016.7150142507648525
 20
130.2868087554398926
 30
0.0
 40
0.2368869130043504
 50
325.2544363374972818
 51
29.0086303172737701
  0
ARC
  5
9218
  8
0
 10
4016.6324857837380478
 20
130.4010652180519969
 30
0.0
 40
0.3699419348890058
 50
213.5456156924387017
 51
290.5831438544939829
  0
ARC
  5
9219
  8
0
 10
4016.5339484158807863
 20
130.3108088672045142
 30
0.0
 40
0.2388368644652492
 50
101.0277256294478008
 51
208.556704709273987
  0
ARC
  5
921A
  8
0
 10
4016.7024413776571237
 20
129.655882292698692
 30
0.0
 40
0.0330415982118891
 50
101.9405375222206942
 51
187.7114402935272892
  0
ARC
  5
921B
  8
0
 10
4016.7099635296840461
 20
129.6386731338045877
 30
0.0
 40
0.0515748050423913
 50
59.4794361314485585
 51
106.1646370492428986
  0
ARC
  5
921C
  8
0
 10
4016.7103020165259295
 20
129.6627724070530121
 30
0.0
 40
0.0421528850980761
 50
195.5830993575457057
 51
264.1788806228017279
  0
ARC
  5
921D
  8
0
 10
4016.714295227051025
 20
129.6683089752901878
 30
0.0
 40
0.0481867916762018
 50
260.1195878243185007
 51
296.0537221275292268
  0
ARC
  5
921E
  8
0
 10
4016.7207741583110874
 20
129.6532125389080932
 30
0.0
 40
0.0336151196871962
 50
341.4583925654159771
 51
62.7691236578527807
  0
ARC
  5
921F
  8
0
 10
4016.7212691651470777
 20
129.6561379820043101
 30
0.0
 40
0.0342018987433322
 50
294.5130055796947204
 51
336.5422849771396159
  0
ARC
  5
9220
  8
0
 10
4016.7121314070309381
 20
129.609744493322097
 30
0.0
 40
0.0487458716215573
 50
37.1637391365577798
 51
140.6683988749709044
  0
ARC
  5
9221
  8
0
 10
4016.7352209355790364
 20
129.5067508068848099
 30
0.0
 40
0.2586527435193546
 50
37.2993349375215573
 51
94.319029841445257
  0
ARC
  5
9222
  8
0
 10
4016.7965862464589009
 20
129.5390684433031083
 30
0.0
 40
0.190599941686212
 50
286.7251560051184924
 51
40.751812173812219
  0
ARC
  5
9223
  8
0
 10
4016.6876033499388541
 20
129.8414153833433886
 30
0.0
 40
0.3085723255391022
 50
229.2806721338941998
 51
285.2992246845089994
  0
ARC
  5
9224
  8
0
 10
4016.5793963347919089
 20
129.7021352004304049
 30
0.0
 40
0.132715884164553
 50
148.6306631496717898
 51
225.457846483227712
  0
ARC
  5
9225
  8
0
 10
4016.6238817406788257
 20
129.6592824708887974
 30
0.0
 40
0.1934727644364724
 50
103.9759643566861058
 51
144.6496783810461011
  0
ARC
  5
9226
  8
0
 10
4016.7435508072790071
 20
129.6536317330889858
 30
0.0
 40
0.1127677500574411
 50
283.0548699011412168
 51
350.3537063498200155
  0
ARC
  5
9227
  8
0
 10
4016.7515177004479483
 20
129.6429338898821868
 30
0.0
 40
0.1035315229886057
 50
355.4582820210648038
 51
32.7652072630624787
  0
ARC
  5
9228
  8
0
 10
4016.7161703742308418
 20
129.6182467127248117
 30
0.0
 40
0.1466246242500827
 50
33.4019496853059579
 51
75.506985279373481
  0
ARC
  5
9229
  8
0
 10
4016.7230715601999691
 20
129.6690271070116864
 30
0.0
 40
0.0959223698146246
 50
71.9050744790456946
 51
94.3824300119293866
  0
ARC
  5
922A
  8
0
 10
4016.7404047768168311
 20
129.5087547194260083
 30
0.0
 40
0.2570999646463265
 50
95.5047059379903942
 51
111.0052286783734985
  0
ARC
  5
922B
  8
0
 10
4016.6831326111660019
 20
129.6493233401656937
 30
0.0
 40
0.1053880499747729
 50
109.3310270404346056
 51
186.961816333507187
  0
ARC
  5
922C
  8
0
 10
4016.7208700874198257
 20
129.6845621043798928
 30
0.0
 40
0.1499094987835662
 50
198.6562764755516923
 51
270.0391398319450786
  0
ARC
  5
922D
  8
0
 10
4016.6981745395728467
 20
129.4852458764102892
 30
0.0
 40
0.3814864391919358
 50
34.8936985133545292
 51
108.4955525687199014
  0
ARC
  5
922E
  8
0
 10
4016.8039067003478522
 20
129.5886010954027086
 30
0.0
 40
0.2368869130043504
 50
281.5747828003296718
 51
29.0086303172737701
  0
ARC
  5
922F
  8
0
 10
4016.721378233320138
 20
129.7028575580146992
 30
0.0
 40
0.3699419348890058
 50
213.5456156924387017
 51
290.5831438544939829
  0
ARC
  5
9230
  8
0
 10
4016.622840865463786
 20
129.6126012071673017
 30
0.0
 40
0.2388368644652492
 50
101.0277256294478008
 51
208.556704709273987
  0
ARC
  5
9231
  8
0
 10
4015.5592777955580459
 20
129.6562863299731134
 30
0.0
 40
0.0330415982118891
 50
101.9405375222206942
 51
187.7114402935272892
  0
ARC
  5
9232
  8
0
 10
4015.5667999475849683
 20
129.6390771710790091
 30
0.0
 40
0.0515748050423913
 50
59.4794361314485585
 51
106.1646370492428986
  0
ARC
  5
9233
  8
0
 10
4015.5671384344259423
 20
129.6631764443274903
 30
0.0
 40
0.0421528850980761
 50
195.5830993575457057
 51
264.1788806228017279
  0
ARC
  5
9234
  8
0
 10
4015.5711316449510377
 20
129.6687130125646092
 30
0.0
 40
0.0481867916762018
 50
260.1195878243185007
 51
296.0537221275292268
  0
ARC
  5
9235
  8
0
 10
4015.5776105762111001
 20
129.6536165761824861
 30
0.0
 40
0.0336151196871962
 50
341.4583925654159771
 51
62.7691236578527807
  0
ARC
  5
9236
  8
0
 10
4015.578105583048
 20
129.6565420192787883
 30
0.0
 40
0.0342018987433322
 50
294.5130055796947204
 51
336.5422849771396159
  0
ARC
  5
9237
  8
0
 10
4015.5689678249318604
 20
129.6101485305966037
 30
0.0
 40
0.0487458716215573
 50
37.1637391365577798
 51
140.6683988749709044
  0
ARC
  5
9238
  8
0
 10
4015.5920573534799587
 20
129.5071548441592029
 30
0.0
 40
0.2586527435193546
 50
37.2993349375215573
 51
94.319029841445257
  0
ARC
  5
9239
  8
0
 10
4015.6534226643598231
 20
129.5394724805775866
 30
0.0
 40
0.190599941686212
 50
286.7251560051184924
 51
40.751812173812219
  0
ARC
  5
923A
  8
0
 10
4015.5444397678388668
 20
129.8418194206178953
 30
0.0
 40
0.3085723255391022
 50
229.2806721338941998
 51
285.2992246845089994
  0
ARC
  5
923B
  8
0
 10
4015.4362327526928311
 20
129.7025392377049116
 30
0.0
 40
0.132715884164553
 50
148.6306631496717898
 51
225.457846483227712
  0
ARC
  5
923C
  8
0
 10
4015.4807181585788385
 20
129.6596865081633041
 30
0.0
 40
0.1934727644364724
 50
103.9759643566861058
 51
144.6496783810461011
  0
ARC
  5
923D
  8
0
 10
4015.6003872251799294
 20
129.6540357703634925
 30
0.0
 40
0.1127677500574411
 50
283.0548699011412168
 51
350.3537063498200155
  0
ARC
  5
923E
  8
0
 10
4015.6083541183488705
 20
129.6433379271566082
 30
0.0
 40
0.1035315229886057
 50
355.4582820210648038
 51
32.7652072630624787
  0
ARC
  5
923F
  8
0
 10
4015.5730067921322188
 20
129.6186507499992899
 30
0.0
 40
0.1466246242500827
 50
33.4019496853059579
 51
75.506985279373481
  0
ARC
  5
9240
  8
0
 10
4015.5799079781008913
 20
129.6694311442861931
 30
0.0
 40
0.0959223698146246
 50
71.9050744790456946
 51
94.3824300119293866
  0
ARC
  5
9241
  8
0
 10
4015.5972411947182081
 20
129.5091587567004865
 30
0.0
 40
0.2570999646463265
 50
95.5047059379903942
 51
111.0052286783734985
  0
ARC
  5
9242
  8
0
 10
4015.5399690290660146
 20
129.6497273774400867
 30
0.0
 40
0.1053880499747729
 50
109.3310270404346056
 51
186.961816333507187
  0
ARC
  5
9243
  8
0
 10
4015.5777065053212027
 20
129.6849661416543995
 30
0.0
 40
0.1499094987835662
 50
198.6562764755516923
 51
270.0391398319450786
  0
ARC
  5
9244
  8
0
 10
4015.5550109574742237
 20
129.4856499136847958
 30
0.0
 40
0.3814864391919358
 50
34.8936985133545292
 51
108.4955525687199014
  0
ARC
  5
9245
  8
0
 10
4015.6607431182487744
 20
129.5890051326771015
 30
0.0
 40
0.2368869130043504
 50
281.5747828003296718
 51
29.0086303172737701
  0
ARC
  5
9246
  8
0
 10
4015.5782146512210602
 20
129.7032615952890922
 30
0.0
 40
0.3699419348890058
 50
213.5456156924387017
 51
290.5831438544939829
  0
ARC
  5
9247
  8
0
 10
4015.479677283365163
 20
129.6130052444416947
 30
0.0
 40
0.2388368644652492
 50
101.0277256294478008
 51
208.556704709273987
  0
ARC
  5
9248
  8
0
 10
4015.6441263909478039
 20
130.3543227411005034
 30
0.0
 40
0.0330415982118891
 50
101.9405375222206942
 51
187.7114402935272892
  0
ARC
  5
9249
  8
0
 10
4015.6516485429760905
 20
130.3371135822063138
 30
0.0
 40
0.0515748050423913
 50
59.4794361314485585
 51
106.1646370492428986
  0
ARC
  5
924A
  8
0
 10
4015.6519870298170645
 20
130.3612128554547951
 30
0.0
 40
0.0421528850980761
 50
195.5830993575457057
 51
264.1788806228017279
  0
ARC
  5
924B
  8
0
 10
4015.6559802403407957
 20
130.3667494236919993
 30
0.0
 40
0.0481867916762018
 50
260.1195878243185007
 51
296.0537221275292268
  0
ARC
  5
924C
  8
0
 10
4015.6624591716022223
 20
130.3516529873099046
 30
0.0
 40
0.0336151196871962
 50
341.4583925654159771
 51
62.7691236578527807
  0
ARC
  5
924D
  8
0
 10
4015.6629541784391222
 20
130.354578430406093
 30
0.0
 40
0.0342018987433322
 50
294.5130055796947204
 51
336.5422849771396159
  0
ARC
  5
924E
  8
0
 10
4015.6538164203229826
 20
130.3081849417239084
 30
0.0
 40
0.0487458716215573
 50
37.1637391365577798
 51
140.6683988749709044
  0
ARC
  5
924F
  8
0
 10
4015.6769059488710809
 20
130.2051912552865076
 30
0.0
 40
0.2586527435193546
 50
37.2993349375215573
 51
94.319029841445257
  0
ARC
  5
9250
  8
0
 10
4015.7382712597509453
 20
130.2375088917048913
 30
0.0
 40
0.190599941686212
 50
286.7251560051184924
 51
40.751812173812219
  0
ARC
  5
9251
  8
0
 10
4015.629288363229989
 20
130.5398558317452
 30
0.0
 40
0.3085723255391022
 50
229.2806721338941998
 51
285.2992246845089994
  0
ARC
  5
9252
  8
0
 10
4015.5210813480830438
 20
130.4005756488321879
 30
0.0
 40
0.132715884164553
 50
148.6306631496717898
 51
225.457846483227712
  0
ARC
  5
9253
  8
0
 10
4015.5655667539699607
 20
130.3577229192906088
 30
0.0
 40
0.1934727644364724
 50
103.9759643566861058
 51
144.6496783810461011
  0
ARC
  5
9254
  8
0
 10
4015.6852358205719611
 20
130.3520721814907972
 30
0.0
 40
0.1127677500574411
 50
283.0548699011412168
 51
350.3537063498200155
  0
ARC
  5
9255
  8
0
 10
4015.6932027137399928
 20
130.3413743382839129
 30
0.0
 40
0.1035315229886057
 50
355.4582820210648038
 51
32.7652072630624787
  0
ARC
  5
9256
  8
0
 10
4015.6578553875219768
 20
130.3166871611265947
 30
0.0
 40
0.1466246242500827
 50
33.4019496853059579
 51
75.506985279373481
  0
ARC
  5
9257
  8
0
 10
4015.6647565734911041
 20
130.3674675554134978
 30
0.0
 40
0.0959223698146246
 50
71.9050744790456946
 51
94.3824300119293866
  0
ARC
  5
9258
  8
0
 10
4015.6820897901097851
 20
130.2071951678277912
 30
0.0
 40
0.2570999646463265
 50
95.5047059379903942
 51
111.0052286783734985
  0
ARC
  5
9259
  8
0
 10
4015.6248176244571368
 20
130.3477637885673914
 30
0.0
 40
0.1053880499747729
 50
109.3310270404346056
 51
186.961816333507187
  0
ARC
  5
925A
  8
0
 10
4015.6625551007109607
 20
130.3830025527817043
 30
0.0
 40
0.1499094987835662
 50
198.6562764755516923
 51
270.0391398319450786
  0
ARC
  5
925B
  8
0
 10
4015.6398595528648912
 20
130.1836863248121006
 30
0.0
 40
0.3814864391919358
 50
34.8936985133545292
 51
108.4955525687199014
  0
ARC
  5
925C
  8
0
 10
4015.7455917136389871
 20
130.2870415438044063
 30
0.0
 40
0.2368869130043504
 50
281.5747828003296718
 51
29.0086303172737701
  0
ARC
  5
925D
  8
0
 10
4015.6630632466121824
 20
130.4012980064165106
 30
0.0
 40
0.3699419348890058
 50
213.5456156924387017
 51
222.8843682576996059
  0
ARC
  5
925E
  8
0
 10
4015.6630632466121824
 20
130.4012980064165106
 30
0.0
 40
0.3699419348890058
 50
238.7663779780654068
 51
290.5831438544939829
  0
ARC
  5
925F
  8
0
 10
4015.564525878754921
 20
130.3110416555689994
 30
0.0
 40
0.2388368644652492
 50
101.0277256294478008
 51
208.556704709273987
  0
ARC
  5
9260
  8
0
 10
4014.7551049460798822
 20
130.2345894337254038
 30
0.0
 40
0.0330415982118891
 50
101.9405375222206942
 51
187.7114402935272892
  0
ARC
  5
9261
  8
0
 10
4014.7626270981058951
 20
130.2173802748312141
 30
0.0
 40
0.0515748050423913
 50
59.4794361314485585
 51
106.1646370492428986
  0
ARC
  5
9262
  8
0
 10
4014.7629655849477786
 20
130.2414795480796954
 30
0.0
 40
0.0421528850980761
 50
195.5830993575457057
 51
264.1788806228017279
  0
ARC
  5
9263
  8
0
 10
4014.766958795472874
 20
130.2470161163168996
 30
0.0
 40
0.0481867916762018
 50
260.1195878243185007
 51
296.0537221275292268
  0
ARC
  5
9264
  8
0
 10
4014.7734377267329364
 20
130.2319196799346912
 30
0.0
 40
0.0336151196871962
 50
341.4583925654159771
 51
62.7691236578527807
  0
ARC
  5
9265
  8
0
 10
4014.7739327335698363
 20
130.2348451230309934
 30
0.0
 40
0.0342018987433322
 50
294.5130055796947204
 51
336.5422849771396159
  0
ARC
  5
9266
  8
0
 10
4014.7647949754541514
 20
130.1884516343488087
 30
0.0
 40
0.0487458716215573
 50
37.1637391365577798
 51
140.6683988749709044
  0
ARC
  5
9267
  8
0
 10
4014.787884504001795
 20
130.0854579479114079
 30
0.0
 40
0.2586527435193546
 50
37.2993349375215573
 51
94.319029841445257
  0
ARC
  5
9268
  8
0
 10
4014.8492498148821142
 20
130.1177755843297916
 30
0.0
 40
0.190599941686212
 50
286.7251560051184924
 51
40.751812173812219
  0
ARC
  5
9269
  8
0
 10
4014.7402669183611579
 20
130.4201225243701003
 30
0.0
 40
0.3085723255391022
 50
229.2806721338941998
 51
285.2992246845089994
  0
ARC
  5
926A
  8
0
 10
4014.6320599032142127
 20
130.2808423414570882
 30
0.0
 40
0.132715884164553
 50
148.6306631496717898
 51
225.457846483227712
  0
ARC
  5
926B
  8
0
 10
4014.6765453091011295
 20
130.2379896119155092
 30
0.0
 40
0.1934727644364724
 50
103.9759643566861058
 51
144.6496783810461011
  0
ARC
  5
926C
  8
0
 10
4014.7962143757022204
 20
130.2323388741156975
 30
0.0
 40
0.1127677500574411
 50
283.0548699011412168
 51
350.3537063498200155
  0
ARC
  5
926D
  8
0
 10
4014.8041812688697973
 20
130.2216410309088133
 30
0.0
 40
0.1035315229886057
 50
355.4582820210648038
 51
32.7652072630624787
  0
ARC
  5
926E
  8
0
 10
4014.7688339426540551
 20
130.196953853751495
 30
0.0
 40
0.1466246242500827
 50
33.4019496853059579
 51
75.506985279373481
  0
ARC
  5
926F
  8
0
 10
4014.7757351286231824
 20
130.2477342480383982
 30
0.0
 40
0.0959223698146246
 50
71.9050744790456946
 51
94.3824300119293866
  0
ARC
  5
9270
  8
0
 10
4014.7930683452400444
 20
130.0874618604526916
 30
0.0
 40
0.2570999646463265
 50
95.5047059379903942
 51
111.0052286783734985
  0
ARC
  5
9271
  8
0
 10
4014.7357961795878509
 20
130.2280304811922917
 30
0.0
 40
0.1053880499747729
 50
109.3310270404346056
 51
186.961816333507187
  0
ARC
  5
9272
  8
0
 10
4014.7735336558421295
 20
130.2632692454066046
 30
0.0
 40
0.1499094987835662
 50
198.6562764755516923
 51
270.0391398319450786
  0
ARC
  5
9273
  8
0
 10
4014.7508381079951505
 20
130.0639530174370009
 30
0.0
 40
0.3814864391919358
 50
34.8936985133545292
 51
108.4955525687199014
  0
ARC
  5
9274
  8
0
 10
4014.856570268770156
 20
130.1673082364293066
 30
0.0
 40
0.2368869130043504
 50
281.5747828003296718
 51
29.0086303172737701
  0
ARC
  5
9275
  8
0
 10
4014.7740418017428965
 20
130.2815646990414109
 30
0.0
 40
0.3699419348890058
 50
213.5456156924387017
 51
290.5831438544939829
  0
ARC
  5
9276
  8
0
 10
4014.6755044338869993
 20
130.1913083481940134
 30
0.0
 40
0.2388368644652492
 50
101.0277256294478008
 51
208.556704709273987
  0
ARC
  5
9277
  8
0
 10
4014.7558890551299555
 20
131.0521615493138086
 30
0.0
 40
0.0330415982118891
 50
101.9405375222206942
 51
187.7114402935272892
  0
ARC
  5
9278
  8
0
 10
4014.7634112071568779
 20
131.0349523904195905
 30
0.0
 40
0.0515748050423913
 50
59.4794361314485585
 51
106.1646370492428986
  0
ARC
  5
9279
  8
0
 10
4014.7637496939960329
 20
131.0590516636681002
 30
0.0
 40
0.0421528850980761
 50
195.5830993575457057
 51
264.1788806228017279
  0
ARC
  5
927A
  8
0
 10
4014.7677429045220379
 20
131.0645882319051907
 30
0.0
 40
0.0481867916762018
 50
260.1195878243185007
 51
296.0537221275292268
  0
ARC
  5
927B
  8
0
 10
4014.7742218357830097
 20
131.0494917955232097
 30
0.0
 40
0.0336151196871962
 50
341.4583925654159771
 51
62.7691236578527807
  0
ARC
  5
927C
  8
0
 10
4014.7747168426190001
 20
131.0524172386193982
 30
0.0
 40
0.0342018987433322
 50
294.5130055796947204
 51
336.5422849771396159
  0
ARC
  5
927D
  8
0
 10
4014.7655790845028605
 20
131.0060237499372136
 30
0.0
 40
0.0487458716215573
 50
37.1637391365577798
 51
140.6683988749709044
  0
ARC
  5
927E
  8
0
 10
4014.7886686130518683
 20
130.9030300634998127
 30
0.0
 40
0.2586527435193546
 50
37.2993349375215573
 51
94.319029841445257
  0
ARC
  5
927F
  8
0
 10
4014.8500339239321875
 20
130.9353476999181964
 30
0.0
 40
0.190599941686212
 50
286.7251560051184924
 51
40.751812173812219
  0
ARC
  5
9280
  8
0
 10
4014.7410510274098669
 20
131.2376946399585051
 30
0.0
 40
0.3085723255391022
 50
229.2806721338941998
 51
285.2992246845089994
  0
ARC
  5
9281
  8
0
 10
4014.6328440122638312
 20
131.098414457045493
 30
0.0
 40
0.132715884164553
 50
148.6306631496717898
 51
225.457846483227712
  0
ARC
  5
9282
  8
0
 10
4014.6773294181512028
 20
131.055561727503914
 30
0.0
 40
0.1934727644364724
 50
103.9759643566861058
 51
144.6496783810461011
  0
ARC
  5
9283
  8
0
 10
4014.796998484751839
 20
131.0499109897041023
 30
0.0
 40
0.1127677500574411
 50
283.0548699011412168
 51
350.3537063498200155
  0
ARC
  5
9284
  8
0
 10
4014.8049653779207802
 20
131.0392131464971897
 30
0.0
 40
0.1035315229886057
 50
355.4582820210648038
 51
32.7652072630624787
  0
ARC
  5
9285
  8
0
 10
4014.7696180517041284
 20
131.0145259693398998
 30
0.0
 40
0.1466246242500827
 50
33.4019496853059579
 51
75.506985279373481
  0
ARC
  5
9286
  8
0
 10
4014.7765192376718915
 20
131.065306363626803
 30
0.0
 40
0.0959223698146246
 50
71.9050744790456946
 51
94.3824300119293866
  0
ARC
  5
9287
  8
0
 10
4014.7938524542910272
 20
130.9050339760410964
 30
0.0
 40
0.2570999646463265
 50
95.5047059379903942
 51
111.0052286783734985
  0
ARC
  5
9288
  8
0
 10
4014.7365802886370147
 20
131.0456025967806966
 30
0.0
 40
0.1053880499747729
 50
109.3310270404346056
 51
186.961816333507187
  0
ARC
  5
9289
  8
0
 10
4014.7743177648908386
 20
131.0808413609950094
 30
0.0
 40
0.1499094987835662
 50
198.6562764755516923
 51
270.0391398319450786
  0
ARC
  5
928A
  8
0
 10
4014.7516222170461333
 20
130.8815251330254057
 30
0.0
 40
0.3814864391919358
 50
34.8936985133545292
 51
108.4955525687199014
  0
ARC
  5
928B
  8
0
 10
4014.8573543778197745
 20
130.9848803520177114
 30
0.0
 40
0.2368869130043504
 50
281.5747828003296718
 51
29.0086303172737701
  0
ARC
  5
928C
  8
0
 10
4014.7748259107929698
 20
131.0991368146297873
 30
0.0
 40
0.3699419348890058
 50
213.5456156924387017
 51
290.5831438544939829
  0
ARC
  5
928D
  8
0
 10
4014.6762885429347989
 20
131.0088804637823046
 30
0.0
 40
0.2388368644652492
 50
101.0277256294478008
 51
208.556704709273987
  0
ARC
  5
928E
  8
0
 10
4016.6181011243788817
 20
131.0441561987726118
 30
0.0
 40
0.0330415982118891
 50
101.9405375222206942
 51
187.7114402935272892
  0
ARC
  5
928F
  8
0
 10
4016.6256232764058041
 20
131.0269470398783938
 30
0.0
 40
0.0515748050423913
 50
59.4794361314485585
 51
106.1646370492428986
  0
ARC
  5
9290
  8
0
 10
4016.625961763246778
 20
131.0510463131269034
 30
0.0
 40
0.0421528850980761
 50
195.5830993575457057
 51
264.1788806228017279
  0
ARC
  5
9291
  8
0
 10
4016.6299549737718735
 20
131.0565828813641076
 30
0.0
 40
0.0481867916762018
 50
260.1195878243185007
 51
296.0537221275292268
  0
ARC
  5
9292
  8
0
 10
4016.6364339050319359
 20
131.0414864449818992
 30
0.0
 40
0.0336151196871962
 50
341.4583925654159771
 51
62.7691236578527807
  0
ARC
  5
9293
  8
0
 10
4016.6369289118688357
 20
131.0444118880782014
 30
0.0
 40
0.0342018987433322
 50
294.5130055796947204
 51
336.5422849771396159
  0
ARC
  5
9294
  8
0
 10
4016.6277911537531509
 20
130.9980183993959884
 30
0.0
 40
0.0487458716215573
 50
37.1637391365577798
 51
140.6683988749709044
  0
ARC
  5
9295
  8
0
 10
4016.6508806823007944
 20
130.8950247129585875
 30
0.0
 40
0.2586527435193546
 50
37.2993349375215573
 51
94.319029841445257
  0
ARC
  5
9296
  8
0
 10
4016.7122459931820231
 20
130.9273423493769997
 30
0.0
 40
0.190599941686212
 50
286.7251560051184924
 51
40.751812173812219
  0
ARC
  5
9297
  8
0
 10
4016.6032630966601573
 20
131.2296892894173084
 30
0.0
 40
0.3085723255391022
 50
229.2806721338941998
 51
285.2992246845089994
  0
ARC
  5
9298
  8
0
 10
4016.4950560815132121
 20
131.0904091065042962
 30
0.0
 40
0.132715884164553
 50
148.6306631496717898
 51
225.457846483227712
  0
ARC
  5
9299
  8
0
 10
4016.539541487400129
 20
131.0475563769626888
 30
0.0
 40
0.1934727644364724
 50
103.9759643566861058
 51
144.6496783810461011
  0
ARC
  5
929A
  8
0
 10
4016.6592105540021294
 20
131.0419056391629056
 30
0.0
 40
0.1127677500574411
 50
283.0548699011412168
 51
350.3537063498200155
  0
ARC
  5
929B
  8
0
 10
4016.667177447170161
 20
131.0312077959559929
 30
0.0
 40
0.1035315229886057
 50
355.4582820210648038
 51
32.7652072630624787
  0
ARC
  5
929C
  8
0
 10
4016.6318301209521451
 20
131.0065206187985893
 30
0.0
 40
0.1466246242500827
 50
33.4019496853059579
 51
75.506985279373481
  0
ARC
  5
929D
  8
0
 10
4016.6387313069221818
 20
131.0573010130856062
 30
0.0
 40
0.0959223698146246
 50
71.9050744790456946
 51
94.3824300119293866
  0
ARC
  5
929E
  8
0
 10
4016.6560645235399534
 20
130.8970286254998996
 30
0.0
 40
0.2570999646463265
 50
95.5047059379903942
 51
111.0052286783734985
  0
ARC
  5
929F
  8
0
 10
4016.5987923578868504
 20
131.0375972462394998
 30
0.0
 40
0.1053880499747729
 50
109.3310270404346056
 51
186.961816333507187
  0
ARC
  5
92A0
  8
0
 10
4016.636529834141129
 20
131.0728360104538126
 30
0.0
 40
0.1499094987835662
 50
198.6562764755516923
 51
270.0391398319450786
  0
ARC
  5
92A1
  8
0
 10
4016.6138342862950594
 20
130.8735197824842089
 30
0.0
 40
0.3814864391919358
 50
34.8936985133545292
 51
38.6972596086452967
  0
ARC
  5
92A2
  8
0
 10
4016.6138342862950594
 20
130.8735197824842089
 30
0.0
 40
0.3814864391919358
 50
59.2416295409702229
 51
108.4955525687199014
  0
ARC
  5
92A3
  8
0
 10
4016.7195664470691554
 20
130.9768750014764862
 30
0.0
 40
0.2368869130043504
 50
281.5747828003296718
 51
29.0086303172737701
  0
ARC
  5
92A4
  8
0
 10
4016.6370379800418959
 20
131.0911314640885905
 30
0.0
 40
0.3699419348890058
 50
213.5456156924387017
 51
290.5831438544939829
  0
ARC
  5
92A5
  8
0
 10
4016.5385006121859988
 20
131.0008751132411078
 30
0.0
 40
0.2388368644652492
 50
101.0277256294478008
 51
208.556704709273987
  0
ARC
  5
92A6
  8
0
 10
4017.5153949855198334
 20
130.2323606411160881
 30
0.0
 40
0.0330415982118891
 50
101.9405375222206942
 51
187.7114402935272892
  0
ARC
  5
92A7
  8
0
 10
4017.5229171375458463
 20
130.2151514822218985
 30
0.0
 40
0.0515748050423913
 50
59.4794361314485585
 51
106.1646370492428986
  0
ARC
  5
92A8
  8
0
 10
4017.5232556243881845
 20
130.2392507554704082
 30
0.0
 40
0.0421528850980761
 50
195.5830993575457057
 51
264.1788806228017279
  0
ARC
  5
92A9
  8
0
 10
4017.5272488349119158
 20
130.2447873237074987
 30
0.0
 40
0.0481867916762018
 50
260.1195878243185007
 51
296.0537221275292268
  0
ARC
  5
92AA
  8
0
 10
4017.5337277661728876
 20
130.229690887325404
 30
0.0
 40
0.0336151196871962
 50
341.4583925654159771
 51
62.7691236578527807
  0
ARC
  5
92AB
  8
0
 10
4017.534222773008878
 20
130.2326163304217062
 30
0.0
 40
0.0342018987433322
 50
294.5130055796947204
 51
336.5422849771396159
  0
ARC
  5
92AC
  8
0
 10
4017.5250850148931931
 20
130.1862228417394931
 30
0.0
 40
0.0487458716215573
 50
37.1637391365577798
 51
140.6683988749709044
  0
ARC
  5
92AD
  8
0
 10
4017.548174543442201
 20
130.0832291553020923
 30
0.0
 40
0.2586527435193546
 50
37.2993349375215573
 51
94.319029841445257
  0
ARC
  5
92AE
  8
0
 10
4017.6095398543220654
 20
130.1155467917205044
 30
0.0
 40
0.190599941686212
 50
286.7251560051184924
 51
40.751812173812219
  0
ARC
  5
92AF
  8
0
 10
4017.5005569578011091
 20
130.4178937317608131
 30
0.0
 40
0.3085723255391022
 50
229.2806721338941998
 51
285.2992246845089994
  0
ARC
  5
92B0
  8
0
 10
4017.3923499426541639
 20
130.2786135488476873
 30
0.0
 40
0.132715884164553
 50
148.6306631496717898
 51
225.457846483227712
  0
ARC
  5
92B1
  8
0
 10
4017.4368353485410807
 20
130.2357608193061935
 30
0.0
 40
0.1934727644364724
 50
103.9759643566861058
 51
144.6496783810461011
  0
ARC
  5
92B2
  8
0
 10
4017.5565044151421716
 20
130.2301100815064103
 30
0.0
 40
0.1127677500574411
 50
283.0548699011412168
 51
350.3537063498200155
  0
ARC
  5
92B3
  8
0
 10
4017.5644713083102033
 20
130.2194122382994976
 30
0.0
 40
0.1035315229886057
 50
355.4582820210648038
 51
32.7652072630624787
  0
ARC
  5
92B4
  8
0
 10
4017.5291239820930969
 20
130.1947250611422078
 30
0.0
 40
0.1466246242500827
 50
33.4019496853059579
 51
75.506985279373481
  0
ARC
  5
92B5
  8
0
 10
4017.5360251680622241
 20
130.245505455429111
 30
0.0
 40
0.0959223698146246
 50
71.9050744790456946
 51
94.3824300119293866
  0
ARC
  5
92B6
  8
0
 10
4017.5533583846799957
 20
130.0852330678434043
 30
0.0
 40
0.2570999646463265
 50
95.5047059379903942
 51
111.0052286783734985
  0
ARC
  5
92B7
  8
0
 10
4017.4960862190278021
 20
130.2258016885830045
 30
0.0
 40
0.1053880499747729
 50
109.3310270404346056
 51
186.961816333507187
  0
ARC
  5
92B8
  8
0
 10
4017.5338236952820807
 20
130.2610404527972889
 30
0.0
 40
0.1499094987835662
 50
198.6562764755516923
 51
270.0391398319450786
  0
ARC
  5
92B9
  8
0
 10
4017.5111281474351017
 20
130.0617242248277137
 30
0.0
 40
0.3814864391919358
 50
34.8936985133545292
 51
108.4955525687199014
  0
ARC
  5
92BA
  8
0
 10
4017.6168603082101072
 20
130.165079443819991
 30
0.0
 40
0.2368869130043504
 50
281.5747828003296718
 51
29.0086303172737701
  0
ARC
  5
92BB
  8
0
 10
4017.5343318411819382
 20
130.2793359064320953
 30
0.0
 40
0.3699419348890058
 50
213.5456156924387017
 51
290.5831438544939829
  0
ARC
  5
92BC
  8
0
 10
4017.435794473326041
 20
130.1890795555846125
 30
0.0
 40
0.2388368644652492
 50
101.0277256294478008
 51
208.556704709273987
  0
ARC
  5
92BD
  8
0
 10
4016.9214654291358784
 20
131.2561764449922066
 30
0.0
 40
0.1444886020919853
 50
228.1005464125830997
 51
276.1510948250863748
  0
ARC
  5
92BE
  8
0
 10
4016.8705920849761242
 20
131.1921377705502039
 30
0.0
 40
0.0630397348759442
 50
182.7742827691164962
 51
223.6418677914658986
  0
ARC
  5
92BF
  8
0
 10
4016.8806433778249811
 20
131.1874963787240063
 30
0.0
 40
0.0730344563153389
 50
128.1515031365786115
 51
178.7524019690036994
  0
ARC
  5
92C0
  8
0
 10
4016.9389517899321618
 20
131.1175101272262111
 30
0.0
 40
0.1641107619929903
 50
92.4361427946605829
 51
129.0659292805665928
  0
ARC
  5
92C1
  8
0
 10
4016.9450639891229002
 20
131.1220343863757876
 30
0.0
 40
0.1599744554456919
 50
59.6153538927879225
 51
94.6927433925357462
  0
ARC
  5
92C2
  8
0
 10
4016.9856871032920935
 20
131.1938972161862011
 30
0.0
 40
0.0774457565960944
 50
23.0977493049270883
 51
58.649913232668851
  0
ARC
  5
92C3
  8
0
 10
4016.9535622629368845
 20
131.145416964073604
 30
0.0
 40
0.1133167770728009
 50
39.2040437814967504
 51
72.7406844761139979
  0
ARC
  5
92C4
  8
0
 10
4016.9343629292261539
 20
131.0954845471310932
 30
0.0
 40
0.1667343656854141
 50
71.5309887083454328
 51
101.9800737336411061
  0
ARC
  5
92C5
  8
0
 10
4016.9236787689851553
 20
131.1323733638764111
 30
0.0
 40
0.1284616621804429
 50
100.7336363477943024
 51
134.7539206789984121
  0
ARC
  5
92C6
  8
0
 10
4016.8822807085061868
 20
131.1737581178381049
 30
0.0
 40
0.0699264394218303
 50
134.5402152595075052
 51
185.3027654577838064
  0
ARC
  5
92C7
  8
0
 10
4016.9283291636961621
 20
131.2691080138745008
 30
0.0
 40
0.1568253080568092
 50
273.1502740623481031
 51
289.3477501395483955
  0
ARC
  5
92C8
  8
0
 10
4016.9514603950869969
 20
131.2361643407544989
 30
0.0
 40
0.1185817339250764
 50
284.0685339403623857
 51
332.3240265118748198
  0
ARC
  5
92C9
  8
0
 10
4017.0033780291578296
 20
131.2032379117950995
 30
0.0
 40
0.057532341641113
 50
337.354788828293124
 51
21.4525659730956306
  0
ARC
  5
92CA
  8
0
 10
4016.9829073167038587
 20
131.1713342267449889
 30
0.0
 40
0.0742112830514844
 50
7.5512853711667649
 51
38.0190396615353166
  0
ARC
  5
92CB
  8
0
 10
4015.336521386575896
 20
130.088075251002806
 30
0.0
 40
0.1305561686759915
 50
219.3071840662362035
 51
276.7701737967503846
  0
ARC
  5
92CC
  8
0
 10
4015.2970935975599787
 20
130.04901919020989
 30
0.0
 40
0.0754896610465145
 50
180.6114996872528025
 51
215.3242853776424113
  0
ARC
  5
92CD
  8
0
 10
4015.3388288552268932
 20
130.0356858791629122
 30
0.0
 40
0.1178881486919858
 50
142.3659386697798084
 51
173.8998169575640986
  0
ARC
  5
92CE
  8
0
 10
4015.3529939026889224
 20
130.0040463244199032
 30
0.0
 40
0.1493294923295668
 50
93.0375203017877652
 51
136.0581269989233988
  0
ARC
  5
92CF
  8
0
 10
4015.3577089918239835
 20
130.011052558877708
 30
0.0
 40
0.1426734109721326
 50
52.5788408699233614
 51
95.0779025169919123
  0
ARC
  5
92D0
  8
0
 10
4015.3949990192659243
 20
130.0618735193166913
 30
0.0
 40
0.0796619743605773
 50
15.8443799399148606
 51
51.6675630443862417
  0
ARC
  5
92D1
  8
0
 10
4015.3675442637731976
 20
130.0045439364135973
 30
0.0
 40
0.1133167770728009
 50
39.2040437814967504
 51
72.7406844761139979
  0
ARC
  5
92D2
  8
0
 10
4015.3483449300629218
 20
129.9546115194710865
 30
0.0
 40
0.1667343656854141
 50
71.5309887083454328
 51
101.9800737336411061
  0
ARC
  5
92D3
  8
0
 10
4015.3376607698210137
 20
129.9915003362164043
 30
0.0
 40
0.1284616621804429
 50
100.7336363477943024
 51
134.7539206789984121
  0
ARC
  5
92D4
  8
0
 10
4015.2971070081789549
 20
130.032341619948312
 30
0.0
 40
0.0709063448672563
 50
134.718459547211495
 51
189.4920074598697965
  0
ARC
  5
92D5
  8
0
 10
4015.3399515716910173
 20
130.1216029984248905
 30
0.0
 40
0.1636113243395815
 50
274.1923093839067747
 51
291.0301115537976102
  0
ARC
  5
92D6
  8
0
 10
4015.3636401586381908
 20
130.0759377391532041
 30
0.0
 40
0.1126323961102461
 50
288.1173959463055212
 51
341.5078390618818958
  0
ARC
  5
92D7
  8
0
 10
4015.4117047806489609
 20
130.0635278763859901
 30
0.0
 40
0.0632090318006714
 50
338.3556246552528251
 51
18.5371589312041003
  0
ARC
  5
92D8
  8
0
 10
4015.3968893175410813
 20
130.0304611990850105
 30
0.0
 40
0.0742112830514844
 50
7.5512853711667649
 51
38.0190396615353166
  0
ARC
  5
92D9
  8
0
 10
4016.9237617297631004
 20
130.0896614925424046
 30
0.0
 40
0.1305561686759915
 50
219.3071840662362035
 51
276.7701737967503846
  0
ARC
  5
92DA
  8
0
 10
4016.8843339407471831
 20
130.0506054317496023
 30
0.0
 40
0.0754896610465145
 50
180.6114996872528025
 51
215.3242853776424113
  0
ARC
  5
92DB
  8
0
 10
4016.9260691984140976
 20
130.0372721207025961
 30
0.0
 40
0.1178881486919858
 50
142.3659386697798084
 51
173.8998169575640986
  0
ARC
  5
92DC
  8
0
 10
4016.9402342458752173
 20
130.0056325659595871
 30
0.0
 40
0.1493294923295668
 50
93.0375203017877652
 51
136.0581269989233988
  0
ARC
  5
92DD
  8
0
 10
4016.9449493350098237
 20
130.0126388004173066
 30
0.0
 40
0.1426734109721326
 50
52.5788408699233614
 51
95.0779025169919123
  0
ARC
  5
92DE
  8
0
 10
4016.9822393624531287
 20
130.0634597608562899
 30
0.0
 40
0.0796619743605773
 50
15.8443799399148606
 51
51.6675630443862417
  0
ARC
  5
92DF
  8
0
 10
4016.9547846069608568
 20
130.0061301779531959
 30
0.0
 40
0.1133167770728009
 50
39.2040437814967504
 51
72.7406844761139979
  0
ARC
  5
92E0
  8
0
 10
4016.9355852732492167
 20
129.9561977610107135
 30
0.0
 40
0.1667343656854141
 50
71.5309887083454328
 51
101.9800737336411061
  0
ARC
  5
92E1
  8
0
 10
4016.9249011130082181
 20
129.993086577756003
 30
0.0
 40
0.1284616621804429
 50
100.7336363477943024
 51
134.7539206789984121
  0
ARC
  5
92E2
  8
0
 10
4016.8843473513670688
 20
130.0339278614879959
 30
0.0
 40
0.0709063448672563
 50
134.718459547211495
 51
189.4920074598697965
  0
ARC
  5
92E3
  8
0
 10
4016.9271919148782217
 20
130.1231892399644892
 30
0.0
 40
0.1636113243395815
 50
274.1923093839067747
 51
291.0301115537976102
  0
ARC
  5
92E4
  8
0
 10
4016.9508805018249404
 20
130.0775239806928028
 30
0.0
 40
0.1126323961102461
 50
288.1173959463055212
 51
341.5078390618818958
  0
ARC
  5
92E5
  8
0
 10
4016.9989451238361653
 20
130.0651141179257024
 30
0.0
 40
0.0632090318006714
 50
338.3556246552528251
 51
18.5371589312041003
  0
ARC
  5
92E6
  8
0
 10
4016.9841296607269214
 20
130.0320474406246092
 30
0.0
 40
0.0742112830514844
 50
7.5512853711667649
 51
38.0190396615353166
  0
ENDSEC
  0
EOF
