  0
SECTION
  2
HEADER
  9
$ACADVER
  1
AC1009
  9
$INSBASE
 10
4912.8198836777919496
 20
-2.5640768286743159
 30
0.0
  9
$EXTMIN
 10
4911.760408295192974
 20
-2.564076828674815
 30
0.0
  9
$EXTMAX
 10
4913.8793185827926209
 20
3.3422145087005002
 30
0.0
  9
$LIMMIN
 10
0.0
 20
0.0
  9
$LIMMAX
 10
11.6929133858000007
 20
8.2677165353999982
  9
$ORTHOMODE
 70
     1
  9
$REGENMODE
 70
     1
  9
$FILLMODE
 70
     1
  9
$QTEXTMODE
 70
     0
  9
$MIRRTEXT
 70
     0
  9
$DRAGMODE
 70
     2
  9
$LTSCALE
 40
0.6431102362
  9
$OSMODE
 70
  2047
  9
$ATTMODE
 70
     1
  9
$TEXTSIZE
 40
0.2
  9
$TRACEWID
 40
0.05
  9
$TEXTSTYLE
  7
STANDARD
  9
$CLAYER
  8
0
  9
$CELTYPE
  6
BYLAYER
  9
$CECOLOR
 62
   256
  9
$DIMSCALE
 40
1.0
  9
$DIMASZ
 40
0.1875
  9
$DIMEXO
 40
0.0625
  9
$DIMDLI
 40
0.4443307087
  9
$DIMRND
 40
0.0
  9
$DIMDLE
 40
0.0
  9
$DIMEXE
 40
0.125
  9
$DIMTP
 40
0.01
  9
$DIMTM
 40
0.01
  9
$DIMTXT
 40
2.0
  9
$DIMCEN
 40
0.1052362205
  9
$DIMTSZ
 40
0.0
  9
$DIMTOL
 70
     1
  9
$DIMLIM
 70
     0
  9
$DIMTIH
 70
     1
  9
$DIMTOH
 70
     1
  9
$DIMSE1
 70
     0
  9
$DIMSE2
 70
     0
  9
$DIMTAD
 70
     0
  9
$DIMZIN
 70
     0
  9
$DIMBLK
  1

  9
$DIMASO
 70
     1
  9
$DIMSHO
 70
     1
  9
$DIMPOST
  1
\X
  9
$DIMAPOST
  1

  9
$DIMALT
 70
     1
  9
$DIMALTD
 70
     2
  9
$DIMALTF
 40
25.3999999999999986
  9
$DIMLFAC
 40
1.0
  9
$DIMTOFL
 70
     0
  9
$DIMTVP
 40
0.0
  9
$DIMTIX
 70
     0
  9
$DIMSOXD
 70
     0
  9
$DIMSAH
 70
     0
  9
$DIMBLK1
  1

  9
$DIMBLK2
  1

  9
$DIMSTYLE
  2
STANDARD
  9
$DIMCLRD
 70
     0
  9
$DIMCLRE
 70
     0
  9
$DIMCLRT
 70
     0
  9
$DIMTFAC
 40
1.0
  9
$DIMGAP
 40
0.09
  9
$LUNITS
 70
     2
  9
$LUPREC
 70
     4
  9
$SKETCHINC
 40
0.1
  9
$FILLETRAD
 40
0.0
  9
$AUNITS
 70
     0
  9
$AUPREC
 70
     0
  9
$MENU
  1
.
  9
$ELEVATION
 40
0.0
  9
$PELEVATION
 40
0.0
  9
$THICKNESS
 40
0.0
  9
$LIMCHECK
 70
     0
  9
$BLIPMODE
 70
     0
  9
$CHAMFERA
 40
0.0
  9
$CHAMFERB
 40
0.0
  9
$SKPOLY
 70
     0
  9
$TDCREATE
 40
2458060.468368056230247
  9
$TDUPDATE
 40
2460679.6982754631899297
  9
$TDINDWG
 40
1.0547061342999999
  9
$TDUSRTIMER
 40
1.0547061342999999
  9
$USRTIMER
 70
     1
  9
$ANGBASE
 50
0.0
  9
$ANGDIR
 70
     0
  9
$PDMODE
 70
     0
  9
$PDSIZE
 40
0.3125
  9
$PLINEWID
 40
0.0
  9
$COORDS
 70
     1
  9
$SPLFRAME
 70
     0
  9
$SPLINETYPE
 70
     6
  9
$SPLINESEGS
 70
     8
  9
$ATTDIA
 70
     1
  9
$ATTREQ
 70
     1
  9
$HANDLING
 70
     1
  9
$HANDSEED
  5
3C8AD
  9
$SURFTAB1
 70
     6
  9
$SURFTAB2
 70
     6
  9
$SURFTYPE
 70
     6
  9
$SURFU
 70
     6
  9
$SURFV
 70
     6
  9
$UCSNAME
  2

  9
$UCSORG
 10
0.0
 20
0.0
 30
0.0
  9
$UCSXDIR
 10
1.0
 20
0.0
 30
0.0
  9
$UCSYDIR
 10
0.0
 20
1.0
 30
0.0
  9
$PUCSNAME
  2

  9
$PUCSORG
 10
0.0
 20
0.0
 30
0.0
  9
$PUCSXDIR
 10
1.0
 20
0.0
 30
0.0
  9
$PUCSYDIR
 10
0.0
 20
1.0
 30
0.0
  9
$USERI1
 70
     0
  9
$USERI2
 70
     0
  9
$USERI3
 70
     0
  9
$USERI4
 70
     0
  9
$USERI5
 70
     0
  9
$USERR1
 40
0.0
  9
$USERR2
 40
0.0
  9
$USERR3
 40
0.0
  9
$USERR4
 40
0.0
  9
$USERR5
 40
0.0
  9
$WORLDVIEW
 70
     1
  9
$SHADEDGE
 70
     3
  9
$SHADEDIF
 70
    70
  9
$TILEMODE
 70
     1
  9
$MAXACTVP
 70
    64
  9
$PLIMCHECK
 70
     0
  9
$PEXTMIN
 10
1.0000000000000000E+20
 20
1.0000000000000000E+20
 30
1.0000000000000000E+20
  9
$PEXTMAX
 10
-1.0000000000000000E+20
 20
-1.0000000000000000E+20
 30
-1.0000000000000000E+20
  9
$PLIMMIN
 10
0.0
 20
0.0
  9
$PLIMMAX
 10
12.0
 20
9.0
  9
$UNITMODE
 70
     0
  9
$VISRETAIN
 70
     1
  9
$PLINEGEN
 70
     0
  9
$PSLTSCALE
 70
     1
  0
ENDSEC
  0
SECTION
  2
TABLES
  0
TABLE
  2
VPORT
 70
     1
  0
VPORT
  2
*ACTIVE
 70
     0
 10
0.0
 20
0.0
 11
1.0
 21
1.0
 12
1120.4619532827430248
 22
-119.7915875930926006
 13
0.0
 23
0.0
 14
1.0
 24
1.0
 15
0.0
 25
0.0
 16
0.0
 26
0.0
 36
5.1040778033513332
 17
3792.35791015625
 27
120.1806564331053977
 37
0.0
 40
5.9550365203522801
 41
2.6101928374655641
 42
50.0
 43
0.0
 44
0.0
 50
0.0
 51
0.0
 71
     0
 72
   100
 73
     1
 74
     1
 75
     0
 76
     0
 77
     0
 78
     0
  0
ENDTAB
  0
TABLE
  2
LTYPE
 70
     2
  0
LTYPE
  2
CONTINUOUS
 70
     0
  3
Solid line
 72
    65
 73
     0
 40
0.0
  0
LTYPE
  2
PHANTOM2
 70
     0
  3
___ _ _ ___ _ _ ___ _ _ ___ _ _
 72
    65
 73
     6
 40
1.25
 49
0.625
 49
-0.125
 49
0.125
 49
-0.125
 49
0.125
 49
-0.125
  0
ENDTAB
  0
TABLE
  2
LAYER
 70
     2
  0
LAYER
  2
0
 70
     0
 62
   255
  6
CONTINUOUS
  0
LAYER
  2
DEFPOINTS
 70
     0
 62
     7
  6
CONTINUOUS
  0
ENDTAB
  0
TABLE
  2
STYLE
 70
     1
  0
STYLE
  2
STANDARD
 70
     0
 40
0.0
 41
0.8
 50
0.0
 71
     0
 42
0.2
  3
txt
  4

  0
ENDTAB
  0
TABLE
  2
VIEW
 70
     0
  0
ENDTAB
  0
TABLE
  2
UCS
 70
     0
  0
ENDTAB
  0
TABLE
  2
APPID
 70
    11
  0
APPID
  2
ACAD
 70
     0
  0
APPID
  2
ACAD_MLEADERVER
 70
     0
  0
APPID
  2
ACAD_EXEMPT_FROM_CAD_STANDARDS
 70
     0
  0
APPID
  2
ACAD_NAV_VCDISPLAY
 70
     0
  0
APPID
  2
ACAECLAYERSTANDARD
 70
     0
  0
APPID
  2
ACCMTRANSPARENCY
 70
     0
  0
APPID
  2
ACAD_DSTYLE_DIMJAG
 70
     0
  0
APPID
  2
ACAD_DSTYLE_DIMTALN
 70
     0
  0
APPID
  2
ACDBATTR
 70
     0
  0
APPID
  2
GRADIENTCOLOR1ACI
 70
     0
  0
APPID
  2
GRADIENTCOLOR2ACI
 70
     0
  0
ENDTAB
  0
TABLE
  2
DIMSTYLE
 70
     1
  0
DIMSTYLE
  2
STANDARD
 70
     0
  3

  4

  5

  6

  7

 40
1.0
 41
0.1875
 42
0.0625
 43
0.38
 44
0.125
 45
0.0
 46
0.0
 47
0.01
 48
0.01
140
0.15625
141
0.09
142
0.0
143
25.3999999999999986
144
1.0
145
0.0
146
1.0
147
0.09
 71
     1
 72
     0
 73
     1
 74
     1
 75
     0
 76
     0
 77
     0
 78
     4
170
     0
171
     2
172
     0
173
     0
174
     0
175
     0
176
     0
177
     0
178
     0
  0
ENDTAB
  0
ENDSEC
  0
SECTION
  2
BLOCKS
  0
BLOCK
  8
0
  2
$MODEL_SPACE
 70
     0
 10
0.0
 20
0.0
 30
0.0
  3
$MODEL_SPACE
  1

  0
ENDBLK
  5
21
  8
0
  0
BLOCK
 67
     1
  8
0
  2
$PAPER_SPACE
 70
     0
 10
0.0
 20
0.0
 30
0.0
  3
$PAPER_SPACE
  1

  0
ENDBLK
  5
1D
 67
     1
  8
0
  0
ENDSEC
  0
SECTION
  2
ENTITIES
  0
ATTDEF
  5
25833
  8
DEFPOINTS
 10
4912.819982583005185
 20
-2.5606498641603248
 30
0.0
 40
0.001
  1
K-37889-4
  3

  2
MODELNUMBER
 70
     0
1001
ACDBATTR
1070
     0
1070
     1
  0
ATTDEF
  5
25834
  8
DEFPOINTS
 10
4912.819982583005185
 20
-2.56231653082699
 30
0.0
 40
0.001
  1
HONESTY
  3

  2
TRADENAME
 70
     0
1001
ACDBATTR
1070
     0
1070
     1
  0
ATTDEF
  5
25835
  8
DEFPOINTS
 10
4912.819982583005185
 20
-2.5639831974936551
 30
0.0
 40
0.001
  1
BATHROOM SINK FAUCET
  3

  2
PRODUCT
 70
     0
1001
ACDBATTR
1070
     0
1070
     1
  0
LINE
  5
3C580
  8
0
 10
4913.8575295647260646
 20
-2.3939980885743171
 30
0.0
 11
4911.7825415583047288
 21
-2.3939980885743171
 31
0.0
  0
ARC
  5
3C581
  8
0
 10
4911.7823197494335545
 20
-2.4137516241263288
 30
0.0
 40
0.0197547808385677
 50
89.3566631126757187
 51
178.9842629076676985
  0
ARC
  5
3C582
  8
0
 10
5043.3934656892879502
 20
-4.3084632312719497
 30
0.0
 40
131.6445383088673111
 50
179.1751819340140059
 51
179.2407668027267107
  0
ARC
  5
3C583
  8
0
 10
4913.8574286139673859
 20
-2.4137931653232099
 30
0.0
 40
0.0197952369691662
 50
1.1140855211799181
 51
89.7694759169358463
  0
ARC
  5
3C584
  8
0
 10
4818.2976279361746492
 20
-3.8162680282250911
 30
0.0
 40
95.5898867839637632
 50
0.7505744108011007
 51
0.8408925985149611
  0
LINE
  5
3C585
  8
0
 10
4911.9568752581926674
 20
-2.3939980885743171
 30
0.0
 11
4911.9569162261313977
 21
2.1532460059256828
 31
0.0
  0
LINE
  5
3C586
  8
0
 10
4913.6828516239929741
 20
-2.3939980885743162
 30
0.0
 11
4913.6828920973930508
 21
2.1532460059256828
 31
0.0
  0
ARC
  5
3C587
  8
0
 10
4911.9764679411873658
 20
2.1533788886477692
 30
0.0
 40
0.0195521666177902
 50
89.9422262303240956
 51
180.3894032772911089
  0
ARC
  5
3C588
  8
0
 10
4912.1187083125169011
 20
2.1534083282801042
 30
0.0
 40
0.0195227936115529
 50
89.8395333829655272
 51
180.4763915029195971
  0
LINE
  5
3C589
  8
0
 10
4912.0991861937309295
 20
2.1532460059256828
 30
0.0
 11
4912.0991856991940949
 21
1.6711729375256821
 31
0.0
  0
LINE
  5
3C58A
  8
0
 10
4913.5405816563916233
 20
2.1532460059256828
 30
0.0
 11
4913.5405816563916233
 21
1.6711729681256751
 31
0.0
  0
ARC
  5
3C58B
  8
0
 10
4869.7523887388688308
 20
14.7141314905501801
 30
0.0
 40
44.3099309389732809
 50
342.4789855407713048
 51
342.8809884037449933
  0
LINE
  5
3C58C
  8
0
 10
4911.9986014069927478
 20
-2.3939980885743162
 30
0.0
 11
4911.9986013132438529
 21
1.0409076475256831
 31
0.0
  0
ARC
  5
3C58D
  8
0
 10
4917.3046288795731016
 20
1.0799737355541019
 30
0.0
 40
5.306171378110311
 50
176.8193851009021103
 51
180.4218375224587874
  0
ARC
  5
3C58E
  8
0
 10
4875.9112987214311943
 20
-10.1649546663801793
 30
0.0
 40
39.446886462428651
 50
17.0064630615578309
 51
17.460742313193041
  0
LINE
  5
3C58F
  8
0
 10
4913.6411659485929704
 20
-2.393998088976486
 30
0.0
 11
4913.6411659485929704
 21
1.0409076475256831
 31
0.0
  0
ARC
  5
3C590
  8
0
 10
4908.3359776674687964
 20
1.0799920660936231
 30
0.0
 40
5.3053322506654936
 50
359.5778977866951891
 51
3.1600905107086579
  0
ARC
  5
3C592
  8
0
 10
4912.8197547304789623
 20
-2.7694554478074171
 30
0.0
 40
4.2551510393868943
 50
89.9982637212751087
 51
90.7296336351829638
  0
ARC
  5
3C593
  8
0
 10
4912.8136529782350408
 20
-2.290330396605071
 30
0.0
 40
3.775987136249253
 50
90.7296336351829638
 51
91.7672361400623799
  0
ARC
  5
3C594
  8
0
 10
4912.7722032122555902
 20
-0.9469086402898136
 30
0.0
 40
2.4319260891085901
 50
91.7672361400623799
 51
93.6844154298719474
  0
ARC
  5
3C595
  8
0
 10
4912.6660854780639056
 20
0.701036708517849
 30
0.0
 40
0.7805676040523901
 50
93.6844154298719474
 51
97.919227218260815
  0
ARC
  5
3C596
  8
0
 10
4912.5704757835710552
 20
1.388364338774142
 30
0.0
 40
0.0866220118084833
 50
97.919227218260815
 51
109.993352957961406
  0
ARC
  5
3C597
  8
0
 10
4912.542455182941012
 20
1.465378104589659
 30
0.0
 40
0.0046691339776583
 50
109.9933529579610934
 51
147.7547220028330912
  0
ARC
  5
3C598
  8
0
 10
4912.5397748659761419
 20
1.4673268241348809
 30
0.0
 40
0.0013798147128865
 50
156.8494227154120892
 51
224.6713663383744972
  0
ARC
  5
3C599
  8
0
 10
4912.5449734671228725
 20
1.472897657725682
 30
0.0
 40
0.0089985544900843
 50
226.6257304768226106
 51
251.3446029257549981
  0
ARC
  5
3C59A
  8
0
 10
4912.5622769860965491
 20
1.5199592267248221
 30
0.0
 40
0.0591376566580973
 50
250.045702715324893
 51
259.0852952212708828
  0
ARC
  5
3C59B
  8
0
 10
4912.6324761611003851
 20
1.9218383778099699
 30
0.0
 40
0.467093873980729
 50
259.9642826952796213
 51
266.0604950977732983
  0
ARC
  5
3C59C
  8
0
 10
4912.7796325027029525
 20
3.9451977356228189
 30
0.0
 40
2.4957946160409672
 50
265.8814896699482233
 51
269.2209564490104867
  0
ARC
  5
3C59D
  8
0
 10
4912.8194511689016508
 20
5.6406732612097041
 30
0.0
 40
4.1916883279976958
 50
268.991830488152516
 51
270.0059119219087052
  0
LINE
  5
3C59E
  8
0
 10
4912.8159466698916731
 20
1.4505272216256819
 30
0.0
 11
4912.8159466699471523
 21
1.454250185900569
 31
0.0
  0
LINE
  5
3C59F
  8
0
 10
4912.8159466699471523
 20
1.454250185900569
 30
0.0
 11
4912.7755617645316306
 21
1.4545706296690859
 31
0.0
  0
LINE
  5
3C5A0
  8
0
 10
4912.7755617645316306
 20
1.4545706296690859
 30
0.0
 11
4912.7607778075353053
 21
1.4509729059603571
 31
0.0
  0
LINE
  5
3C5A1
  8
0
 10
4912.7607778075353053
 20
1.4509729059603571
 30
0.0
 11
4912.8159466699326003
 21
1.4505272216509519
 31
0.0
  0
LINE
  5
3C5A2
  8
0
 10
4912.7603503339387316
 20
1.454836403363831
 30
0.0
 11
4912.7455663769924286
 21
1.4512386796428649
 31
0.0
  0
LINE
  5
3C5A3
  8
0
 10
4912.7455663769924286
 20
1.4512386796428649
 30
0.0
 11
4912.6943712463917109
 21
1.452651384525683
 31
0.0
  0
LINE
  5
3C5A4
  8
0
 10
4912.6943712463917109
 20
1.452651384525683
 30
0.0
 11
4912.7229188267865538
 21
1.455875566067838
 31
0.0
  0
LINE
  5
3C5A5
  8
0
 10
4912.7229188267865538
 20
1.455875566067838
 30
0.0
 11
4912.7603503339387316
 21
1.454836403363831
 31
0.0
  0
LINE
  5
3C5A6
  8
0
 10
4912.8159466698916731
 20
1.4583588205256821
 30
0.0
 11
4912.8159466698916731
 21
1.4546353387256821
 31
0.0
  0
LINE
  5
3C5A7
  8
0
 10
4912.8159466698916731
 20
1.4546353387256821
 30
0.0
 11
4912.7258721675925699
 21
1.4562091183256829
 31
0.0
  0
LINE
  5
3C5A8
  8
0
 10
4912.7258721675925699
 20
1.4562091183256829
 30
0.0
 11
4912.7544237803413125
 21
1.4594356144853851
 31
0.0
  0
ARC
  5
3C5A9
  8
0
 10
4912.8162064759117129
 20
3.2313040639626869
 30
0.0
 40
1.7729452624728901
 50
268.0029814725530741
 51
269.9916039210431222
  0
ARC
  5
3C5AA
  8
0
 10
4912.7641214869927353
 20
3.459141982916361
 30
0.0
 40
2.0076945105906661
 50
266.5468126381834963
 51
267.8143267785819717
  0
LINE
  5
3C5AB
  8
0
 10
4912.6431920063932921
 20
1.4550927549256829
 30
0.0
 11
4912.683582528493389
 21
1.4577264714256819
 31
0.0
  0
LINE
  5
3C5AC
  8
0
 10
4912.683582528493389
 20
1.4577264714256819
 30
0.0
 11
4912.7160997290284286
 21
1.45613228388932
 31
0.0
  0
LINE
  5
3C5AD
  8
0
 10
4912.7160997290284286
 20
1.45613228388932
 30
0.0
 11
4912.6875521487090737
 21
1.4529081021609951
 31
0.0
  0
LINE
  5
3C5AE
  8
0
 10
4912.6724469885930375
 20
1.4584525788256819
 30
0.0
 11
4912.6320564665929851
 21
1.4558188622256829
 31
0.0
  0
LINE
  5
3C5AF
  8
0
 10
4912.6320564665929851
 20
1.4558188622256829
 30
0.0
 11
4912.5985527616930995
 21
1.458711423025683
 31
0.0
  0
LINE
  5
3C5B0
  8
0
 10
4912.5985527616930995
 20
1.458711423025683
 30
0.0
 11
4912.6479986213926168
 21
1.4605729051256819
 31
0.0
  0
LINE
  5
3C5B1
  8
0
 10
4912.6479986213926168
 20
1.4605729051256819
 30
0.0
 11
4912.6724469885839426
 21
1.4584525788251199
 31
0.0
  0
LINE
  5
3C5B2
  8
0
 10
4912.6440616133168078
 20
1.461017553319053
 30
0.0
 11
4912.5946157537928229
 21
1.459156071225683
 31
0.0
  0
LINE
  5
3C5B3
  8
0
 10
4912.5946157537928229
 20
1.459156071225683
 30
0.0
 11
4912.5729505961917312
 21
1.4624943163256829
 31
0.0
  0
LINE
  5
3C5B4
  8
0
 10
4912.5729505961917312
 20
1.4624943163256829
 30
0.0
 11
4912.5946157537928229
 21
1.4628728494256831
 31
0.0
  0
LINE
  5
3C5B5
  8
0
 10
4912.5946157537928229
 20
1.4628728494256831
 30
0.0
 11
4912.6281250752927008
 21
1.463458323425683
 31
0.0
  0
LINE
  5
3C5B6
  8
0
 10
4912.6281250752927008
 20
1.463458323425683
 30
0.0
 11
4912.6440616134941592
 21
1.4610175533256831
 31
0.0
  0
LINE
  5
3C5B7
  8
0
 10
4912.5620397172915546
 20
1.467083554825682
 30
0.0
 11
4912.6191348779930195
 21
1.467083554825682
 31
0.0
  0
LINE
  5
3C5B8
  8
0
 10
4912.568874705692906
 20
1.463486197425683
 30
0.0
 11
4912.6240491847929661
 21
1.4644502045256831
 31
0.0
  0
LINE
  5
3C5B9
  8
0
 10
4912.568874705692906
 20
1.4711943478256819
 30
0.0
 11
4912.6240491847929661
 21
1.470230340625684
 31
0.0
  0
ARC
  5
3C5BA
  8
0
 10
4912.6248001506583023
 20
1.462926735861094
 30
0.0
 40
0.0073421108877301
 50
95.870594020257073
 51
140.4990112934893034
  0
ARC
  5
3C5BB
  8
0
 10
4912.6252331917421543
 20
1.4725619418649061
 30
0.0
 40
0.008197692061886
 50
221.9347664726288087
 51
261.6956258830126103
  0
ARC
  5
3C5BC
  8
0
 10
4912.5702888957803225
 20
1.4744650888158739
 30
0.0
 40
0.0110695975428184
 50
221.8228317548276038
 51
262.660151580888396
  0
ARC
  5
3C5BD
  8
0
 10
4912.570702587330743
 20
1.459429441639984
 30
0.0
 40
0.0119060559734999
 50
98.8312825120764415
 51
136.685735465020997
  0
LINE
  5
3C5BE
  8
0
 10
4912.5620397172915546
 20
1.4675969903256829
 30
0.0
 11
4912.6191348778911561
 21
1.4675969903256829
 31
0.0
  0
ARC
  5
3C5BF
  8
0
 10
4912.8199452030421526
 20
-3.699404633607525
 30
0.0
 40
5.3415861610643027
 50
90.0006599436310779
 51
90.4091956157893577
  0
ARC
  5
3C5C0
  8
0
 10
4912.8015919649023999
 20
-2.8913113544031499
 30
0.0
 40
4.5333998750017539
 50
90.2501821165852363
 51
93.3526400291635952
  0
ARC
  5
3C5C1
  8
0
 10
4912.5925761673952366
 20
0.4591874692001947
 30
0.0
 40
1.176480632846407
 50
92.7333067960727249
 51
100.2411194210488929
  0
ARC
  5
3C5C2
  8
0
 10
4912.5585623017796024
 20
2.6183252426473609
 30
0.0
 40
1.043869575479722
 50
261.5759117393217821
 51
264.4952610237544945
  0
ARC
  5
3C5C3
  8
0
 10
4912.4794542100580657
 20
2.0702457221382211
 30
0.0
 40
0.4901183672285369
 50
254.9280182820114078
 51
261.3376088752494866
  0
ARC
  5
3C5C4
  8
0
 10
4912.8195356873766286
 20
-2.6602776687138201
 30
0.0
 40
4.295705690534664
 50
89.9953585316354747
 51
91.0531403055850745
  0
ARC
  5
3C5C5
  8
0
 10
4912.7953224310476799
 20
-1.6192557027316139
 30
0.0
 40
3.2544185001793822
 50
90.9637840327902438
 51
93.4958081570623847
  0
ARC
  5
3C5C6
  8
0
 10
4912.708519657375291
 20
-0.140869041830439
 30
0.0
 40
1.773493347315831
 50
93.6090152499528045
 51
95.1471533850809834
  0
ARC
  5
3C5C7
  8
0
 10
4912.6044798266257203
 20
0.9357844746182185
 30
0.0
 40
0.6918832424736319
 50
94.5650281509698658
 51
99.9462557779098404
  0
ARC
  5
3C5C8
  8
0
 10
4912.50009432340903
 20
1.5127082211850611
 30
0.0
 40
0.1056481292726849
 50
98.2279957456278368
 51
114.523855797751196
  0
ARC
  5
3C5C9
  8
0
 10
4912.4592082410699732
 20
1.602864730596028
 30
0.0
 40
0.0066578611203041
 50
116.4498476040074024
 51
157.0601551408242926
  0
ARC
  5
3C5CA
  8
0
 10
4912.4540317741239051
 20
1.604896184528718
 30
0.0
 40
0.0011087508905083
 50
149.4513981839359076
 51
199.5162578358969938
  0
ARC
  5
3C5CB
  8
0
 10
4913.0691357779351165
 20
1.729381436374148
 30
0.0
 40
0.6286720854563413
 50
191.4552311843604002
 51
196.262381814090304
  0
ARC
  5
3C5CC
  8
0
 10
4912.5157023606643634
 20
1.6585312251648241
 30
0.0
 40
0.1185731861032788
 50
246.9937885367376111
 51
262.0132529126967142
  0
ARC
  5
3C5CD
  8
0
 10
4912.4720863290713169
 20
1.555726100312061
 30
0.0
 40
0.0068985078975988
 50
200.3180288100597863
 51
246.7238544806608047
  0
ARC
  5
3C5CE
  8
0
 10
4912.4695762140308943
 20
1.553385568153056
 30
0.0
 40
0.0039595455831429
 50
133.6147367957539984
 51
180.7936040892190022
  0
ARC
  5
3C5CF
  8
0
 10
4912.4959403562588705
 20
1.509705009638572
 30
0.0
 40
0.0548925498748983
 50
99.6638538665267646
 51
122.0084191121941046
  0
ARC
  5
3C5D0
  8
0
 10
4912.6633936548259953
 20
0.5526408148257543
 30
0.0
 40
1.026495059566751
 50
92.3709868026122649
 51
99.9104031370685419
  0
ARC
  5
3C5D1
  8
0
 10
4912.8140595312961523
 20
-2.0619109356908671
 30
0.0
 40
3.6452878032950271
 50
89.9084573909361637
 51
93.0370205444761069
  0
ARC
  5
3C5D2
  8
0
 10
4912.8171234864594226
 20
-1.9366876791877159
 30
0.0
 40
3.5174255276011288
 50
89.9550388973279951
 51
92.2953176550829824
  0
ARC
  5
3C5D3
  8
0
 10
4912.7120137821575554
 20
0.2989926361137418
 30
0.0
 40
1.2794230292655
 50
91.6017955166650495
 51
98.4528786061716943
  0
ARC
  5
3C5D4
  8
0
 10
4912.5371913630324343
 20
1.474998171627889
 30
0.0
 40
0.090494160656716
 50
98.4178891834528713
 51
113.5412683589717062
  0
ARC
  5
3C5D5
  8
0
 10
4912.5036664609033323
 20
1.551302730353054
 30
0.0
 40
0.0071547168088205
 50
111.475148565085604
 51
156.4763824334922901
  0
ARC
  5
3C5D6
  8
0
 10
4912.4993322528407589
 20
1.553719901131938
 30
0.0
 40
0.0022686952863649
 50
168.8563332495799045
 51
187.8186357048703883
  0
ARC
  5
3C5D7
  8
0
 10
4912.6525330455006042
 20
1.5747565657917639
 30
0.0
 40
0.1569070609384729
 50
187.818635704870303
 51
197.4011393261351941
  0
ARC
  5
3C5D8
  8
0
 10
4912.6524933577984484
 20
1.5747441275530869
 30
0.0
 40
0.1568654697916892
 50
197.4011393261351941
 51
223.3470442323597069
  0
LINE
  5
3C5D9
  8
0
 10
4912.6281250752927008
 20
1.4712222217256821
 30
0.0
 11
4912.5729505961917312
 21
1.472186228925682
 31
0.0
  0
LINE
  5
3C5DA
  8
0
 10
4912.5729505961917312
 20
1.472186228925682
 30
0.0
 11
4912.5946157537928229
 21
1.4755244740256821
 31
0.0
  0
LINE
  5
3C5DB
  8
0
 10
4912.5946157537928229
 20
1.4755244740256821
 30
0.0
 11
4912.6440616133168078
 21
1.473662991832313
 31
0.0
  0
LINE
  5
3C5DC
  8
0
 10
4912.6440616133168078
 20
1.473662991832313
 30
0.0
 11
4912.6281250752927008
 21
1.4712222217256821
 31
0.0
  0
LINE
  5
3C5DD
  8
0
 10
4912.6191348779930195
 20
1.4703162032256829
 30
0.0
 11
4912.6191348779930195
 21
1.467596990325684
 31
0.0
  0
LINE
  5
3C5DE
  8
0
 10
4912.6281250752927008
 20
1.4742629527256821
 30
0.0
 11
4912.6281250752927008
 21
1.4712222217256821
 31
0.0
  0
LINE
  5
3C5DF
  8
0
 10
4912.6479986213926168
 20
1.474107640025683
 30
0.0
 11
4912.6724469885839426
 21
1.476227966426245
 31
0.0
  0
LINE
  5
3C5E0
  8
0
 10
4912.6724469885839426
 20
1.476227966426245
 30
0.0
 11
4912.6320564665929851
 21
1.478861682925682
 31
0.0
  0
LINE
  5
3C5E1
  8
0
 10
4912.6320564665929851
 20
1.478861682925682
 30
0.0
 11
4912.5985527616930995
 21
1.475969122125683
 31
0.0
  0
LINE
  5
3C5E2
  8
0
 10
4912.5985527616930995
 20
1.4759691221256821
 30
0.0
 11
4912.6479986213926168
 21
1.474107640025683
 31
0.0
  0
LINE
  5
3C5E3
  8
0
 10
4912.6479986213926168
 20
1.474107640025683
 30
0.0
 11
4912.6479986213926168
 21
1.4778221539950509
 31
0.0
  0
LINE
  5
3C5E4
  8
0
 10
4912.8159466699444238
 20
1.4841533235317039
 30
0.0
 11
4912.8159466699189579
 21
1.4804303592967401
 31
0.0
  0
LINE
  5
3C5E5
  8
0
 10
4912.8159466699171389
 20
1.480045206425715
 30
0.0
 11
4912.8159466698916731
 21
1.4763220462174991
 31
0.0
  0
LINE
  5
3C5E6
  8
0
 10
4912.8159466699462428
 20
1.4804303592967709
 30
0.0
 11
4912.7755617644843369
 21
1.48010991552765
 31
0.0
  0
LINE
  5
3C5E7
  8
0
 10
4912.7755617644843369
 20
1.48010991552765
 30
0.0
 11
4912.7607778073916052
 21
1.4837076392256821
 31
0.0
  0
LINE
  5
3C5E8
  8
0
 10
4912.7607778073916052
 20
1.4837076392256821
 30
0.0
 11
4912.7755617644934318
 21
1.483903846025683
 31
0.0
  0
LINE
  5
3C5E9
  8
0
 10
4912.7755617644934318
 20
1.483903846025683
 30
0.0
 11
4912.8159466699444238
 21
1.4841533235317039
 31
0.0
  0
LINE
  5
3C5EA
  8
0
 10
4912.8159466699171389
 20
1.480045206425715
 30
0.0
 11
4912.7258721675925699
 21
1.478471426925684
 31
0.0
  0
LINE
  5
3C5EB
  8
0
 10
4912.7258721675925699
 20
1.478471426925684
 30
0.0
 11
4912.7544237160918783
 21
1.4752467971256831
 31
0.0
  0
ARC
  5
3C5EC
  8
0
 10
4912.8178250120226949
 20
-0.3917810508579627
 30
0.0
 40
1.8681040413938661
 50
90.0576097970592002
 51
91.9449261520173451
  0
LINE
  5
3C5ED
  8
0
 10
4912.7603503342015756
 20
1.479844141792785
 30
0.0
 11
4912.7455663770579122
 21
1.483441865509765
 31
0.0
  0
LINE
  5
3C5EE
  8
0
 10
4912.7455663770579122
 20
1.483441865509765
 30
0.0
 11
4912.6943712463325937
 21
1.482029160710497
 31
0.0
  0
LINE
  5
3C5EF
  8
0
 10
4912.6943712463325937
 20
1.482029160710497
 30
0.0
 11
4912.7229188263263495
 21
1.4788049790671061
 31
0.0
  0
LINE
  5
3C5F0
  8
0
 10
4912.7229188263263495
 20
1.4788049790671061
 30
0.0
 11
4912.7603503341915712
 21
1.479844141825682
 31
0.0
  0
LINE
  5
3C5F1
  8
0
 10
4912.6431920064587757
 20
1.479587790321405
 30
0.0
 11
4912.6875521487090737
 21
1.4817724429903709
 31
0.0
  0
LINE
  5
3C5F2
  8
0
 10
4912.6875521487090737
 20
1.4817724429903709
 30
0.0
 11
4912.7160997288356157
 21
1.4785482613546801
 31
0.0
  0
LINE
  5
3C5F3
  8
0
 10
4912.7160997288356157
 20
1.4785482613546801
 30
0.0
 11
4912.683582528493389
 21
1.476954073725683
 31
0.0
  0
LINE
  5
3C5F4
  8
0
 10
4912.683582528493389
 20
1.476954073725683
 30
0.0
 11
4912.6431920064587757
 21
1.479587790321405
 31
0.0
  0
ARC
  5
3C5F5
  8
0
 10
4912.7552585089861168
 20
0.4152012545912452
 30
0.0
 40
1.063629840943997
 50
91.9506971125501451
 51
95.5108316002069131
  0
LINE
  5
3C5F6
  8
0
 10
4912.7190530699917872
 20
1.4782147092256821
 30
0.0
 11
4912.7476046183146536
 21
1.474990079434463
 31
0.0
  0
ARC
  5
3C5F7
  8
0
 10
4912.7739705703361324
 20
0.7238255062779589
 30
0.0
 40
0.7516271545063892
 50
92.0102623318809805
 51
95.451266237677828
  0
LINE
  5
3C5F8
  8
0
 10
4912.7025666902927696
 20
1.472053322725682
 30
0.0
 11
4912.653113957892856
 21
1.473915063525683
 31
0.0
  0
LINE
  5
3C5F9
  8
0
 10
4912.6491769499925795
 20
1.473470415425683
 30
0.0
 11
4912.6986296824761666
 21
1.4716086745263111
 31
0.0
  0
ARC
  5
3C5FA
  8
0
 10
4912.6739970122107479
 20
1.2565121088304101
 30
0.0
 40
0.2183734010570201
 50
96.5262736609523273
 51
99.8341674670533337
  0
ARC
  5
3C5FB
  8
0
 10
4912.6496919687488116
 20
1.3967247369742879
 30
0.0
 40
0.0760697952394499
 50
99.8341674670533337
 51
104.9060244064253027
  0
ARC
  5
3C5FC
  8
0
 10
4912.6350617763891933
 20
1.4516857849311831
 30
0.0
 40
0.0191948506589703
 50
104.9060244064254022
 51
118.645275274283307
  0
ARC
  5
3C5FD
  8
0
 10
4912.6267249448437724
 20
1.4669479079401531
 30
0.0
 40
0.0018041876773045
 50
118.6452752742830938
 51
158.9142760711040978
  0
ARC
  5
3C5FE
  8
0
 10
4912.7160846162560119
 20
1.3224698485558639
 30
0.0
 40
0.1501567984619553
 50
96.6754233203920421
 51
99.8494874721261141
  0
ARC
  5
3C5FF
  8
0
 10
4912.7001262928579308
 20
1.4143852892682509
 30
0.0
 40
0.0568663041605348
 50
99.8494874721261141
 51
104.0092228555052003
  0
ARC
  5
3C600
  8
0
 10
4912.6910617235671452
 20
1.4507163760447379
 30
0.0
 40
0.0194214876594258
 50
104.0092228555051008
 51
114.0351437166510067
  0
ARC
  5
3C601
  8
0
 10
4912.6841067551431479
 20
1.466311739787274
 30
0.0
 40
0.0023455702304091
 50
114.0351437166492019
 51
146.7736481668542012
  0
LINE
  5
3C602
  8
0
 10
4912.6821446566036684
 20
1.46759699035018
 30
0.0
 11
4912.6250415598005929
 21
1.46759699035018
 31
0.0
  0
LINE
  5
3C603
  8
0
 10
4912.682144656591845
 20
1.467083554825682
 30
0.0
 11
4912.6250415597924075
 21
1.467083554825682
 31
0.0
  0
ARC
  5
3C604
  8
0
 10
4912.6265853182449064
 20
1.4676664781506219
 30
0.0
 40
0.0016501484061615
 50
200.6865407624021884
 51
234.7860385035957052
  0
ARC
  5
3C605
  8
0
 10
4912.6341410187451402
 20
1.480220353625938
 30
0.0
 40
0.0162984671761501
 50
238.535853865366704
 51
257.8487424264624224
  0
ARC
  5
3C606
  8
0
 10
4912.6522765429717765
 20
1.549900450752685
 30
0.0
 40
0.0882879233506601
 50
255.8612025168476123
 51
260.9605420836618919
  0
ARC
  5
3C607
  8
0
 10
4912.6709401978569076
 20
1.6599163736260101
 30
0.0
 40
0.1998731124118115
 50
260.631812221390021
 51
262.4284952800362021
  0
ARC
  5
3C608
  8
0
 10
4912.6838274707079108
 20
1.7548390422296769
 30
0.0
 40
0.2956663606907355
 50
262.3766427847950808
 51
263.2697736641399047
  0
LINE
  5
3C609
  8
0
 10
4912.6491769499925795
 20
1.4612101297256821
 30
0.0
 11
4912.698629682491628
 21
1.4630718706256829
 31
0.0
  0
ARC
  5
3C60A
  8
0
 10
4912.6847791439431603
 20
1.4690878161320411
 30
0.0
 40
0.0033102246119518
 50
217.2630968040845119
 51
253.2955129854518077
  0
ARC
  5
3C60B
  8
0
 10
4912.7134312104681158
 20
1.564562961653915
 30
0.0
 40
0.1029919397285807
 50
253.2955129854518077
 51
256.0293961041668922
  0
ARC
  5
3C60C
  8
0
 10
4912.7136133642998175
 20
1.5941547440800261
 30
0.0
 40
0.1319364636263486
 50
259.0565237557601108
 51
263.4789979278485816
  0
LINE
  5
3C60D
  8
0
 10
4912.683582528493389
 20
1.481576946741713
 30
0.0
 11
4912.683582528493389
 21
1.476954073770409
 31
0.0
  0
LINE
  5
3C60E
  8
0
 10
4912.7229188266928759
 20
1.4828169173430319
 30
0.0
 11
4912.7229188263263495
 21
1.4788049790671061
 31
0.0
  0
LINE
  5
3C60F
  8
0
 10
4912.653113957892856
 20
1.4607654816256821
 30
0.0
 11
4912.7025666902927696
 21
1.4626272224256831
 31
0.0
  0
LINE
  5
3C610
  8
0
 10
4912.7025666902927696
 20
1.4626272224256831
 30
0.0
 11
4912.7476046183928702
 21
1.4596904657256831
 31
0.0
  0
LINE
  5
3C611
  8
0
 10
4912.7476046183928702
 20
1.4596904657256831
 30
0.0
 11
4912.7190530699917872
 21
1.456465836025683
 31
0.0
  0
LINE
  5
3C612
  8
0
 10
4912.7190530699917872
 20
1.456465836025683
 30
0.0
 11
4912.653113957892856
 21
1.4607654816256821
 31
0.0
  0
LINE
  5
3C613
  8
0
 10
4912.7190530699917872
 20
1.4615522065871389
 30
0.0
 11
4912.7190530699917872
 21
1.456465836025683
 31
0.0
  0
ARC
  5
3C614
  8
0
 10
4912.6922986874351409
 20
1.46348069349553
 30
0.0
 40
0.0059137473281842
 50
95.8257591582072337
 51
135.8886068641859026
  0
ARC
  5
3C615
  8
0
 10
4912.7090835345288724
 20
1.399386128252321
 30
0.0
 40
0.0721049952605897
 50
97.7707957426707708
 51
103.9519629352056995
  0
ARC
  5
3C616
  8
0
 10
4912.7325863168416618
 20
1.236844819644934
 30
0.0
 40
0.2363351218459534
 50
95.3231742619364582
 51
98.0883022036633747
  0
ARC
  5
3C617
  8
0
 10
4912.7625681079443893
 20
0.9181724469984597
 30
0.0
 40
0.5564147269572577
 50
93.3862848450731491
 51
95.3528505081338977
  0
ARC
  5
3C618
  8
0
 10
4912.7908913064393346
 20
0.4569219269513956
 30
0.0
 40
1.0185333995187249
 50
92.2694358922229583
 51
93.4441620181717099
  0
LINE
  5
3C619
  8
0
 10
4912.7505586342931565
 20
1.4746564510256821
 30
0.0
 11
4912.782081598989862
 21
1.4710962276259369
 31
0.0
  0
ARC
  5
3C61A
  8
0
 10
4912.8029731284814261
 20
0.974470110458129
 30
0.0
 40
0.4970653440516915
 50
92.4088365413227706
 51
93.6598142549369754
  0
ARC
  5
3C61B
  8
0
 10
4912.7894523483028024
 20
1.185855087614097
 30
0.0
 40
0.2852483946264595
 50
93.6598142549369754
 51
95.4033039187397662
  0
ARC
  5
3C61C
  8
0
 10
4912.77336318898233
 20
1.3559559212251191
 30
0.0
 40
0.1143883506054837
 50
95.4033039187397662
 51
98.9317591685685187
  0
ARC
  5
3C61D
  8
0
 10
4912.7591440538635652
 20
1.4464292889538179
 30
0.0
 40
0.0228044324119043
 50
98.9317591685684761
 51
109.0433529569349957
  0
ARC
  5
3C61E
  8
0
 10
4912.7535659528557517
 20
1.464423052259082
 30
0.0
 40
0.0040201523193046
 50
117.6014176155608055
 51
127.8605439543296995
  0
LINE
  5
3C61F
  8
0
 10
4912.7510986178931489
 20
1.4675969903256809
 30
0.0
 11
4912.6880526883924176
 21
1.4675969903256809
 31
0.0
  0
LINE
  5
3C620
  8
0
 10
4912.6880526883924176
 20
1.467083554825682
 30
0.0
 11
4912.7510986178931489
 21
1.467083554825682
 31
0.0
  0
ARC
  5
3C621
  8
0
 10
4912.7523301832652578
 20
1.468347795438488
 30
0.0
 40
0.0017649525751826
 50
225.7500769089874098
 51
247.3341219956039936
  0
ARC
  5
3C622
  8
0
 10
4912.7557223859494115
 20
1.476453478607743
 30
0.0
 40
0.0105518252450469
 50
247.2980834027711978
 51
257.9424258302234989
  0
ARC
  5
3C623
  8
0
 10
4912.7620907701839315
 20
1.503566791016743
 30
0.0
 40
0.0384014320175182
 50
257.1007987042614786
 51
262.4054013643425947
  0
ARC
  5
3C624
  8
0
 10
4912.7800174771882666
 20
1.6380178948197861
 30
0.0
 40
0.1740423776712525
 50
262.4054013643425947
 51
265.1642520600132116
  0
ARC
  5
3C625
  8
0
 10
4912.7917487256900131
 20
1.7766839908896079
 30
0.0
 40
0.3132038248851936
 50
265.1642520600132116
 51
267.1588343470804148
  0
ARC
  5
3C626
  8
0
 10
4912.8627957382059321
 20
3.2082643293414441
 30
0.0
 40
1.7465460531856389
 50
267.1588343470804148
 51
267.3512137201017254
  0
LINE
  5
3C627
  8
0
 10
4912.782081598989862
 20
1.4635843175254279
 30
0.0
 11
4912.7505586342931565
 21
1.460024094125683
 31
0.0
  0
ARC
  5
3C628
  8
0
 10
4912.7981370303814401
 20
2.641866995398606
 30
0.0
 40
1.1828002143487779
 50
267.3588565598802802
 51
267.6946428078239251
  0
ARC
  5
3C629
  8
0
 10
4912.789743272322994
 20
2.4599055711521931
 30
0.0
 40
1.000645293778085
 50
266.6987441941104748
 51
267.3588565598802802
  0
ARC
  5
3C62A
  8
0
 10
4912.7721618547293474
 20
2.1551045766775321
 30
0.0
 40
0.6953376579787571
 50
265.4918876357202748
 51
266.6987441941104748
  0
ARC
  5
3C62B
  8
0
 10
4912.7460292122268584
 20
1.8236578565032631
 30
0.0
 40
0.3628623305958208
 50
263.2042065570880141
 51
265.4918876357202748
  0
ARC
  5
3C62C
  8
0
 10
4912.7171616249443105
 20
1.5814157279647241
 30
0.0
 40
0.1189062147995697
 50
258.3494433008734745
 51
263.2042065570880141
  0
ARC
  5
3C62D
  8
0
 10
4912.6973572538972803
 20
1.4853667089422991
 30
0.0
 40
0.0208367130786001
 50
246.4214307355296967
 51
258.3494433008735882
  0
ARC
  5
3C62E
  8
0
 10
4912.6899912932549341
 20
1.4684894868335281
 30
0.0
 40
0.0024220992550402
 50
222.9596193011805951
 51
246.4214307355308051
  0
ARC
  5
3C62F
  8
0
 10
4912.6889258886321841
 20
1.4674973838457841
 30
0.0
 40
0.0009662986678303
 50
205.3573140786982094
 51
222.9596193011805099
  0
LINE
  5
3C630
  8
0
 10
4912.7455663769924286
 20
1.455246831311968
 30
0.0
 11
4912.7455663769924286
 21
1.451238679725682
 31
0.0
  0
ARC
  5
3C631
  8
0
 10
4912.8196901569535839
 20
-0.4689159855216705
 30
0.0
 40
1.9448563113753961
 50
89.9942988449673891
 51
90.9071003412569638
  0
ARC
  5
3C632
  8
0
 10
4912.8180993257183218
 20
-0.3684416541994362
 30
0.0
 40
1.8443693868594631
 50
90.9071003412569638
 51
91.5452625738106889
  0
ARC
  5
3C633
  8
0
 10
4912.8026709336181739
 20
0.2034788901728768
 30
0.0
 40
1.2722407786270771
 50
91.5452625738106889
 51
92.0402252835075814
  0
LINE
  5
3C634
  8
0
 10
4912.7573777318921202
 20
1.4749131687256829
 30
0.0
 11
4912.7889006966906891
 21
1.4713529453259011
 31
0.0
  0
ARC
  5
3C635
  8
0
 10
4912.8192509283926483
 20
0.5122676034202596
 30
0.0
 40
0.9595654379054249
 50
90.2429009126983033
 51
91.8125177986378134
  0
ARC
  5
3C636
  8
0
 10
4912.8192509283926483
 20
0.5122676035182399
 30
0.0
 40
0.9595654378074437
 50
89.9622184556353233
 51
90.2429009126983033
  0
ARC
  5
3C637
  8
0
 10
4912.8196373094051523
 20
0.571724084115354
 30
0.0
 40
0.8997237057347541
 50
89.9843108830040705
 51
91.7692629003501139
  0
LINE
  5
3C638
  8
0
 10
4912.7918587397343799
 20
1.471018862109825
 30
0.0
 11
4912.8096550312930049
 21
1.4690089377256821
 31
0.0
  0
LINE
  5
3C639
  8
0
 10
4912.8096550312930049
 20
1.4690089377256821
 30
0.0
 11
4912.819883677641883
 21
1.4691372965996219
 31
0.0
  0
LINE
  5
3C63A
  8
0
 10
4912.8028359335921778
 20
1.468752220025739
 30
0.0
 11
4912.7850396418916716
 21
1.4707621444256831
 31
0.0
  0
ARC
  5
3C63B
  8
0
 10
4912.8060859223087391
 20
0.9817977814304761
 30
0.0
 40
0.4894170963489615
 50
92.4646360235331173
 51
93.185949759454715
  0
ARC
  5
3C63C
  8
0
 10
4912.7988738346002719
 20
1.110596401037877
 30
0.0
 40
0.3604167237101268
 50
93.1791547969598781
 51
94.1479538327034504
  0
ARC
  5
3C63D
  8
0
 10
4912.7895369306870634
 20
1.239341869409162
 30
0.0
 40
0.2313331329604459
 50
94.1479538327034504
 51
95.1818795672838149
  0
ARC
  5
3C63E
  8
0
 10
4912.7802950863160731
 20
1.341249708311145
 30
0.0
 40
0.1290070887827578
 50
95.1818795672838149
 51
98.4424602731232739
  0
ARC
  5
3C63F
  8
0
 10
4912.7625403562296924
 20
1.4566865445722059
 30
0.0
 40
0.0122299085239138
 50
95.5630903636757836
 51
116.8601734135745005
  0
LINE
  5
3C640
  8
0
 10
4912.7570147036931303
 20
1.4675969903256829
 30
0.0
 11
4912.792607287093233
 21
1.4675969903256829
 31
0.0
  0
ARC
  5
3C641
  8
0
 10
4912.7966668782355555
 20
1.4553539571749869
 30
0.0
 40
0.0128985325529435
 50
93.0860850596606326
 51
108.3446833533748048
  0
ARC
  5
3C642
  8
0
 10
4912.8083987841328053
 20
1.3494156370162571
 30
0.0
 40
0.1194661682255867
 50
92.6688991068613461
 51
95.9704396040237526
  0
LINE
  5
3C643
  8
0
 10
4912.7889006966934176
 20
1.475696593125684
 30
0.0
 11
4912.7889006966934176
 21
1.4713529453256831
 31
0.0
  0
LINE
  5
3C644
  8
0
 10
4912.7570147036931303
 20
1.467083554825682
 30
0.0
 11
4912.792607287093233
 21
1.4670835548256831
 31
0.0
  0
ARC
  5
3C645
  8
0
 10
4912.7968146085831904
 20
1.480115414256219
 30
0.0
 40
0.0136941927229546
 50
252.1073832169666105
 51
266.443671400006906
  0
ARC
  5
3C646
  8
0
 10
4912.808391857355673
 20
1.5851579897056769
 30
0.0
 40
0.1193590432465549
 50
264.0239982693969978
 51
267.3320324800254753
  0
LINE
  5
3C647
  8
0
 10
4912.8028359335930872
 20
1.4659283251256821
 30
0.0
 11
4912.7850396418916716
 21
1.4639184008256829
 31
0.0
  0
ARC
  5
3C648
  8
0
 10
4912.8044208369719854
 20
1.9183380078753769
 30
0.0
 40
0.4548327274876776
 50
266.3755514372207926
 51
267.5577900574709815
  0
ARC
  5
3C649
  8
0
 10
4912.7929104505392388
 20
1.7366230168979231
 30
0.0
 40
0.2727535498155452
 50
264.8795122288607899
 51
266.3755514372207926
  0
ARC
  5
3C64A
  8
0
 10
4912.7797867951576336
 20
1.5901668251354211
 30
0.0
 40
0.1257105410182713
 50
261.8130607629200881
 51
264.8795122288607899
  0
ARC
  5
3C64B
  8
0
 10
4912.7664411169616869
 20
1.4974044526768471
 30
0.0
 40
0.0319930673506718
 50
256.2818042229058051
 51
261.8130607629200881
  0
ARC
  5
3C64C
  8
0
 10
4912.7597889654789469
 20
1.471195045893297
 30
0.0
 40
0.0049599281501679
 50
235.9901737610333896
 51
259.135310395087572
  0
LINE
  5
3C64D
  8
0
 10
4912.788900696705241
 20
1.4633275998249671
 30
0.0
 11
4912.7573777318921202
 21
1.459767376425682
 31
0.0
  0
ARC
  5
3C64E
  8
0
 10
4912.8093507158246211
 20
2.9437961510783728
 30
0.0
 40
1.484938582923909
 50
267.9942329096994058
 51
268.4969511375820161
  0
ARC
  5
3C64F
  8
0
 10
4912.8166411554620936
 20
3.2216418072989459
 30
0.0
 40
1.76287987023242
 50
268.4969511375820161
 51
269.2822243646999141
  0
ARC
  5
3C650
  8
0
 10
4912.8201087574771009
 20
3.4984254666430958
 30
0.0
 40
2.0396852501362082
 50
269.2822243646999141
 51
269.99367739899958
  0
ARC
  5
3C651
  8
0
 10
4912.8192509283926483
 20
2.422412941839879
 30
0.0
 40
0.959565438014199
 50
268.1874813477347175
 51
269.3397469592027278
  0
ARC
  5
3C652
  8
0
 10
4912.8192509283926483
 20
2.4224129418000091
 30
0.0
 40
0.9595654379743269
 50
269.3397469592027278
 51
270.0377815443645773
  0
LINE
  5
3C653
  8
0
 10
4912.819883677641883
 20
1.465543248551743
 30
0.0
 11
4912.8096550312802719
 21
1.465671607412417
 31
0.0
  0
LINE
  5
3C654
  8
0
 10
4912.8096550312802719
 20
1.465671607412417
 30
0.0
 11
4912.7918587397325609
 21
1.4636616830415641
 31
0.0
  0
LINE
  5
3C655
  8
0
 10
4912.7918570306856054
 20
1.4635500099155589
 30
0.0
 11
4912.819881968595837
 21
1.463121115906272
 31
0.0
  0
LINE
  5
3C656
  8
0
 10
4912.7755617644934318
 20
1.483903846025683
 30
0.0
 11
4912.7755617644934318
 21
1.4801099155256821
 31
0.0
  0
LINE
  5
3C657
  8
0
 10
4912.7025666902927696
 20
1.477485092125683
 30
0.0
 11
4912.7025666902927696
 21
1.472053322725682
 31
0.0
  0
LINE
  5
3C658
  8
0
 10
4912.7544237160918783
 20
1.4789702788822769
 30
0.0
 11
4912.7544237160918783
 21
1.4752467971256831
 31
0.0
  0
LINE
  5
3C659
  8
0
 10
4912.7510986178931489
 20
1.4745954649392961
 30
0.0
 11
4912.7510986178931489
 21
1.467596990325682
 31
0.0
  0
LINE
  5
3C65A
  8
0
 10
4912.7505586342931565
 20
1.467083554825682
 30
0.0
 11
4912.7505586342931565
 21
1.4600240941256819
 31
0.0
  0
LINE
  5
3C65B
  8
0
 10
4912.7850396418916716
 20
1.467083554825682
 30
0.0
 11
4912.7850396418916716
 21
1.463918400825682
 31
0.0
  0
LINE
  5
3C65C
  8
0
 10
4912.792607287093233
 20
1.469907449825683
 30
0.0
 11
4912.792607287093233
 21
1.4675969903256829
 31
0.0
  0
LINE
  5
3C65D
  8
0
 10
4912.8096550312930049
 20
1.471392412325683
 30
0.0
 11
4912.8096550312930049
 21
1.469008937725683
 31
0.0
  0
LINE
  5
3C65E
  8
0
 10
4912.6875521486927028
 20
1.4575318569157401
 30
0.0
 11
4912.6875521486927028
 21
1.452908102225682
 31
0.0
  0
LINE
  5
3C65F
  8
0
 10
4912.568874705692906
 20
1.467083554825682
 30
0.0
 11
4912.568874705692906
 21
1.463486197425685
 31
0.0
  0
LINE
  5
3C660
  8
0
 10
4912.5946157537928229
 20
1.462872849409995
 30
0.0
 11
4912.5946157537928229
 21
1.4591560712256839
 31
0.0
  0
LINE
  5
3C661
  8
0
 10
4912.6320564665929851
 20
1.4599727328165011
 30
0.0
 11
4912.6320564665929851
 21
1.455818862225684
 31
0.0
  0
LINE
  5
3C662
  8
0
 10
4912.682144656591845
 20
1.4722292842555009
 30
0.0
 11
4912.682144656591845
 21
1.467596990325684
 31
0.0
  0
LINE
  5
3C663
  8
0
 10
4912.6491769499925795
 20
1.467083554825682
 30
0.0
 11
4912.6491769499925795
 21
1.4612101297256821
 31
0.0
  0
ARC
  5
3C664
  8
0
 10
4912.819795083207282
 20
-2.7694554478074171
 30
0.0
 40
4.2551510393868943
 50
89.2703663648170647
 51
90.0017362787249056
  0
ARC
  5
3C665
  8
0
 10
4912.825896835450294
 20
-2.290330396605071
 30
0.0
 40
3.775987136249253
 50
88.2327638599376058
 51
89.2703663648170647
  0
ARC
  5
3C666
  8
0
 10
4912.8673466014288351
 20
-0.9469086402898136
 30
0.0
 40
2.4319260891085901
 50
86.3155845701280668
 51
88.2327638599376058
  0
ARC
  5
3C667
  8
0
 10
4912.9734643356223387
 20
0.701036708517849
 30
0.0
 40
0.7805676040523901
 50
82.0807727817391992
 51
86.3155845701280668
  0
ARC
  5
3C668
  8
0
 10
4913.0690740301151891
 20
1.388364338774142
 30
0.0
 40
0.0866220118084833
 50
70.006647042038594
 51
82.0807727817391992
  0
ARC
  5
3C669
  8
0
 10
4913.0970946307461418
 20
1.465378104589659
 30
0.0
 40
0.0046691339776583
 50
32.2452779971668235
 51
70.0066470420388356
  0
ARC
  5
3C66A
  8
0
 10
4913.0997749477101024
 20
1.4673268241348809
 30
0.0
 40
0.0013798147128865
 50
315.3286336616254175
 51
23.150577284587861
  0
ARC
  5
3C66B
  8
0
 10
4913.0945763465633718
 20
1.472897657725682
 30
0.0
 40
0.0089985544900843
 50
288.6553970742450019
 51
313.3742695231774178
  0
ARC
  5
3C66C
  8
0
 10
4913.0772728275878762
 20
1.5199592267248221
 30
0.0
 40
0.0591376566580973
 50
280.9147047787290035
 51
289.9542972846750217
  0
ARC
  5
3C66D
  8
0
 10
4913.0070736525858592
 20
1.9218383778099699
 30
0.0
 40
0.467093873980729
 50
273.9395049022267017
 51
280.0357173047203787
  0
ARC
  5
3C66E
  8
0
 10
4912.8599173109823823
 20
3.9451977356228189
 30
0.0
 40
2.4957946160409672
 50
270.7790435509895133
 51
274.1185103300518904
  0
ARC
  5
3C66F
  8
0
 10
4912.8201014953510821
 20
5.6404568479764752
 30
0.0
 40
4.1914718981104384
 50
269.997022519279426
 51
271.0081826026553813
  0
LINE
  5
3C670
  8
0
 10
4912.8236031437927522
 20
1.4505272216256819
 30
0.0
 11
4912.8236031437381826
 21
1.454250185900569
 31
0.0
  0
LINE
  5
3C671
  8
0
 10
4912.8236031437381826
 20
1.454250185900569
 30
0.0
 11
4912.8639880491537042
 21
1.4545706296690859
 31
0.0
  0
LINE
  5
3C672
  8
0
 10
4912.8639880491537042
 20
1.4545706296690859
 30
0.0
 11
4912.8787720061500295
 21
1.4509729059603571
 31
0.0
  0
LINE
  5
3C673
  8
0
 10
4912.8787720061500295
 20
1.4509729059603571
 30
0.0
 11
4912.823603143751825
 21
1.4505272216509519
 31
0.0
  0
LINE
  5
3C674
  8
0
 10
4912.8791994797456937
 20
1.454836403363831
 30
0.0
 11
4912.8939834366929063
 21
1.4512386796428649
 31
0.0
  0
LINE
  5
3C675
  8
0
 10
4912.8939834366929063
 20
1.4512386796428649
 30
0.0
 11
4912.9451785672927144
 21
1.452651384525683
 31
0.0
  0
LINE
  5
3C676
  8
0
 10
4912.9451785672927144
 20
1.452651384525683
 30
0.0
 11
4912.9166309868978715
 21
1.455875566067838
 31
0.0
  0
LINE
  5
3C677
  8
0
 10
4912.9166309868978715
 20
1.455875566067838
 30
0.0
 11
4912.8791994797456937
 21
1.454836403363831
 31
0.0
  0
LINE
  5
3C678
  8
0
 10
4912.8236031437927522
 20
1.4583588205256821
 30
0.0
 11
4912.8236031437927522
 21
1.4546353387256821
 31
0.0
  0
LINE
  5
3C679
  8
0
 10
4912.8236031437927522
 20
1.4546353387256821
 30
0.0
 11
4912.9136776460927649
 21
1.4562091183256829
 31
0.0
  0
LINE
  5
3C67A
  8
0
 10
4912.9136776460927649
 20
1.4562091183256829
 30
0.0
 11
4912.8851260333440223
 21
1.4594356144853851
 31
0.0
  0
ARC
  5
3C67B
  8
0
 10
4912.8233433377727124
 20
3.2313040639626869
 30
0.0
 40
1.7729452624728901
 50
270.0083960789568778
 51
271.9970185274469259
  0
ARC
  5
3C67C
  8
0
 10
4912.8754283266925995
 20
3.459141982916361
 30
0.0
 40
2.0076945105906661
 50
272.1856732214180283
 51
273.4531873618165037
  0
LINE
  5
3C67D
  8
0
 10
4912.9963578072929522
 20
1.4550927549256829
 30
0.0
 11
4912.9559672851928553
 21
1.4577264714256819
 31
0.0
  0
LINE
  5
3C67E
  8
0
 10
4912.9559672851928553
 20
1.4577264714256819
 30
0.0
 11
4912.9234500846569063
 21
1.45613228388932
 31
0.0
  0
LINE
  5
3C67F
  8
0
 10
4912.9234500846569063
 20
1.45613228388932
 30
0.0
 11
4912.9519976649771706
 21
1.4529081021609951
 31
0.0
  0
LINE
  5
3C680
  8
0
 10
4912.9671028250932068
 20
1.4584525788256819
 30
0.0
 11
4913.0074933470941687
 21
1.4558188622256829
 31
0.0
  0
LINE
  5
3C681
  8
0
 10
4913.0074933470941687
 20
1.4558188622256829
 30
0.0
 11
4913.0409970519931449
 21
1.458711423025683
 31
0.0
  0
LINE
  5
3C682
  8
0
 10
4913.0409970519931449
 20
1.458711423025683
 30
0.0
 11
4912.991551192292718
 21
1.4605729051256819
 31
0.0
  0
LINE
  5
3C683
  8
0
 10
4912.991551192292718
 20
1.4605729051256819
 30
0.0
 11
4912.9671028251023017
 21
1.4584525788251199
 31
0.0
  0
LINE
  5
3C684
  8
0
 10
4912.9954882003694365
 20
1.461017553319053
 30
0.0
 11
4913.0449340598934214
 21
1.459156071225683
 31
0.0
  0
LINE
  5
3C685
  8
0
 10
4913.0449340598934214
 20
1.459156071225683
 30
0.0
 11
4913.0665992174926942
 21
1.4624943163256829
 31
0.0
  0
LINE
  5
3C686
  8
0
 10
4913.0665992174926942
 20
1.4624943163256829
 30
0.0
 11
4913.0449340598934214
 21
1.4628728494256831
 31
0.0
  0
LINE
  5
3C687
  8
0
 10
4913.0449340598934214
 20
1.4628728494256831
 30
0.0
 11
4913.0114247383917245
 21
1.463458323425683
 31
0.0
  0
LINE
  5
3C688
  8
0
 10
4913.0114247383917245
 20
1.463458323425683
 30
0.0
 11
4912.9954882001929946
 21
1.4610175533256831
 31
0.0
  0
LINE
  5
3C689
  8
0
 10
4913.0775100963928708
 20
1.467083554825682
 30
0.0
 11
4913.0204149356941343
 21
1.467083554825682
 31
0.0
  0
LINE
  5
3C68A
  8
0
 10
4913.0706751079924288
 20
1.463486197425683
 30
0.0
 11
4913.0155006288932782
 21
1.4644502045256831
 31
0.0
  0
LINE
  5
3C68B
  8
0
 10
4913.0706751079924288
 20
1.4711943478256819
 30
0.0
 11
4913.0155006288932782
 21
1.470230340625684
 31
0.0
  0
ARC
  5
3C68C
  8
0
 10
4913.014749663027942
 20
1.462926735861094
 30
0.0
 40
0.0073421108877301
 50
39.5009887065107108
 51
84.129405979742927
  0
ARC
  5
3C68D
  8
0
 10
4913.0143166219431805
 20
1.4725619418649061
 30
0.0
 40
0.008197692061886
 50
278.304374116987276
 51
318.0652335273712197
  0
ARC
  5
3C68E
  8
0
 10
4913.0692609179059218
 20
1.4744650888158739
 30
0.0
 40
0.0110695975428184
 50
277.3398484191117177
 51
318.1771682451723109
  0
ARC
  5
3C68F
  8
0
 10
4913.0688472263527729
 20
1.459429441639984
 30
0.0
 40
0.0119060559734999
 50
43.3142645349789888
 51
81.1687174879235869
  0
LINE
  5
3C690
  8
0
 10
4913.0775100963928708
 20
1.4675969903256829
 30
0.0
 11
4913.0204149357950882
 21
1.4675969903256829
 31
0.0
  0
ARC
  5
3C691
  8
0
 10
4912.8199633908971009
 20
-3.6719449431941769
 30
0.0
 40
5.3141264708944851
 50
89.5925605291583764
 51
90.0008594513139855
  0
ARC
  5
3C692
  8
0
 10
4912.8397907526859854
 20
-2.5114589830251228
 30
0.0
 40
4.1535449855019237
 50
86.3659314336497346
 51
89.7522247403223048
  0
ARC
  5
3C693
  8
0
 10
4913.0548972624410453
 20
0.6448237899772415
 30
0.0
 40
0.9900824102032588
 50
78.2887483492402936
 51
87.2118047528562101
  0
ARC
  5
3C694
  8
0
 10
4915.0215584496208976
 20
-13.4428632639803993
 30
0.0
 40
15.1358015231083805
 50
96.7837806192668779
 51
96.9825420726104142
  0
ARC
  5
3C695
  8
0
 10
4913.1797787815839911
 20
2.0300099230678601
 30
0.0
 40
0.4463037466858596
 50
276.9359226387277886
 51
283.9052290765009161
  0
ARC
  5
3C696
  8
0
 10
4912.8202802709283787
 20
-2.6521779925742579
 30
0.0
 40
4.2876060186418909
 50
88.8985776952064271
 51
90.0052997203443823
  0
ARC
  5
3C697
  8
0
 10
4912.8456827007139509
 20
-1.5915013684240651
 30
0.0
 40
3.2266409661456481
 50
86.4999435582374048
 51
88.9875253896313438
  0
ARC
  5
3C698
  8
0
 10
4912.9309582384275927
 20
-0.1446739617230444
 30
0.0
 40
1.7773091421031171
 50
84.8615638840786062
 51
86.3964084614034533
  0
ARC
  5
3C699
  8
0
 10
4913.0290996443163749
 20
0.8889505184071708
 30
0.0
 40
0.7390669029320668
 50
80.115944719056813
 51
85.2626049598459588
  0
ARC
  5
3C69A
  8
0
 10
4913.1402689884998836
 20
1.5139312531037259
 30
0.0
 40
0.104303923166748
 50
65.5643842204714957
 51
81.3455371640630744
  0
ARC
  5
3C69B
  8
0
 10
4913.1802473498455583
 20
1.602540191700377
 30
0.0
 40
0.0070987866519199
 50
24.878876913917459
 51
63.4853380016845605
  0
ARC
  5
3C69C
  8
0
 10
4913.1840994047015556
 20
1.6047110180022039
 30
0.0
 40
0.0027134485517335
 50
344.973261592848587
 51
17.4932113644256795
  0
ARC
  5
3C69D
  8
0
 10
4912.0266601364546659
 20
1.863764730550626
 30
0.0
 40
1.1887862966768179
 50
344.845968893423219
 51
347.3786873805480013
  0
ARC
  5
3C69E
  8
0
 10
4913.1230153663618694
 20
1.662654497400192
 30
0.0
 40
0.1228032769097604
 50
278.0746867497866788
 51
292.6126523916735778
  0
ARC
  5
3C69F
  8
0
 10
4913.1672292246748839
 20
1.556311011502763
 30
0.0
 40
0.0076350779117103
 50
293.1683584164956073
 51
334.2862121869106886
  0
ARC
  5
3C6A0
  8
0
 10
4913.1684393853965958
 20
1.552126942295599
 30
0.0
 40
0.0060865176035656
 50
19.5499214224715985
 51
43.681997563125698
  0
ARC
  5
3C6A1
  8
0
 10
4913.1433261409465558
 20
1.5082980421527321
 30
0.0
 40
0.0563760553673092
 50
58.4302326312169811
 51
80.2920867460905043
  0
ARC
  5
3C6A2
  8
0
 10
4912.9776699548356191
 20
0.5641390714070011
 30
0.0
 40
1.014956887531328
 50
80.0620618883810948
 51
87.6875597602131336
  0
ARC
  5
3C6A3
  8
0
 10
4912.8261127780024253
 20
-2.0467199617890168
 30
0.0
 40
3.6300975211603541
 50
86.9600945709902931
 51
90.0983172833803678
  0
ARC
  5
3C6A4
  8
0
 10
4912.822630526861758
 20
-1.9377711210069479
 30
0.0
 40
3.5185089586454699
 50
87.7087180226362335
 51
90.0447299911715504
  0
ARC
  5
3C6A5
  8
0
 10
4912.9283522979703775
 20
0.3093463051566507
 30
0.0
 40
1.2690597305043809
 50
81.468734524627834
 51
88.4219896400177561
  0
ARC
  5
3C6A6
  8
0
 10
4913.1057325495312398
 20
1.488886325971126
 30
0.0
 40
0.0762582878369384
 50
62.4331263567555368
 51
81.7947207861563754
  0
ARC
  5
3C6A7
  8
0
 10
4913.1386605059069552
 20
1.5530565863411729
 30
0.0
 40
0.0041656760815254
 50
16.01018023530224
 51
55.4388493847164483
  0
ARC
  5
3C6A8
  8
0
 10
4913.1396074870799566
 20
1.553660758669952
 30
0.0
 40
0.0031052758933049
 50
347.7730307398622926
 51
10.10361724575694
  0
ARC
  5
3C6A9
  8
0
 10
4912.9441374835178067
 20
1.5862504580091901
 30
0.0
 40
0.2012698633864892
 50
343.1271049602066796
 51
350.4918488154228839
  0
ARC
  5
3C6AA
  8
0
 10
4912.9870564558868864
 20
1.5747441275530869
 30
0.0
 40
0.1568654697916892
 50
316.6529557676402078
 51
342.5988606738648059
  0
LINE
  5
3C6AB
  8
0
 10
4913.0114247383917245
 20
1.4712222217256821
 30
0.0
 11
4913.0665992174926942
 21
1.472186228925682
 31
0.0
  0
LINE
  5
3C6AC
  8
0
 10
4913.0665992174926942
 20
1.472186228925682
 30
0.0
 11
4913.0449340598934214
 21
1.4755244740256821
 31
0.0
  0
LINE
  5
3C6AD
  8
0
 10
4913.0449340598934214
 20
1.4755244740256821
 30
0.0
 11
4912.9954882003694365
 21
1.473662991832313
 31
0.0
  0
LINE
  5
3C6AE
  8
0
 10
4912.9954882003694365
 20
1.473662991832313
 30
0.0
 11
4913.0114247383917245
 21
1.4712222217256821
 31
0.0
  0
LINE
  5
3C6AF
  8
0
 10
4913.0204149356941343
 20
1.4703162032256829
 30
0.0
 11
4913.0204149356941343
 21
1.467596990325684
 31
0.0
  0
LINE
  5
3C6B0
  8
0
 10
4913.0114247383917245
 20
1.4742629527256821
 30
0.0
 11
4913.0114247383917245
 21
1.4712222217256821
 31
0.0
  0
LINE
  5
3C6B1
  8
0
 10
4912.991551192292718
 20
1.474107640025683
 30
0.0
 11
4912.9671028251023017
 21
1.476227966426245
 31
0.0
  0
LINE
  5
3C6B2
  8
0
 10
4912.9671028251023017
 20
1.476227966426245
 30
0.0
 11
4913.0074933470941687
 21
1.478861682925682
 31
0.0
  0
LINE
  5
3C6B3
  8
0
 10
4913.0074933470941687
 20
1.478861682925682
 30
0.0
 11
4913.0409970519931449
 21
1.475969122125683
 31
0.0
  0
LINE
  5
3C6B4
  8
0
 10
4913.0409970519931449
 20
1.4759691221256821
 30
0.0
 11
4912.991551192292718
 21
1.474107640025683
 31
0.0
  0
LINE
  5
3C6B5
  8
0
 10
4912.991551192292718
 20
1.474107640025683
 30
0.0
 11
4912.991551192292718
 21
1.4778221539950509
 31
0.0
  0
LINE
  5
3C6B6
  8
0
 10
4912.82360314374273
 20
1.4841533235317039
 30
0.0
 11
4912.8236031437672864
 21
1.4804303592967401
 31
0.0
  0
LINE
  5
3C6B7
  8
0
 10
4912.8236031437691054
 20
1.480045206425715
 30
0.0
 11
4912.8236031437927522
 21
1.4763220462174991
 31
0.0
  0
LINE
  5
3C6B8
  8
0
 10
4912.8236031437400015
 20
1.4804303592967709
 30
0.0
 11
4912.8639880492009979
 21
1.48010991552765
 31
0.0
  0
LINE
  5
3C6B9
  8
0
 10
4912.8639880492009979
 20
1.48010991552765
 30
0.0
 11
4912.8787720062928202
 21
1.4837076392256821
 31
0.0
  0
LINE
  5
3C6BA
  8
0
 10
4912.8787720062928202
 20
1.4837076392256821
 30
0.0
 11
4912.8639880491928125
 21
1.483903846025683
 31
0.0
  0
LINE
  5
3C6BB
  8
0
 10
4912.8639880491928125
 20
1.483903846025683
 30
0.0
 11
4912.82360314374273
 21
1.4841533235317039
 31
0.0
  0
LINE
  5
3C6BC
  8
0
 10
4912.8236031437691054
 20
1.480045206425715
 30
0.0
 11
4912.9136776460927649
 21
1.478471426925684
 31
0.0
  0
LINE
  5
3C6BD
  8
0
 10
4912.9136776460927649
 20
1.478471426925684
 30
0.0
 11
4912.8851260975916375
 21
1.4752467971256831
 31
0.0
  0
ARC
  5
3C6BE
  8
0
 10
4912.8217248016626399
 20
-0.3917810508579627
 30
0.0
 40
1.8681040413938661
 50
88.0550738479826549
 51
89.9423902029407856
  0
LINE
  5
3C6BF
  8
0
 10
4912.8791994794828497
 20
1.479844141792785
 30
0.0
 11
4912.8939834366283321
 21
1.483441865509765
 31
0.0
  0
LINE
  5
3C6C0
  8
0
 10
4912.8939834366283321
 20
1.483441865509765
 30
0.0
 11
4912.9451785673536506
 21
1.482029160710497
 31
0.0
  0
LINE
  5
3C6C1
  8
0
 10
4912.9451785673536506
 20
1.482029160710497
 30
0.0
 11
4912.9166309873598948
 21
1.4788049790671061
 31
0.0
  0
LINE
  5
3C6C2
  8
0
 10
4912.9166309873598948
 20
1.4788049790671061
 30
0.0
 11
4912.8791994794928542
 21
1.479844141825682
 31
0.0
  0
LINE
  5
3C6C3
  8
0
 10
4912.9963578072265591
 20
1.479587790321405
 30
0.0
 11
4912.9519976649771706
 21
1.4817724429903709
 31
0.0
  0
LINE
  5
3C6C4
  8
0
 10
4912.9519976649771706
 20
1.4817724429903709
 30
0.0
 11
4912.9234500848497191
 21
1.4785482613546801
 31
0.0
  0
LINE
  5
3C6C5
  8
0
 10
4912.9234500848497191
 20
1.4785482613546801
 30
0.0
 11
4912.9559672851928553
 21
1.476954073725683
 31
0.0
  0
LINE
  5
3C6C6
  8
0
 10
4912.9559672851928553
 20
1.476954073725683
 30
0.0
 11
4912.9963578072265591
 21
1.479587790321405
 31
0.0
  0
ARC
  5
3C6C7
  8
0
 10
4912.884291304699218
 20
0.4152012545912452
 30
0.0
 40
1.063629840943997
 50
84.4891683997930727
 51
88.0493028874498691
  0
LINE
  5
3C6C8
  8
0
 10
4912.9204967436926381
 20
1.4782147092256821
 30
0.0
 11
4912.8919451953697717
 21
1.474990079434463
 31
0.0
  0
ARC
  5
3C6C9
  8
0
 10
4912.8655792433492024
 20
0.7238255062779589
 30
0.0
 40
0.7516271545063892
 50
84.5487337623221435
 51
87.9897376681190337
  0
LINE
  5
3C6CA
  8
0
 10
4912.9369831233925652
 20
1.472053322725682
 30
0.0
 11
4912.9864358557915693
 21
1.473915063525683
 31
0.0
  0
LINE
  5
3C6CB
  8
0
 10
4912.9903728636918459
 20
1.473470415425683
 30
0.0
 11
4912.9409201312091682
 21
1.4716086745263111
 31
0.0
  0
ARC
  5
3C6CC
  8
0
 10
4912.9655528014736774
 20
1.2565121088304101
 30
0.0
 40
0.2183734010570201
 50
80.1658325329466521
 51
83.4737263390476585
  0
ARC
  5
3C6CD
  8
0
 10
4912.9898578449356137
 20
1.3967247369742879
 30
0.0
 40
0.0760697952394499
 50
75.0939755935746547
 51
80.1658325329466521
  0
ARC
  5
3C6CE
  8
0
 10
4913.0044880372970511
 20
1.4516857849311831
 30
0.0
 40
0.0191948506589703
 50
61.3547247257167001
 51
75.093975593574541
  0
ARC
  5
3C6CF
  8
0
 10
4913.0128248688406529
 20
1.4669479079401531
 30
0.0
 40
0.0018041876773045
 50
21.0857239288959093
 51
61.3547247257168706
  0
ARC
  5
3C6D0
  8
0
 10
4912.9234651974302324
 20
1.3224698485558639
 30
0.0
 40
0.1501567984619553
 50
80.1505125278738717
 51
83.3245766796080147
  0
ARC
  5
3C6D1
  8
0
 10
4912.939423520827404
 20
1.4143852892682509
 30
0.0
 40
0.0568663041605348
 50
75.9907771444947713
 51
80.1505125278738859
  0
ARC
  5
3C6D2
  8
0
 10
4912.9484880901181896
 20
1.4507163760447379
 30
0.0
 40
0.0194214876594258
 50
65.9648562833489365
 51
75.9907771444948708
  0
ARC
  5
3C6D3
  8
0
 10
4912.9554430585421869
 20
1.466311739787274
 30
0.0
 40
0.0023455702304091
 50
33.2263518331457988
 51
65.9648562833508123
  0
LINE
  5
3C6D4
  8
0
 10
4912.9574051570816664
 20
1.46759699035018
 30
0.0
 11
4913.0145082538856514
 21
1.46759699035018
 31
0.0
  0
LINE
  5
3C6D5
  8
0
 10
4912.9574051570925803
 20
1.467083554825682
 30
0.0
 11
4913.0145082538929273
 21
1.467083554825682
 31
0.0
  0
ARC
  5
3C6D6
  8
0
 10
4913.0129644954413379
 20
1.4676664781506219
 30
0.0
 40
0.0016501484061615
 50
305.2139614964044085
 51
339.3134592375977263
  0
ARC
  5
3C6D7
  8
0
 10
4913.0054087949411041
 20
1.480220353625938
 30
0.0
 40
0.0162984671761501
 50
282.1512575735375776
 51
301.4641461346333244
  0
ARC
  5
3C6D8
  8
0
 10
4912.9872732707117393
 20
1.549900450752685
 30
0.0
 40
0.0882879233506601
 50
279.0394579163382218
 51
284.1387974831524161
  0
ARC
  5
3C6D9
  8
0
 10
4912.9686096158293367
 20
1.6599163736260101
 30
0.0
 40
0.1998731124118115
 50
277.5715047199637979
 51
279.368187778609979
  0
ARC
  5
3C6DA
  8
0
 10
4912.9557223429783335
 20
1.7548390422296769
 30
0.0
 40
0.2956663606907355
 50
276.7302263358600953
 51
277.6233572152049192
  0
LINE
  5
3C6DB
  8
0
 10
4912.9903728636918459
 20
1.4612101297256821
 30
0.0
 11
4912.9409201311927973
 21
1.4630718706256829
 31
0.0
  0
ARC
  5
3C6DC
  8
0
 10
4912.954770669743084
 20
1.4690878161320411
 30
0.0
 40
0.0033102246119518
 50
286.7044870145480786
 51
322.7369031959156018
  0
ARC
  5
3C6DD
  8
0
 10
4912.9261186032172191
 20
1.564562961653915
 30
0.0
 40
0.1029919397285807
 50
283.9706038958329941
 51
286.7044870145480786
  0
ARC
  5
3C6DE
  8
0
 10
4912.9259364493864268
 20
1.5941547440800261
 30
0.0
 40
0.1319364636263486
 50
276.5210020721514184
 51
280.9434762442398892
  0
LINE
  5
3C6DF
  8
0
 10
4912.9559672851928553
 20
1.481576946741713
 30
0.0
 11
4912.9559672851928553
 21
1.476954073770409
 31
0.0
  0
LINE
  5
3C6E0
  8
0
 10
4912.9166309869915494
 20
1.4828169173430319
 30
0.0
 11
4912.9166309873598948
 21
1.4788049790671061
 31
0.0
  0
LINE
  5
3C6E1
  8
0
 10
4912.9864358557915693
 20
1.4607654816256821
 30
0.0
 11
4912.9369831233925652
 21
1.4626272224256831
 31
0.0
  0
LINE
  5
3C6E2
  8
0
 10
4912.9369831233925652
 20
1.4626272224256831
 30
0.0
 11
4912.8919451952915551
 21
1.4596904657256831
 31
0.0
  0
LINE
  5
3C6E3
  8
0
 10
4912.8919451952915551
 20
1.4596904657256831
 30
0.0
 11
4912.9204967436926381
 21
1.456465836025683
 31
0.0
  0
LINE
  5
3C6E4
  8
0
 10
4912.9204967436926381
 20
1.456465836025683
 30
0.0
 11
4912.9864358557915693
 21
1.4607654816256821
 31
0.0
  0
LINE
  5
3C6E5
  8
0
 10
4912.9204967436926381
 20
1.4615522065871389
 30
0.0
 11
4912.9204967436926381
 21
1.456465836025683
 31
0.0
  0
ARC
  5
3C6E6
  8
0
 10
4912.9472511262511034
 20
1.46348069349553
 30
0.0
 40
0.0059137473281842
 50
44.1113931358140334
 51
84.1742408417927237
  0
ARC
  5
3C6E7
  8
0
 10
4912.9304662791555529
 20
1.399386128252321
 30
0.0
 40
0.0721049952605897
 50
76.0480370647942578
 51
82.2292042573292434
  0
ARC
  5
3C6E8
  8
0
 10
4912.9069634968436731
 20
1.236844819644934
 30
0.0
 40
0.2363351218459534
 50
81.9116977963366395
 51
84.6768257380635561
  0
ARC
  5
3C6E9
  8
0
 10
4912.876981705741855
 20
0.9181724469984597
 30
0.0
 40
0.5564147269572577
 50
84.6471494918661023
 51
86.6137151549268367
  0
ARC
  5
3C6EA
  8
0
 10
4912.8486585072469097
 20
0.4569219269513956
 30
0.0
 40
1.0185333995187249
 50
86.5558379818283044
 51
87.7305641077770701
  0
LINE
  5
3C6EB
  8
0
 10
4912.8889911793930878
 20
1.4746564510256821
 30
0.0
 11
4912.8574682146963823
 21
1.4710962276259369
 31
0.0
  0
ARC
  5
3C6EC
  8
0
 10
4912.8365766852048182
 20
0.974470110458129
 30
0.0
 40
0.4970653440516915
 50
86.3401857450630246
 51
87.5911634586772436
  0
ARC
  5
3C6ED
  8
0
 10
4912.8500974653834419
 20
1.185855087614097
 30
0.0
 40
0.2852483946264595
 50
84.5966960812602338
 51
86.3401857450630246
  0
ARC
  5
3C6EE
  8
0
 10
4912.8661866247039143
 20
1.3559559212251191
 30
0.0
 40
0.1143883506054837
 50
81.0682408314314671
 51
84.5966960812602338
  0
ARC
  5
3C6EF
  8
0
 10
4912.8804057598226791
 20
1.4464292889538179
 30
0.0
 40
0.0228044324119043
 50
70.9566470430650043
 51
81.0682408314315239
  0
ARC
  5
3C6F0
  8
0
 10
4912.8859838608295831
 20
1.464423052259082
 30
0.0
 40
0.0040201523193046
 50
52.1394560456702578
 51
62.3985823844391518
  0
LINE
  5
3C6F1
  8
0
 10
4912.8884511957940049
 20
1.4675969903256809
 30
0.0
 11
4912.9514971252929172
 21
1.4675969903256809
 31
0.0
  0
LINE
  5
3C6F2
  8
0
 10
4912.9514971252929172
 20
1.467083554825682
 30
0.0
 11
4912.8884511957940049
 21
1.467083554825682
 31
0.0
  0
ARC
  5
3C6F3
  8
0
 10
4912.887219630420077
 20
1.468347795438488
 30
0.0
 40
0.0017649525751826
 50
292.6658780043961201
 51
314.2499230910125902
  0
ARC
  5
3C6F4
  8
0
 10
4912.8838274277368328
 20
1.476453478607743
 30
0.0
 40
0.0105518252450469
 50
282.0575741697763874
 51
292.7019165972287738
  0
ARC
  5
3C6F5
  8
0
 10
4912.8774590435014034
 20
1.503566791016743
 30
0.0
 40
0.0384014320175182
 50
277.5945986356574053
 51
282.8992012957384077
  0
ARC
  5
3C6F6
  8
0
 10
4912.8595323364979777
 20
1.6380178948197861
 30
0.0
 40
0.1740423776712525
 50
274.8357479399869021
 51
277.5945986356574053
  0
ARC
  5
3C6F7
  8
0
 10
4912.8478010879953217
 20
1.7766839908896079
 30
0.0
 40
0.3132038248851936
 50
272.8411656529195852
 51
274.8357479399869021
  0
ARC
  5
3C6F8
  8
0
 10
4912.7767540754803122
 20
3.2082643293414441
 30
0.0
 40
1.7465460531856389
 50
272.6487862798982746
 51
272.8411656529195852
  0
LINE
  5
3C6F9
  8
0
 10
4912.8574682146963823
 20
1.4635843175254279
 30
0.0
 11
4912.8889911793930878
 21
1.460024094125683
 31
0.0
  0
ARC
  5
3C6FA
  8
0
 10
4912.8414127833038947
 20
2.641866995398606
 30
0.0
 40
1.1828002143487779
 50
272.3053571921760749
 51
272.6411434401196061
  0
ARC
  5
3C6FB
  8
0
 10
4912.8498065413632503
 20
2.4599055711521931
 30
0.0
 40
1.000645293778085
 50
272.6411434401196061
 51
273.3012558058895252
  0
ARC
  5
3C6FC
  8
0
 10
4912.8673879589568969
 20
2.1551045766775321
 30
0.0
 40
0.6953376579787571
 50
273.3012558058895252
 51
274.5081123642797252
  0
ARC
  5
3C6FD
  8
0
 10
4912.8935206014593859
 20
1.8236578565032631
 30
0.0
 40
0.3628623305958208
 50
274.5081123642797252
 51
276.7957934429118723
  0
ARC
  5
3C6FE
  8
0
 10
4912.9223881887410244
 20
1.5814157279647241
 30
0.0
 40
0.1189062147995697
 50
276.7957934429118723
 51
281.6505566991265255
  0
ARC
  5
3C6FF
  8
0
 10
4912.9421925597898735
 20
1.4853667089422991
 30
0.0
 40
0.0208367130786001
 50
281.6505566991264118
 51
293.5785692644702749
  0
ARC
  5
3C700
  8
0
 10
4912.9495585204313102
 20
1.4684894868335281
 30
0.0
 40
0.0024220992550402
 50
293.5785692644691949
 51
317.0403806988193196
  0
ARC
  5
3C701
  8
0
 10
4912.9506239250540602
 20
1.4674973838457841
 30
0.0
 40
0.0009662986678303
 50
317.0403806988194901
 51
334.6426859213016769
  0
LINE
  5
3C702
  8
0
 10
4912.8939834366929063
 20
1.455246831311968
 30
0.0
 11
4912.8939834366929063
 21
1.451238679725682
 31
0.0
  0
ARC
  5
3C703
  8
0
 10
4912.8198614647099021
 20
-0.4687634082769643
 30
0.0
 40
1.94470372462951
 50
89.0928817534118167
 51
89.9993455476384128
  0
ARC
  5
3C704
  8
0
 10
4912.821450487967013
 20
-0.3684416541994362
 30
0.0
 40
1.8443693868594631
 50
88.4547374261892969
 51
89.0928996587430362
  0
ARC
  5
3C705
  8
0
 10
4912.8368788800671609
 20
0.2034788901728768
 30
0.0
 40
1.2722407786270771
 50
87.9597747164924186
 51
88.4547374261892969
  0
LINE
  5
3C706
  8
0
 10
4912.8821720817932146
 20
1.4749131687256829
 30
0.0
 11
4912.8506491169946457
 21
1.4713529453259011
 31
0.0
  0
ARC
  5
3C707
  8
0
 10
4912.8202988852926865
 20
0.5122676034202596
 30
0.0
 40
0.9595654379054249
 50
88.1874822013621866
 51
89.7570990873016967
  0
ARC
  5
3C708
  8
0
 10
4912.8203662491887371
 20
0.5346125844092505
 30
0.0
 40
0.9372203725323146
 50
89.7554260893116407
 51
90.0295014010866623
  0
ARC
  5
3C709
  8
0
 10
4912.8199157449507766
 20
0.571864401785239
 30
0.0
 40
0.8995833549052811
 50
88.230667477287156
 51
90.002042402590547
  0
LINE
  5
3C70A
  8
0
 10
4912.8476910739518644
 20
1.471018862109825
 30
0.0
 11
4912.8298947823941489
 21
1.4690089377256821
 31
0.0
  0
LINE
  5
3C70B
  8
0
 10
4912.8298947823941489
 20
1.4690089377256821
 30
0.0
 11
4912.819883677641883
 21
1.4691372965996219
 31
0.0
  0
LINE
  5
3C70C
  8
0
 10
4912.8367138800931571
 20
1.468752220025739
 30
0.0
 11
4912.8545101717927537
 21
1.4707621444256831
 31
0.0
  0
ARC
  5
3C70D
  8
0
 10
4912.8334638913765957
 20
0.9817977814304761
 30
0.0
 40
0.4894170963489615
 50
86.814050240545285
 51
87.5353639764668969
  0
ARC
  5
3C70E
  8
0
 10
4912.8406759790850629
 20
1.110596401037877
 30
0.0
 40
0.3604167237101268
 50
85.8520461672965354
 51
86.8208452030401361
  0
ARC
  5
3C70F
  8
0
 10
4912.8500128829982714
 20
1.239341869409162
 30
0.0
 40
0.2313331329604459
 50
84.8181204327161709
 51
85.8520461672965354
  0
ARC
  5
3C710
  8
0
 10
4912.8592547273692617
 20
1.341249708311145
 30
0.0
 40
0.1290070887827578
 50
81.5575397268767261
 51
84.8181204327161709
  0
ARC
  5
3C711
  8
0
 10
4912.8770094574556424
 20
1.4566865445722059
 30
0.0
 40
0.0122299085239138
 50
63.1398265864254569
 51
84.4369096363242448
  0
LINE
  5
3C712
  8
0
 10
4912.882535109993114
 20
1.4675969903256829
 30
0.0
 11
4912.8469425265930113
 21
1.4675969903256829
 31
0.0
  0
ARC
  5
3C713
  8
0
 10
4912.8428829354497793
 20
1.4553539571749869
 30
0.0
 40
0.0128985325529435
 50
71.6553166466251952
 51
86.9139149403393816
  0
ARC
  5
3C714
  8
0
 10
4912.831151029553439
 20
1.3494156370162571
 30
0.0
 40
0.1194661682255867
 50
84.0295603959762332
 51
87.3311008931386539
  0
LINE
  5
3C715
  8
0
 10
4912.8506491169928267
 20
1.475696593125684
 30
0.0
 11
4912.8506491169928267
 21
1.4713529453256831
 31
0.0
  0
LINE
  5
3C716
  8
0
 10
4912.882535109993114
 20
1.467083554825682
 30
0.0
 11
4912.8469425265930113
 21
1.4670835548256831
 31
0.0
  0
ARC
  5
3C717
  8
0
 10
4912.8427352051030539
 20
1.480115414256219
 30
0.0
 40
0.0136941927229546
 50
273.556328599993094
 51
287.892616783033418
  0
ARC
  5
3C718
  8
0
 10
4912.8311579563305713
 20
1.5851579897056769
 30
0.0
 40
0.1193590432465549
 50
272.6679675199745247
 51
275.9760017306030022
  0
LINE
  5
3C719
  8
0
 10
4912.8367138800931571
 20
1.4659283251256821
 30
0.0
 11
4912.8545101717927537
 21
1.4639184008256829
 31
0.0
  0
ARC
  5
3C71A
  8
0
 10
4912.8351289767142589
 20
1.9183380078753769
 30
0.0
 40
0.4548327274876776
 50
272.4422099425290185
 51
273.6244485627792074
  0
ARC
  5
3C71B
  8
0
 10
4912.846639363146096
 20
1.7366230168979231
 30
0.0
 40
0.2727535498155452
 50
273.6244485627792074
 51
275.1204877711390964
  0
ARC
  5
3C71C
  8
0
 10
4912.8597630185286107
 20
1.5901668251354211
 30
0.0
 40
0.1257105410182713
 50
275.1204877711390964
 51
278.1869392370797982
  0
ARC
  5
3C71D
  8
0
 10
4912.8731086967227384
 20
1.4974044526768471
 30
0.0
 40
0.0319930673506718
 50
278.1869392370799119
 51
283.7181957770941949
  0
ARC
  5
3C71E
  8
0
 10
4912.8797608482072974
 20
1.471195045893297
 30
0.0
 40
0.0049599281501679
 50
280.8646896049123143
 51
304.009826238966582
  0
LINE
  5
3C71F
  8
0
 10
4912.8506491169810033
 20
1.4633275998249671
 30
0.0
 11
4912.8821720817932146
 21
1.459767376425682
 31
0.0
  0
ARC
  5
3C720
  8
0
 10
4912.8301990978598042
 20
2.9437961510783728
 30
0.0
 40
1.484938582923909
 50
271.5030488624179839
 51
272.0057670903005942
  0
ARC
  5
3C721
  8
0
 10
4912.8229086582250602
 20
3.2216418072989459
 30
0.0
 40
1.76287987023242
 50
270.7177756353000859
 51
271.5030488624179839
  0
ARC
  5
3C722
  8
0
 10
4912.819432118716577
 20
3.4993738897274032
 30
0.0
 40
2.0406337107630299
 50
270.0126786207197256
 51
270.7176929664432237
  0
ARC
  5
3C723
  8
0
 10
4912.8202988852926865
 20
2.422412941839879
 30
0.0
 40
0.959565438014199
 50
270.6602530407972722
 51
271.8125186522652825
  0
ARC
  5
3C724
  8
0
 10
4912.820327508243281
 20
2.4190368143830132
 30
0.0
 40
0.9561892049415515
 50
269.9734052413123777
 51
270.6608692198178119
  0
LINE
  5
3C725
  8
0
 10
4912.819883677641883
 20
1.465543248551743
 30
0.0
 11
4912.8298947824059724
 21
1.465671607412417
 31
0.0
  0
LINE
  5
3C726
  8
0
 10
4912.8298947824059724
 20
1.465671607412417
 30
0.0
 11
4912.8476910739518644
 21
1.4636616830415641
 31
0.0
  0
LINE
  5
3C727
  8
0
 10
4912.8476927829988199
 20
1.4635500099155589
 30
0.0
 11
4912.819881968595837
 21
1.463121115906272
 31
0.0
  0
LINE
  5
3C728
  8
0
 10
4912.8639880491928125
 20
1.483903846025683
 30
0.0
 11
4912.8639880491928125
 21
1.4801099155256821
 31
0.0
  0
LINE
  5
3C729
  8
0
 10
4912.9369831233925652
 20
1.477485092125683
 30
0.0
 11
4912.9369831233925652
 21
1.472053322725682
 31
0.0
  0
LINE
  5
3C72A
  8
0
 10
4912.8851260975916375
 20
1.4789702788822769
 30
0.0
 11
4912.8851260975916375
 21
1.4752467971256831
 31
0.0
  0
LINE
  5
3C72B
  8
0
 10
4912.8884511957940049
 20
1.4745954649392961
 30
0.0
 11
4912.8884511957940049
 21
1.467596990325682
 31
0.0
  0
LINE
  5
3C72C
  8
0
 10
4912.8889911793930878
 20
1.467083554825682
 30
0.0
 11
4912.8889911793930878
 21
1.4600240941256819
 31
0.0
  0
LINE
  5
3C72D
  8
0
 10
4912.8545101717927537
 20
1.467083554825682
 30
0.0
 11
4912.8545101717927537
 21
1.463918400825682
 31
0.0
  0
LINE
  5
3C72E
  8
0
 10
4912.8469425265930113
 20
1.469907449825683
 30
0.0
 11
4912.8469425265930113
 21
1.4675969903256829
 31
0.0
  0
LINE
  5
3C72F
  8
0
 10
4912.8298947823941489
 20
1.471392412325683
 30
0.0
 11
4912.8298947823941489
 21
1.469008937725683
 31
0.0
  0
LINE
  5
3C730
  8
0
 10
4912.9519976649926321
 20
1.4575318569157401
 30
0.0
 11
4912.9519976649926321
 21
1.452908102225682
 31
0.0
  0
LINE
  5
3C731
  8
0
 10
4913.0706751079924288
 20
1.467083554825682
 30
0.0
 11
4913.0706751079924288
 21
1.463486197425685
 31
0.0
  0
LINE
  5
3C732
  8
0
 10
4913.0449340598934214
 20
1.462872849409995
 30
0.0
 11
4913.0449340598934214
 21
1.4591560712256839
 31
0.0
  0
LINE
  5
3C733
  8
0
 10
4913.0074933470941687
 20
1.4599727328165011
 30
0.0
 11
4913.0074933470941687
 21
1.455818862225684
 31
0.0
  0
LINE
  5
3C734
  8
0
 10
4912.9574051570925803
 20
1.4722292842555009
 30
0.0
 11
4912.9574051570925803
 21
1.467596990325684
 31
0.0
  0
LINE
  5
3C735
  8
0
 10
4912.9903728636918459
 20
1.467083554825682
 30
0.0
 11
4912.9903728636918459
 21
1.4612101297256821
 31
0.0
  0
ARC
  5
3C737
  8
0
 10
4911.8316705796196402
 20
-2.4136246260480312
 30
0.0
 40
0.0196655763262799
 50
93.6108103927809339
 51
179.3696671831588105
  0
ARC
  5
3C738
  8
0
 10
4853.0624297153726729
 20
-1.747010915904798
 30
0.0
 40
58.7533558342904385
 50
359.2031784940489274
 51
359.3501209468266211
  0
ARC
  5
3C739
  8
0
 10
4913.8080905386095765
 20
-2.4137537214591611
 30
0.0
 40
0.0197559522220763
 50
1.0018873674883531
 51
89.6742278083985553
  0
ARC
  5
3C73A
  8
0
 10
4972.5774199504949138
 20
-1.7470109158792391
 30
0.0
 40
58.7533558362733217
 50
180.6498790531755105
 51
180.7968215059491115
  0
LINE
  5
3C73B
  8
0
 10
4913.664406863919794
 20
2.2713812795110568
 30
0.0
 11
4911.9753604916659242
 21
2.2713812795110568
 31
0.0
  0
LINE
  5
3C73E
  8
0
 10
4913.8793185827926209
 20
-2.5640768286743159
 30
0.0
 11
4911.760408295192974
 21
-2.5640768286743159
 31
0.0
  0
ARC
  5
3C73F
  8
0
 10
4913.6633896338207705
 20
2.1534289234753681
 30
0.0
 40
0.0195033213637033
 50
359.4626270545319926
 51
89.3645401473339263
  0
ARC
  5
3C740
  8
0
 10
4913.171806692282189
 20
1.5537288609297251
 30
0.0
 40
0.0024079067262694
 50
341.1986435693862063
 51
10.40305990703874
  0
ARC
  5
3C741
  8
0
 10
4912.1187728447939662
 20
1.6712095242773191
 30
0.0
 40
0.0195871765990873
 50
180.1340923610455036
 51
270.3357094087397172
  0
ARC
  5
3C742
  8
0
 10
4912.121986101506991
 20
1.6494383510404991
 30
0.0
 40
0.0037910367534695
 50
101.387394085353705
 51
144.8174437958396936
  0
ARC
  5
3C743
  8
0
 10
4912.204378069311133
 20
1.1334450052741929
 30
0.0
 40
0.5263179341731574
 50
88.5980073307980547
 51
99.088870429214154
  0
ARC
  5
3C744
  8
0
 10
4912.5185695698928612
 20
68.6358792298747034
 30
0.0
 40
66.9769516245791436
 50
269.7422384192288973
 51
270.2577615807712164
  0
ARC
  5
3C745
  8
0
 10
4912.9933113951301493
 20
-18.17803324371652
 30
0.0
 40
19.8383966933604405
 50
88.4852346301599511
 51
90.500887394105419
  0
ARC
  5
3C746
  8
0
 10
4913.5166605629392507
 20
1.6479962617529631
 30
0.0
 40
0.0055389478399603
 50
40.0045147295307402
 51
78.8597384819866818
  0
ARC
  5
3C747
  8
0
 10
4913.5208824712099158
 20
1.6712563136541629
 30
0.0
 40
0.0196993616062516
 50
270.0607627970113072
 51
359.7575123971470816
  0
ARC
  5
3C748
  8
0
 10
4928.112086387150157
 20
2.9365626029011551
 30
0.0
 40
16.1503585741208404
 50
178.6577794199262996
 51
182.3606134210969003
  0
ARC
  5
3C749
  8
0
 10
4911.9865233775672095
 20
3.3143918759288029
 30
0.0
 40
0.0203698160467794
 50
91.9430763679172856
 51
178.6577794199253049
  0
ARC
  5
3C74A
  8
0
 10
4912.8198834892064042
 20
-43.2579397018516474
 30
0.0
 40
46.6001542105521622
 50
89.9999997683180055
 51
91.0255361228707187
  0
ARC
  5
3C74B
  8
0
 10
4912.819883866379314
 20
-43.2579397019988789
 30
0.0
 40
46.6001542106993796
 50
88.9744638980288158
 51
90.0000002320467445
  0
ARC
  5
3C74C
  8
0
 10
4913.6538974800214419
 20
3.3150395766156651
 30
0.0
 40
0.0197104381678522
 50
359.6904849408363134
 51
89.8920042975943971
  0
ARC
  5
3C74D
  8
0
 10
4898.9843337191159662
 20
2.9236227267444002
 30
0.0
 40
14.6944850830084199
 50
357.455858342823376
 51
1.5259523203844589
  0
ARC
  5
3C74E
  8
0
 10
5099.3438123796413493
 20
0.9511266693736546
 30
0.0
 40
187.3501576164204891
 50
179.3774004886251987
 51
179.596243961686298
  0
ARC
  5
3C74F
  8
0
 10
4915.2009213739693223
 20
2.9704028052995848
 30
0.0
 40
3.1962482986144032
 50
177.6217509274065094
 51
179.7040827485018042
  0
LINE
  5
3C750
  8
0
 10
4912.0093469462926805
 20
3.1237049473256819
 30
0.0
 11
4912.0696382788373739
 21
3.2234185350570108
 31
0.0
  0
ARC
  5
3C751
  8
0
 10
4912.1546296000751681
 20
3.099639393694944
 30
0.0
 40
0.1472426223499702
 50
170.645790950402386
 51
178.6783846358694063
  0
ARC
  5
3C752
  8
0
 10
5182.6391589570639553
 20
0.9465828181778759
 30
0.0
 40
270.5791002663119116
 50
179.498120431559812
 51
179.5178688352631866
  0
ARC
  5
3C753
  8
0
 10
4912.0904460485353411
 20
3.316501603102449
 30
0.0
 40
0.0200076977766182
 50
91.0252851568650811
 51
179.4981204315596131
  0
ARC
  5
3C754
  8
0
 10
4726.2959549589459129
 20
0.9511266693736546
 30
0.0
 40
187.3501576164204891
 50
0.4037560383136637
 51
0.6225995113748382
  0
ARC
  5
3C755
  8
0
 10
4910.4388459646179399
 20
2.9704028052995848
 30
0.0
 40
3.1962482986144032
 50
0.2959172514981624
 51
2.3782490725934422
  0
LINE
  5
3C756
  8
0
 10
4913.6304203922936722
 20
3.1237049473256819
 30
0.0
 11
4913.5701290597498883
 21
3.2234185350570108
 31
0.0
  0
ARC
  5
3C757
  8
0
 10
4913.4851377385120941
 20
3.099639393694944
 30
0.0
 40
0.1472426223499702
 50
1.3216153641305881
 51
9.3542090495976176
  0
ARC
  5
3C758
  8
0
 10
4643.0006083815233069
 20
0.9465828181778759
 30
0.0
 40
270.5791002663119116
 50
0.4821311647367997
 51
0.5018795684402289
  0
ARC
  5
3C759
  8
0
 10
4913.5493212900519211
 20
3.316501603102449
 30
0.0
 40
0.0200076977766182
 50
0.5018795684403816
 51
88.9747148431349046
  0
ARC
  5
3C75A
  8
0
 10
4912.0896550964907874
 20
3.2232792269103872
 30
0.0
 40
0.0200173024779337
 50
179.6044847290484938
 51
269.9303427442367251
  0
ARC
  5
3C75B
  8
0
 10
4912.1740841107230153
 20
2.395070082788993
 30
0.0
 40
0.8125924225439023
 50
88.903799639211357
 51
95.965566729884884
  0
ARC
  5
3C75C
  8
0
 10
4912.5047568043182764
 20
-56.6534343623770908
 30
0.0
 40
59.861777607294087
 50
89.6983797659531632
 51
90.301620234046851
  0
ARC
  5
3C75D
  8
0
 10
4913.550112258793888
 20
3.2232792269103872
 30
0.0
 40
0.0200173024779337
 50
270.0696572557632749
 51
0.3955152709514552
  0
ARC
  5
3C75E
  8
0
 10
4913.4656832445625696
 20
2.395070082788993
 30
0.0
 40
0.8125924225439023
 50
84.034433270115116
 51
91.0962003607886714
  0
ARC
  5
3C75F
  8
0
 10
4913.1350105531673762
 20
-61.7445417485246821
 30
0.0
 40
64.9528199792164571
 50
89.7220211425535865
 51
90.2779788574464561
  0
ARC
  5
3C760
  8
0
 10
4914.4064816292948308
 20
1.9800205562254369
 30
0.0
 40
2.3622047244024298
 50
172.9157452009756071
 51
175.3156982695005865
  0
ARC
  5
3C761
  8
0
 10
4911.2332857262954349
 20
1.98002055622583
 30
0.0
 40
2.3622047243985822
 50
4.6843017304974621
 51
7.0842547990262643
  0
ARC
  5
3C762
  8
0
 10
4913.5210050704790774
 20
2.1533546710582132
 30
0.0
 40
0.0195763742752888
 50
359.6926482744116811
 51
90.0016194660857423
  0
ARC
  5
3C7B1
  8
0
 10
4912.3621590590828418
 20
1.6448282079495871
 30
0.0
 40
0.0489059141929352
 50
233.8076509168228085
 51
258.0199188863518884
  0
ARC
  5
3C7B2
  8
0
 10
4912.3356028739690373
 20
1.6085336141944591
 30
0.0
 40
0.0039333836483171
 50
149.5786621526511908
 51
233.8076509168215011
  0
ARC
  5
3C7B3
  8
0
 10
4912.3430097794253015
 20
1.6029133236107971
 30
0.0
 40
0.0132119439688604
 50
115.1296839442980939
 51
144.8202314572127989
  0
ARC
  5
3C7B4
  8
0
 10
4912.3703396219198112
 20
1.5483528586203681
 30
0.0
 40
0.074230992049513
 50
105.5069234356839019
 51
116.3438539480949032
  0
ARC
  5
3C7B5
  8
0
 10
4912.4386979713135588
 20
1.291811240649271
 30
0.0
 40
0.3397208258402868
 50
98.4456549160747869
 51
105.0485706597108049
  0
ARC
  5
3C7B6
  8
0
 10
4912.6176303269694472
 20
-0.0030580820662856
 30
0.0
 40
1.64688090698099
 50
93.1660484335227039
 51
97.9868627904235296
  0
ARC
  5
3C7B7
  8
0
 10
4913.271192814276219
 20
1.6612192012181479
 30
0.0
 40
0.0663523779187163
 50
283.811487702668785
 51
300.9488107571779096
  0
ARC
  5
3C7B8
  8
0
 10
4913.3023655977913222
 20
1.609233829613343
 30
0.0
 40
0.0057370226613741
 50
300.948810757177398
 51
354.1413191949390011
  0
ARC
  5
3C7B9
  8
0
 10
4913.3014671906676085
 20
1.6075727733566949
 30
0.0
 40
0.0066924388838081
 50
9.2473012716187721
 51
60.5494448919916479
  0
ARC
  5
3C7BA
  8
0
 10
4913.2825209055772575
 20
1.5790782812432409
 30
0.0
 40
0.0408960028898724
 50
57.061433141546047
 51
71.5424689664060338
  0
ARC
  5
3C7BB
  8
0
 10
4913.2040671850827493
 20
1.317463525298175
 30
0.0
 40
0.3140041391888988
 50
73.0771579124550925
 51
83.0500959310581663
  0
ARC
  5
3C7BC
  8
0
 10
4913.0381012264388119
 20
0.1216062182087461
 30
0.0
 40
1.5212888826893489
 50
82.2950886023869259
 51
86.0797769789379004
  0
ARC
  5
3C7BD
  8
0
 10
4912.8343307822642601
 20
-3.006105213714771
 30
0.0
 40
4.6556253188617207
 50
86.2094896184459714
 51
90.1777976929422351
  0
ARC
  5
3C7BE
  8
0
 10
4912.8092293218232953
 20
-3.2226340655919361
 30
0.0
 40
4.8721434043527267
 50
89.8747060448711181
 51
93.3246874668951705
  0
ARC
  5
3C7BF
  8
0
 10
4912.3961706336503994
 20
1.5428055192437471
 30
0.0
 40
0.0752099030109728
 50
99.7696342708419337
 51
120.5983150723948967
  0
ARC
  5
3C7C0
  8
0
 10
4912.3602371727492937
 20
1.603569761623864
 30
0.0
 40
0.0046159460145095
 50
120.5983150723946977
 51
165.5061691005597879
  0
LINE
  5
3C7C1
  8
0
 10
4912.3474427328928869
 20
1.604725021025682
 30
0.0
 11
4912.3557681310931002
 21
1.604725021025682
 31
0.0
  0
ARC
  5
3C7C2
  8
0
 10
4912.4199192679816406
 20
1.4672425253578381
 30
0.0
 40
0.1635920461847601
 50
100.9649257151705939
 51
112.0717854382859997
  0
ARC
  5
3C7C3
  8
0
 10
4912.4674904727680769
 20
1.4134253343524561
 30
0.0
 40
0.2325683100392161
 50
117.9608454770303041
 51
119.9086706389206967
  0
ARC
  5
3C7C4
  8
0
 10
4912.4017458386870203
 20
1.710935214876417
 30
0.0
 40
0.1225261887279444
 50
247.6383703205418101
 51
259.1417770935501039
  0
ARC
  5
3C7C5
  8
0
 10
4912.362693691306049
 20
1.616007212919444
 30
0.0
 40
0.0198792415228001
 50
224.3861562250538952
 51
247.6383703205414974
  0
ARC
  5
3C7C6
  8
0
 10
4912.3516994226829411
 20
1.6049003487488249
 30
0.0
 40
0.0042602990242136
 50
182.358608224687714
 51
221.0619092089067124
  0
LINE
  5
3C7C7
  8
0
 10
4912.3474427328928869
 20
1.604725021025674
 30
0.0
 11
4912.3474051663934006
 21
1.614676302625683
 31
0.0
  0
ARC
  5
3C7C8
  8
0
 10
4912.3567892253340688
 20
1.6067467930799639
 30
0.0
 40
0.0098050926886598
 50
122.4545621903768051
 51
162.4071440161064004
  0
ARC
  5
3C7C9
  8
0
 10
4912.3525565794352588
 20
1.614555568646483
 30
0.0
 40
0.0051528276733669
 50
148.5213951651705884
 51
178.6574011405253941
  0
ARC
  5
3C7CA
  8
0
 10
4912.3571668737677101
 20
1.611628868538016
 30
0.0
 40
0.0106132834271884
 50
128.9590923579580988
 51
148.0431433418654876
  0
LINE
  5
3C7CB
  8
0
 10
4912.3474427328928869
 20
1.6090437501256829
 30
0.0
 11
4912.3557681310931002
 21
1.604725021025682
 31
0.0
  0
ARC
  5
3C7CC
  8
0
 10
4913.1664445589030947
 20
1.9277963483592031
 30
0.0
 40
0.3464021299799764
 50
276.8245331770168036
 51
285.1561603837786834
  0
ARC
  5
3C7CD
  8
0
 10
4913.2429000999663913
 20
1.6455398163593431
 30
0.0
 40
0.0539740198135579
 50
285.1561603837786834
 51
301.3760747539324143
  0
ARC
  5
3C7CE
  8
0
 10
4913.2676358486878598
 20
1.604978077535655
 30
0.0
 40
0.0064649478243028
 50
301.3760747539309932
 51
341.0712538368836135
  0
ARC
  5
3C7CF
  8
0
 10
4913.2706530178738831
 20
1.6039433781363219
 30
0.0
 40
0.0032752906725065
 50
341.0712538368870241
 51
53.9095184640025877
  0
ARC
  5
3C7D0
  8
0
 10
4913.2620932893933059
 20
1.596344237595027
 30
0.0
 40
0.0146628259701843
 50
44.3279666352969031
 51
62.2145328429702502
  0
ARC
  5
3C7D1
  8
0
 10
4913.2130213215741605
 20
1.482252844610112
 30
0.0
 40
0.1388192063964001
 50
66.2507900307093394
 51
72.0238809019388668
  0
LINE
  5
3C7D6
  8
0
 10
4913.6636059381244195
 20
2.172931045325682
 30
0.0
 11
4911.9764876564649967
 21
2.172931045325682
 31
0.0
  0
ENDSEC
  0
EOF
