  0
SECTION
  2
HEADER
  9
$ACADVER
  1
AC1009
  9
$INSBASE
 10
4912.819883677641883
 20
9.6544890460352413
 30
0.0
  9
$EXTMIN
 10
4911.7604546015118103
 20
4.8355769426256803
 30
0.0
  9
$EXTMAX
 10
4913.8793127537737746
 20
10.7013759506900694
 30
0.0
  9
$LIMMIN
 10
0.0
 20
0.0
  9
$LIMMAX
 10
11.6929133858000007
 20
8.2677165353999982
  9
$ORTHOMODE
 70
     1
  9
$REGENMODE
 70
     1
  9
$FILLMODE
 70
     1
  9
$QTEXTMODE
 70
     0
  9
$MIRRTEXT
 70
     0
  9
$DRAGMODE
 70
     2
  9
$LTSCALE
 40
0.6431102362
  9
$OSMODE
 70
  2047
  9
$ATTMODE
 70
     1
  9
$TEXTSIZE
 40
0.2
  9
$TRACEWID
 40
0.05
  9
$TEXTSTYLE
  7
STANDARD
  9
$CLAYER
  8
0
  9
$CELTYPE
  6
BYLAYER
  9
$CECOLOR
 62
   256
  9
$DIMSCALE
 40
1.0
  9
$DIMASZ
 40
0.1875
  9
$DIMEXO
 40
0.0625
  9
$DIMDLI
 40
0.4443307087
  9
$DIMRND
 40
0.0
  9
$DIMDLE
 40
0.0
  9
$DIMEXE
 40
0.125
  9
$DIMTP
 40
0.01
  9
$DIMTM
 40
0.01
  9
$DIMTXT
 40
2.0
  9
$DIMCEN
 40
0.1052362205
  9
$DIMTSZ
 40
0.0
  9
$DIMTOL
 70
     1
  9
$DIMLIM
 70
     0
  9
$DIMTIH
 70
     1
  9
$DIMTOH
 70
     1
  9
$DIMSE1
 70
     0
  9
$DIMSE2
 70
     0
  9
$DIMTAD
 70
     0
  9
$DIMZIN
 70
     0
  9
$DIMBLK
  1

  9
$DIMASO
 70
     1
  9
$DIMSHO
 70
     1
  9
$DIMPOST
  1
\X
  9
$DIMAPOST
  1

  9
$DIMALT
 70
     1
  9
$DIMALTD
 70
     2
  9
$DIMALTF
 40
25.3999999999999986
  9
$DIMLFAC
 40
1.0
  9
$DIMTOFL
 70
     0
  9
$DIMTVP
 40
0.0
  9
$DIMTIX
 70
     0
  9
$DIMSOXD
 70
     0
  9
$DIMSAH
 70
     0
  9
$DIMBLK1
  1

  9
$DIMBLK2
  1

  9
$DIMSTYLE
  2
STANDARD
  9
$DIMCLRD
 70
     0
  9
$DIMCLRE
 70
     0
  9
$DIMCLRT
 70
     0
  9
$DIMTFAC
 40
1.0
  9
$DIMGAP
 40
0.09
  9
$LUNITS
 70
     2
  9
$LUPREC
 70
     4
  9
$SKETCHINC
 40
0.1
  9
$FILLETRAD
 40
0.0
  9
$AUNITS
 70
     0
  9
$AUPREC
 70
     0
  9
$MENU
  1
.
  9
$ELEVATION
 40
0.0
  9
$PELEVATION
 40
0.0
  9
$THICKNESS
 40
0.0
  9
$LIMCHECK
 70
     0
  9
$BLIPMODE
 70
     0
  9
$CHAMFERA
 40
0.0
  9
$CHAMFERB
 40
0.0
  9
$SKPOLY
 70
     0
  9
$TDCREATE
 40
2458060.468368056230247
  9
$TDUPDATE
 40
2460679.6899652779102325
  9
$TDINDWG
 40
1.0554121528
  9
$TDUSRTIMER
 40
1.0554121528
  9
$USRTIMER
 70
     1
  9
$ANGBASE
 50
0.0
  9
$ANGDIR
 70
     0
  9
$PDMODE
 70
     0
  9
$PDSIZE
 40
0.3125
  9
$PLINEWID
 40
0.0
  9
$COORDS
 70
     1
  9
$SPLFRAME
 70
     0
  9
$SPLINETYPE
 70
     6
  9
$SPLINESEGS
 70
     8
  9
$ATTDIA
 70
     1
  9
$ATTREQ
 70
     1
  9
$HANDLING
 70
     1
  9
$HANDSEED
  5
3C8EA
  9
$SURFTAB1
 70
     6
  9
$SURFTAB2
 70
     6
  9
$SURFTYPE
 70
     6
  9
$SURFU
 70
     6
  9
$SURFV
 70
     6
  9
$UCSNAME
  2

  9
$UCSORG
 10
0.0
 20
0.0
 30
0.0
  9
$UCSXDIR
 10
1.0
 20
0.0
 30
0.0
  9
$UCSYDIR
 10
0.0
 20
1.0
 30
0.0
  9
$PUCSNAME
  2

  9
$PUCSORG
 10
0.0
 20
0.0
 30
0.0
  9
$PUCSXDIR
 10
1.0
 20
0.0
 30
0.0
  9
$PUCSYDIR
 10
0.0
 20
1.0
 30
0.0
  9
$USERI1
 70
     0
  9
$USERI2
 70
     0
  9
$USERI3
 70
     0
  9
$USERI4
 70
     0
  9
$USERI5
 70
     0
  9
$USERR1
 40
0.0
  9
$USERR2
 40
0.0
  9
$USERR3
 40
0.0
  9
$USERR4
 40
0.0
  9
$USERR5
 40
0.0
  9
$WORLDVIEW
 70
     1
  9
$SHADEDGE
 70
     3
  9
$SHADEDIF
 70
    70
  9
$TILEMODE
 70
     1
  9
$MAXACTVP
 70
    64
  9
$PLIMCHECK
 70
     0
  9
$PEXTMIN
 10
1.0000000000000000E+20
 20
1.0000000000000000E+20
 30
1.0000000000000000E+20
  9
$PEXTMAX
 10
-1.0000000000000000E+20
 20
-1.0000000000000000E+20
 30
-1.0000000000000000E+20
  9
$PLIMMIN
 10
0.0
 20
0.0
  9
$PLIMMAX
 10
12.0
 20
9.0
  9
$UNITMODE
 70
     0
  9
$VISRETAIN
 70
     1
  9
$PLINEGEN
 70
     0
  9
$PSLTSCALE
 70
     1
  0
ENDSEC
  0
SECTION
  2
TABLES
  0
TABLE
  2
VPORT
 70
     1
  0
VPORT
  2
*ACTIVE
 70
     0
 10
0.0
 20
0.0
 11
1.0
 21
1.0
 12
1120.4619735213921103
 22
-112.4121799864475975
 13
0.0
 23
0.0
 14
1.0
 24
1.0
 15
0.0
 25
0.0
 16
0.0
 26
0.0
 36
5.1040778033513332
 17
3792.35791015625
 27
120.1806564331053977
 37
0.0
 40
5.9144703383246577
 41
2.6101928374655641
 42
50.0
 43
0.0
 44
0.0
 50
0.0
 51
0.0
 71
     0
 72
   100
 73
     1
 74
     1
 75
     0
 76
     0
 77
     0
 78
     0
  0
ENDTAB
  0
TABLE
  2
LTYPE
 70
     2
  0
LTYPE
  2
CONTINUOUS
 70
     0
  3
Solid line
 72
    65
 73
     0
 40
0.0
  0
LTYPE
  2
PHANTOM2
 70
     0
  3
___ _ _ ___ _ _ ___ _ _ ___ _ _
 72
    65
 73
     6
 40
1.25
 49
0.625
 49
-0.125
 49
0.125
 49
-0.125
 49
0.125
 49
-0.125
  0
ENDTAB
  0
TABLE
  2
LAYER
 70
     2
  0
LAYER
  2
0
 70
     0
 62
   255
  6
CONTINUOUS
  0
LAYER
  2
DEFPOINTS
 70
     0
 62
     7
  6
CONTINUOUS
  0
ENDTAB
  0
TABLE
  2
STYLE
 70
     1
  0
STYLE
  2
STANDARD
 70
     0
 40
0.0
 41
0.8
 50
0.0
 71
     0
 42
0.2
  3
txt
  4

  0
ENDTAB
  0
TABLE
  2
VIEW
 70
     0
  0
ENDTAB
  0
TABLE
  2
UCS
 70
     0
  0
ENDTAB
  0
TABLE
  2
APPID
 70
    11
  0
APPID
  2
ACAD
 70
     0
  0
APPID
  2
ACAD_MLEADERVER
 70
     0
  0
APPID
  2
ACAD_EXEMPT_FROM_CAD_STANDARDS
 70
     0
  0
APPID
  2
ACAD_NAV_VCDISPLAY
 70
     0
  0
APPID
  2
ACAECLAYERSTANDARD
 70
     0
  0
APPID
  2
ACCMTRANSPARENCY
 70
     0
  0
APPID
  2
ACAD_DSTYLE_DIMJAG
 70
     0
  0
APPID
  2
ACAD_DSTYLE_DIMTALN
 70
     0
  0
APPID
  2
ACDBATTR
 70
     0
  0
APPID
  2
GRADIENTCOLOR1ACI
 70
     0
  0
APPID
  2
GRADIENTCOLOR2ACI
 70
     0
  0
ENDTAB
  0
TABLE
  2
DIMSTYLE
 70
     1
  0
DIMSTYLE
  2
STANDARD
 70
     0
  3

  4

  5

  6

  7

 40
1.0
 41
0.1875
 42
0.0625
 43
0.38
 44
0.125
 45
0.0
 46
0.0
 47
0.01
 48
0.01
140
0.15625
141
0.09
142
0.0
143
25.3999999999999986
144
1.0
145
0.0
146
1.0
147
0.09
 71
     1
 72
     0
 73
     1
 74
     1
 75
     0
 76
     0
 77
     0
 78
     4
170
     0
171
     2
172
     0
173
     0
174
     0
175
     0
176
     0
177
     0
178
     0
  0
ENDTAB
  0
ENDSEC
  0
SECTION
  2
BLOCKS
  0
BLOCK
  8
0
  2
$MODEL_SPACE
 70
     0
 10
0.0
 20
0.0
 30
0.0
  3
$MODEL_SPACE
  1

  0
ENDBLK
  5
21
  8
0
  0
BLOCK
 67
     1
  8
0
  2
$PAPER_SPACE
 70
     0
 10
0.0
 20
0.0
 30
0.0
  3
$PAPER_SPACE
  1

  0
ENDBLK
  5
1D
 67
     1
  8
0
  0
ENDSEC
  0
SECTION
  2
ENTITIES
  0
LINE
  5
3C792
  8
0
 10
4912.0043146570360477
 20
8.5735546749336429
 30
0.0
 11
4911.8821236033618334
 21
8.573558404082366
 31
0.0
  0
ARC
  5
3C793
  8
0
 10
4911.8821273179710261
 20
8.6952728822241543
 30
0.0
 40
0.1217144781984714
 50
181.5009568874444881
 51
269.9982513878832151
  0
ARC
  5
3C794
  8
0
 10
4911.8800907612330775
 20
10.5817236744764802
 30
0.0
 40
0.119652276213589
 50
89.6337908661411547
 51
172.3442489012327883
  0
LINE
  5
3C795
  8
0
 10
4911.8808555201403578
 20
10.7013735067256803
 30
0.0
 11
4913.7588627108461878
 21
10.7013735066823692
 31
0.0
  0
ARC
  5
3C796
  8
0
 10
4912.0755924711584157
 20
10.3865043126105991
 30
0.0
 40
0.1187106690201463
 50
87.7853231737180693
 51
181.3699090287564104
  0
LINE
  5
3C797
  8
0
 10
4912.0801798998918457
 20
10.5051263107256805
 30
0.0
 11
4913.5595874557020579
 21
10.5051263105875208
 31
0.0
  0
ARC
  5
3C798
  8
0
 10
1585197.8494723790790886
 20
41390.2707452401227783
 30
0.0
 40
1580827.5672154219355434
 50
181.4999508929230956
 51
181.5001479156937023
  0
ARC
  5
3C799
  8
0
 10
4912.2172554619919538
 20
4.9536871788256862
 30
0.0
 40
0.1181102362000055
 50
182.0104528444965979
 51
270.0
  0
LINE
  5
3C79A
  8
0
 10
4913.6354307911224168
 20
8.5735546389485755
 30
0.0
 11
4913.7588008123821055
 21
8.573558404082366
 31
0.0
  0
ARC
  5
3C79B
  8
0
 10
4913.7596048265686477
 20
8.693286279901935
 30
0.0
 40
0.119730575406118
 50
269.6152447635774934
 51
358.8855545643295955
  0
ARC
  5
3C79C
  8
0
 10
4913.7588196617261929
 20
10.5795398867083694
 30
0.0
 40
0.1218336275795661
 50
8.5073093451110395
 51
89.9797549086672745
  0
ARC
  5
3C79D
  8
0
 10
4913.5641880459133972
 20
10.3865176694286205
 30
0.0
 40
0.1186978314369803
 50
358.6234935557773156
 51
92.2212743157362667
  0
ARC
  5
3C79E
  8
0
 10
170565.3427558710100129
 20
-4330.2210105218073295
 30
0.0
 40
165708.5190266107092611
 50
178.4990103167532141
 51
178.5008898781223934
  0
ARC
  5
3C79F
  8
0
 10
4913.4225118936001309
 20
4.9536871788088153
 30
0.0
 40
0.1181102361831314
 50
269.9999999931213779
 51
357.9869819849574242
  0
LINE
  5
3C7A0
  8
0
 10
4912.2172554619919538
 20
4.8355769426256821
 30
0.0
 11
4913.4225118935846695
 21
4.8355769426256829
 31
0.0
  0
ARC
  5
3C7A2
  8
0
 10
4912.6742143864930767
 20
10.5034711801256808
 30
0.0
 40
0.0236220472000006
 50
107.0762551759920029
 51
175.9821534146917088
  0
ARC
  5
3C7A3
  8
0
 10
4912.8198837426862156
 20
10.0292663621330007
 30
0.0
 40
0.5196964072926852
 50
90.0000071544188813
 51
107.0762551759920029
  0
ARC
  5
3C7A4
  8
0
 10
4912.8198837426862156
 20
10.0292672261710401
 30
0.0
 40
0.5196955432546422
 50
72.9237305225665438
 51
90.0000071544188813
  0
ARC
  5
3C7A5
  8
0
 10
4912.9655529611445672
 20
10.5034711741062097
 30
0.0
 40
0.0236220553080754
 50
4.0178597634122859
 51
72.9237305225664443
  0
LINE
  5
3C7A6
  8
0
 10
4912.9216440614036401
 20
10.5056556827718097
 30
0.0
 11
4912.9550506810701336
 21
10.5056556827779595
 31
0.0
  0
ARC
  5
3C7A7
  8
0
 10
4912.8885258062600769
 20
10.5034637754100295
 30
0.0
 40
0.0331907107738332
 50
2.871168737120215
 51
3.786556652410733
  0
ARC
  5
3C7A8
  8
0
 10
4912.9218293747244388
 20
10.5034585838341101
 30
0.0
 40
0.0332938799053689
 50
2.871209732543182
 51
3.783759776837722
  0
ARC
  5
3C7A9
  8
0
 10
4912.1896157713663342
 20
6.3730887961317899
 30
0.0
 40
0.1200204773411379
 50
181.5197975670047867
 51
270.0067586633397241
  0
LINE
  5
3C7AA
  8
0
 10
4912.1896157713663342
 20
6.2530683187906533
 30
0.0
 11
4913.4501678654251009
 21
6.2530790596300392
 31
0.0
  0
LINE
  5
3C7AB
  8
0
 10
4913.5746682464641708
 20
6.2530683187904499
 30
0.0
 11
4913.5746881097320511
 21
6.2530683187906533
 31
0.0
  0
ARC
  5
3C7AC
  8
0
 10
4913.4530642768659163
 20
6.370108962186606
 30
0.0
 40
0.1170657391879939
 50
268.5822573839893153
 51
359.9004530893668061
  0
LINE
  5
3C7AD
  8
0
 10
4912.0684594470521915
 20
6.3698744611367193
 30
0.0
 11
4911.9597129328940355
 21
10.3825088130557006
 31
0.0
  0
LINE
  5
3C7AE
  8
0
 10
4913.5701298393641991
 20
6.3699055697467317
 30
0.0
 11
4913.6800591607916431
 21
10.3837394027256806
 31
0.0
  0
ARC
  5
3C7AF
  8
0
 10
4912.080028482331727
 20
10.3847892470661893
 30
0.0
 40
0.1203371589221922
 50
89.9279059807238923
 51
181.0858409755589093
  0
ARC
  5
3C7B0
  8
0
 10
4913.559782928497043
 20
10.3848451544057792
 30
0.0
 40
0.1202813150162078
 50
359.4732698352951843
 51
90.0931131414302655
  0
LINE
  5
3C7D5
  8
0
 10
4911.7615050199119651
 20
10.5976638488400798
 30
0.0
 11
4911.7615050199119651
 21
10.4875561787849403
 31
0.0
  0
LINE
  5
3C7D7
  8
0
 10
4913.8793127537737746
 20
8.6909575781912185
 30
0.0
 11
4913.8793127537737746
 21
10.5975634151647302
 31
0.0
  0
LINE
  5
3C7D8
  8
0
 10
4911.7604546015118103
 20
8.6920847365834462
 30
0.0
 11
4911.7604546015118103
 21
10.5975634151647302
 31
0.0
  0
ATTDEF
  5
3C7DC
  8
DEFPOINTS
 10
4912.8199825828542089
 20
9.6579160105492328
 30
0.0
 40
0.001
  1
K-37889-4
  3

  2
MODELNUMBER
 70
     0
1001
ACDBATTR
1070
     0
1070
     1
  0
ATTDEF
  5
3C7DD
  8
DEFPOINTS
 10
4912.8199825828542089
 20
9.6562493438825676
 30
0.0
 40
0.001
  1
HONESTY
  3

  2
TRADENAME
 70
     0
1001
ACDBATTR
1070
     0
1070
     1
  0
ATTDEF
  5
3C7DE
  8
DEFPOINTS
 10
4912.8199825828542089
 20
9.6545826772159025
 30
0.0
 40
0.001
  1
BATHROOM SINK FAUCET
  3

  2
PRODUCT
 70
     0
1001
ACDBATTR
1070
     0
1070
     1
  0
ENDSEC
  0
EOF
