  0
SECTION
  2
HEADER
  9
$ACADVER
  1
AC1009
  9
$INSBASE
 10
4474.5420301893936994
 20
266.8108014142848106
 30
0.0
  9
$EXTMIN
 10
4469.7388805830933052
 20
266.8055647916572752
 30
0.0
  9
$EXTMAX
 10
4475.6046484882936056
 20
272.7170927527847084
 30
0.0
  9
$LIMMIN
 10
0.0
 20
0.0
  9
$LIMMAX
 10
11.6929133858000007
 20
8.2677165353999982
  9
$ORTHOMODE
 70
     0
  9
$REGENMODE
 70
     1
  9
$FILLMODE
 70
     1
  9
$QTEXTMODE
 70
     0
  9
$MIRRTEXT
 70
     0
  9
$DRAGMODE
 70
     2
  9
$LTSCALE
 40
0.6431102362
  9
$OSMODE
 70
  4095
  9
$ATTMODE
 70
     1
  9
$TEXTSIZE
 40
0.2
  9
$TRACEWID
 40
0.05
  9
$TEXTSTYLE
  7
STANDARD
  9
$CLAYER
  8
0
  9
$CELTYPE
  6
BYLAYER
  9
$CECOLOR
 62
   256
  9
$DIMSCALE
 40
1.0
  9
$DIMASZ
 40
0.1875
  9
$DIMEXO
 40
0.0625
  9
$DIMDLI
 40
0.4443307087
  9
$DIMRND
 40
0.0
  9
$DIMDLE
 40
0.0
  9
$DIMEXE
 40
0.125
  9
$DIMTP
 40
0.01
  9
$DIMTM
 40
0.01
  9
$DIMTXT
 40
2.0
  9
$DIMCEN
 40
0.1052362205
  9
$DIMTSZ
 40
0.0
  9
$DIMTOL
 70
     1
  9
$DIMLIM
 70
     0
  9
$DIMTIH
 70
     1
  9
$DIMTOH
 70
     1
  9
$DIMSE1
 70
     0
  9
$DIMSE2
 70
     0
  9
$DIMTAD
 70
     0
  9
$DIMZIN
 70
     0
  9
$DIMBLK
  1

  9
$DIMASO
 70
     1
  9
$DIMSHO
 70
     1
  9
$DIMPOST
  1
\X
  9
$DIMAPOST
  1

  9
$DIMALT
 70
     1
  9
$DIMALTD
 70
     2
  9
$DIMALTF
 40
25.3999999999999986
  9
$DIMLFAC
 40
1.0
  9
$DIMTOFL
 70
     0
  9
$DIMTVP
 40
0.0
  9
$DIMTIX
 70
     0
  9
$DIMSOXD
 70
     0
  9
$DIMSAH
 70
     0
  9
$DIMBLK1
  1

  9
$DIMBLK2
  1

  9
$DIMSTYLE
  2
STANDARD
  9
$DIMCLRD
 70
     0
  9
$DIMCLRE
 70
     0
  9
$DIMCLRT
 70
     0
  9
$DIMTFAC
 40
1.0
  9
$DIMGAP
 40
0.09
  9
$LUNITS
 70
     2
  9
$LUPREC
 70
     4
  9
$SKETCHINC
 40
0.1
  9
$FILLETRAD
 40
0.0
  9
$AUNITS
 70
     0
  9
$AUPREC
 70
     0
  9
$MENU
  1
.
  9
$ELEVATION
 40
0.0
  9
$PELEVATION
 40
0.0
  9
$THICKNESS
 40
0.0
  9
$LIMCHECK
 70
     0
  9
$BLIPMODE
 70
     0
  9
$CHAMFERA
 40
0.0
  9
$CHAMFERB
 40
0.0
  9
$SKPOLY
 70
     0
  9
$TDCREATE
 40
2458060.468368056230247
  9
$TDUPDATE
 40
2460619.5523263881914318
  9
$TDINDWG
 40
0.6755857639
  9
$TDUSRTIMER
 40
0.6755857639
  9
$USRTIMER
 70
     1
  9
$ANGBASE
 50
0.0
  9
$ANGDIR
 70
     0
  9
$PDMODE
 70
     0
  9
$PDSIZE
 40
0.3125
  9
$PLINEWID
 40
0.0
  9
$COORDS
 70
     1
  9
$SPLFRAME
 70
     0
  9
$SPLINETYPE
 70
     6
  9
$SPLINESEGS
 70
     8
  9
$ATTDIA
 70
     1
  9
$ATTREQ
 70
     1
  9
$HANDLING
 70
     1
  9
$HANDSEED
  5
21836
  9
$SURFTAB1
 70
     6
  9
$SURFTAB2
 70
     6
  9
$SURFTYPE
 70
     6
  9
$SURFU
 70
     6
  9
$SURFV
 70
     6
  9
$UCSNAME
  2

  9
$UCSORG
 10
0.0
 20
0.0
 30
0.0
  9
$UCSXDIR
 10
1.0
 20
0.0
 30
0.0
  9
$UCSYDIR
 10
0.0
 20
1.0
 30
0.0
  9
$PUCSNAME
  2

  9
$PUCSORG
 10
0.0
 20
0.0
 30
0.0
  9
$PUCSXDIR
 10
1.0
 20
0.0
 30
0.0
  9
$PUCSYDIR
 10
0.0
 20
1.0
 30
0.0
  9
$USERI1
 70
     0
  9
$USERI2
 70
     0
  9
$USERI3
 70
     0
  9
$USERI4
 70
     0
  9
$USERI5
 70
     0
  9
$USERR1
 40
0.0
  9
$USERR2
 40
0.0
  9
$USERR3
 40
0.0
  9
$USERR4
 40
0.0
  9
$USERR5
 40
0.0
  9
$WORLDVIEW
 70
     1
  9
$SHADEDGE
 70
     3
  9
$SHADEDIF
 70
    70
  9
$TILEMODE
 70
     1
  9
$MAXACTVP
 70
    64
  9
$PLIMCHECK
 70
     0
  9
$PEXTMIN
 10
1.0000000000000000E+20
 20
1.0000000000000000E+20
 30
1.0000000000000000E+20
  9
$PEXTMAX
 10
-1.0000000000000000E+20
 20
-1.0000000000000000E+20
 30
-1.0000000000000000E+20
  9
$PLIMMIN
 10
0.0
 20
0.0
  9
$PLIMMAX
 10
12.0
 20
9.0
  9
$UNITMODE
 70
     0
  9
$VISRETAIN
 70
     1
  9
$PLINEGEN
 70
     0
  9
$PSLTSCALE
 70
     1
  0
ENDSEC
  0
SECTION
  2
TABLES
  0
TABLE
  2
VPORT
 70
     1
  0
VPORT
  2
*ACTIVE
 70
     0
 10
0.0
 20
0.0
 11
1.0
 21
1.0
 12
561.3064080903817512
 22
137.1817236696819009
 13
0.0
 23
0.0
 14
1.0
 24
1.0
 15
0.0
 25
0.0
 16
0.0
 26
0.0
 36
60.4960186965801583
 17
3911.3653564453120453
 27
132.5796051025390057
 37
0.0
 40
5.9599149974873518
 41
2.558981233243967
 42
50.0
 43
0.0
 44
0.0
 50
0.0
 51
0.0
 71
     0
 72
   100
 73
     1
 74
     1
 75
     0
 76
     0
 77
     0
 78
     0
  0
ENDTAB
  0
TABLE
  2
LTYPE
 70
     2
  0
LTYPE
  2
CONTINUOUS
 70
     0
  3
Solid line
 72
    65
 73
     0
 40
0.0
  0
LTYPE
  2
PHANTOM2
 70
     0
  3
___ _ _ ___ _ _ ___ _ _ ___ _ _
 72
    65
 73
     6
 40
1.25
 49
0.625
 49
-0.125
 49
0.125
 49
-0.125
 49
0.125
 49
-0.125
  0
ENDTAB
  0
TABLE
  2
LAYER
 70
     2
  0
LAYER
  2
0
 70
     0
 62
   255
  6
CONTINUOUS
  0
LAYER
  2
DEFPOINTS
 70
     0
 62
     7
  6
CONTINUOUS
  0
ENDTAB
  0
TABLE
  2
STYLE
 70
     1
  0
STYLE
  2
STANDARD
 70
     0
 40
0.0
 41
0.8
 50
0.0
 71
     0
 42
0.2
  3
txt
  4

  0
ENDTAB
  0
TABLE
  2
VIEW
 70
     1
  0
ENDTAB
  0
TABLE
  2
UCS
 70
     0
  0
ENDTAB
  0
TABLE
  2
APPID
 70
    11
  0
APPID
  2
ACAD
 70
     0
  0
APPID
  2
ACAD_MLEADERVER
 70
     0
  0
APPID
  2
ACAD_EXEMPT_FROM_CAD_STANDARDS
 70
     0
  0
APPID
  2
ACAD_NAV_VCDISPLAY
 70
     0
  0
APPID
  2
ACAECLAYERSTANDARD
 70
     0
  0
APPID
  2
ACCMTRANSPARENCY
 70
     0
  0
APPID
  2
ACAD_DSTYLE_DIMJAG
 70
     0
  0
APPID
  2
ACAD_DSTYLE_DIMTALN
 70
     0
  0
APPID
  2
ACDBATTR
 70
     0
  0
APPID
  2
ACADANNOTATIVE
 70
     0
  0
APPID
  2
DCO15
 70
     0
  0
ENDTAB
  0
TABLE
  2
DIMSTYLE
 70
     1
  0
DIMSTYLE
  2
STANDARD
 70
     0
  3

  4

  5

  6

  7

 40
1.0
 41
0.1875
 42
0.0625
 43
0.38
 44
0.125
 45
0.0
 46
0.0
 47
0.01
 48
0.01
140
0.15625
141
0.09
142
0.0
143
25.3999999999999986
144
1.0
145
0.0
146
1.0
147
0.09
 71
     1
 72
     0
 73
     1
 74
     1
 75
     0
 76
     0
 77
     0
 78
     4
170
     0
171
     2
172
     0
173
     0
174
     0
175
     0
176
     0
177
     0
178
     0
  0
ENDTAB
  0
ENDSEC
  0
SECTION
  2
BLOCKS
  0
BLOCK
  8
0
  2
$MODEL_SPACE
 70
     0
 10
0.0
 20
0.0
 30
0.0
  3
$MODEL_SPACE
  1

  0
ENDBLK
  5
21
  8
0
  0
BLOCK
 67
     1
  8
0
  2
$PAPER_SPACE
 70
     0
 10
0.0
 20
0.0
 30
0.0
  3
$PAPER_SPACE
  1

  0
ENDBLK
  5
1D
 67
     1
  8
0
  0
BLOCK
  8
0
  2
_FILLED
 70
     0
 10
0.0
 20
0.0
 30
0.0
  3
_FILLED
  1

  0
SOLID
  5
20CCE
  8
0
  6
BYBLOCK
 62
     0
 10
0.0
 20
0.0
 30
0.0
 11
-1.0
 21
0.1666666667
 31
0.0
 12
-1.0
 22
-0.1666666667
 32
0.0
 13
-1.0
 23
-0.1666666667
 33
0.0
  0
ENDBLK
  5
20CCF
  8
0
  6
BYBLOCK
 62
     0
  0
ENDSEC
  0
SECTION
  2
ENTITIES
  0
ATTDEF
  5
20106
  8
DEFPOINTS
 10
4474.5349788931443982
 20
266.8088981249906055
 30
0.0
 40
0.001
  1
K-37890-4N
  3

  2
MODELNUMBER
 70
     0
1001
ACDBATTR
1070
     0
1070
     1
  0
ATTDEF
  5
20107
  8
DEFPOINTS
 10
4474.5348530834871781
 20
266.8072312846114755
 30
0.0
 40
0.001
  1
HONESTY
  3

  2
TRADENAME
 70
     0
1001
ACDBATTR
1070
     0
1070
     1
  0
ATTDEF
  5
20108
  8
DEFPOINTS
 10
4474.5349788931443982
 20
266.8055647916572752
 30
0.0
 40
0.001
  1
BATHROOM SINK FAUCET
  3

  2
PRODUCT
 70
     0
1001
ACDBATTR
1070
     0
1070
     1
  0
LINE
  5
2177B
  8
0
 10
4473.4794118904947027
 20
266.8108014142848106
 30
0.0
 11
4475.6046484882936056
 21
266.8108014142848106
 31
0.0
  0
LINE
  5
2177C
  8
0
 10
4473.5012136307313995
 20
266.9808801543848062
 30
0.0
 11
4475.5828467480587278
 21
266.9808801543848062
 31
0.0
  0
LINE
  5
2177D
  8
0
 10
4473.6758884570936061
 20
271.646226611084785
 30
0.0
 11
4474.577831977758251
 21
271.646226611084785
 31
0.0
  0
LINE
  5
2177E
  8
0
 10
4469.7588805830946512
 20
271.5478092882847818
 30
0.0
 11
4475.3884719216948724
 21
271.5478092882847818
 31
0.0
  0
LINE
  5
2177F
  8
0
 10
4471.177197805391188
 20
272.7170927527847084
 30
0.0
 11
4475.3825248849207128
 21
272.7170927527847084
 31
0.0
  0
LINE
  5
21780
  8
0
 10
4471.2107798922670554
 20
272.7113781774692143
 30
0.0
 11
4475.3825749157749669
 21
272.7113781774692143
 31
0.0
  0
LINE
  5
21781
  8
0
 10
4471.1571985669297646
 20
272.6972672835048002
 30
0.0
 11
4471.1563719600753757
 21
272.6025475252072852
 31
0.0
  0
ARC
  5
21782
  8
0
 10
4471.177197805391188
 20
272.6970927527847834
 30
0.0
 40
0.02
 50
90.0
 51
179.4999999713566865
  0
ARC
  5
21783
  8
0
 10
4471.2126364418472804
 20
273.1240267524624983
 30
0.0
 40
0.412652751378657
 50
265.2966903291945755
 51
269.7422219676611803
  0
ARC
  5
21784
  8
0
 10
4471.1771606127067571
 20
272.6928308934583924
 30
0.0
 40
0.02
 50
85.2966903291946181
 51
179.4999999713566865
  0
LINE
  5
21785
  8
0
 10
4471.175498810787758
 20
272.5823920300557006
 30
0.0
 11
4473.5567025739192104
 21
272.4784264285086124
 31
0.0
  0
ARC
  5
21786
  8
0
 10
4471.1763711985358896
 20
272.6023729944873253
 30
0.0
 40
0.02
 50
179.4999999713566865
 51
267.500000000190596
  0
LINE
  5
21787
  8
0
 10
4473.6696466273851911
 20
272.3614694374028886
 30
0.0
 11
4473.6758884570936061
 21
271.646226611084785
 31
0.0
  0
ARC
  5
21788
  8
0
 10
4473.5515511242720095
 20
272.3604388335397744
 30
0.0
 40
0.1181
 50
0.5000000100750848
 51
87.5000000001905818
  0
ARC
  5
21789
  8
0
 10
4476.1679982195955745
 20
271.354898799184582
 30
0.0
 40
2.3622047244016668
 50
172.9149407865986916
 51
175.3156982690906034
  0
LINE
  5
2178A
  8
0
 10
4475.4025241184717743
 20
272.6972678451920729
 30
0.0
 11
4475.4084299511951031
 21
272.0226976011848024
 31
0.0
  0
LINE
  5
2178B
  8
0
 10
4475.4084299511951031
 20
272.0226976011848024
 30
0.0
 11
4474.6251961393772945
 21
271.6574696766766124
 31
0.0
  0
ARC
  5
2178C
  8
0
 10
4474.5742406339522859
 20
271.7667441107197988
 30
0.0
 40
0.1205709976263125
 50
271.7068721823177953
 51
294.9999999958961894
  0
LINE
  5
2178D
  8
0
 10
4475.4047288534720792
 20
272.4454407620817165
 30
0.0
 11
4475.4067748205943644
 21
272.445439209484789
 31
0.0
  0
ARC
  5
2178E
  8
0
 10
4475.4067568764048701
 20
272.4217928783385219
 30
0.0
 40
0.0236463379548334
 50
17.1197343789332912
 51
89.9565206922290912
  0
ARC
  5
2178F
  8
0
 10
4474.933909938547913
 20
272.2761478709148264
 30
0.0
 40
0.5184156729258862
 50
342.88026528083941
 51
17.1197343789332912
  0
ARC
  5
21790
  8
0
 10
4475.4067559037794126
 20
272.1305031600027746
 30
0.0
 40
0.023647354770069
 50
272.2710780302924718
 51
342.88026528083941
  0
LINE
  5
21791
  8
0
 10
4475.4293554848936765
 20
272.4287536392902211
 30
0.0
 11
4475.4293554839887292
 21
272.1235420995975005
 31
0.0
  0
ARC
  5
21792
  8
0
 10
4475.3825749157749669
 20
272.6913781774691756
 30
0.0
 40
0.02
 50
0.5016092059066655
 51
90.0
  0
ARC
  5
21793
  8
0
 10
4475.3825248849207128
 20
272.6970927527847834
 30
0.0
 40
0.02
 50
0.5016092059034087
 51
90.0
  0
ARC
  5
21794
  8
0
 10
4472.9948023166953135
 20
271.3548987991849231
 30
0.0
 40
2.3622047243996191
 50
4.6843017309060739
 51
14.8862090877023192
  0
LINE
  5
21795
  8
0
 10
4469.7388805830951242
 20
271.5278092882848
 30
0.0
 11
4469.7388805830951242
 21
271.0543892503802113
 31
0.0
  0
ARC
  5
21796
  8
0
 10
4469.7588805830946512
 20
271.5278092882848
 30
0.0
 40
0.02
 50
90.0
 51
180.0
  0
LINE
  5
21797
  8
0
 10
4469.7572070726591846
 20
271.0344593892962735
 30
0.0
 11
4473.3872462464487398
 21
270.7296449998735284
 31
0.0
  0
ARC
  5
21798
  8
0
 10
4469.7588805830946512
 20
271.0543892503802113
 30
0.0
 40
0.02
 50
179.9999999999967031
 51
265.2001334843968721
  0
LINE
  5
21799
  8
0
 10
4469.9123761017872312
 20
271.0214298459205224
 30
0.0
 11
4469.9188418538951737
 21
271.0169360533848248
 31
0.0
  0
LINE
  5
2179A
  8
0
 10
4469.9188418538951737
 20
271.0169360533848248
 30
0.0
 11
4470.8080353695258964
 21
270.942270473843223
 31
0.0
  0
ARC
  5
2179B
  8
0
 10
4470.8131336659498629
 20
270.9418708588739264
 30
0.0
 40
0.0051139337634341
 50
125.3546939598517014
 51
175.5182022046581949
  0
LINE
  5
2179C
  8
0
 10
4469.9946577132932362
 20
271.0105697956681752
 30
0.0
 11
4469.9883985207270598
 21
270.9360289766588039
 31
0.0
  0
ARC
  5
2179D
  8
0
 10
4470.0276305307279472
 20
270.9327346647818899
 30
0.0
 40
0.0393700787341687
 50
175.2001334887536075
 51
265.2001334052243919
  0
LINE
  5
2179E
  8
0
 10
4470.0243362187939056
 20
270.8935026547848111
 30
0.0
 11
4470.6834339868191819
 21
270.8381582142866932
 31
0.0
  0
ARC
  5
2179F
  8
0
 10
4470.6867282987495855
 20
270.8773902242497797
 30
0.0
 40
0.0393700786999994
 50
265.2001334052243919
 51
355.200134816316222
  0
LINE
  5
217A0
  8
0
 10
4470.7259603087941287
 20
270.8740959132848047
 30
0.0
 11
4470.7322194996340841
 21
270.9486367324410026
 31
0.0
  0
LINE
  5
217A1
  8
0
 10
4470.3130838124461661
 20
270.8692565189440984
 30
0.0
 11
4470.3118079576888704
 21
270.8157612001143093
 31
0.0
  0
ARC
  5
217A2
  8
0
 10
4470.3180286863589572
 20
270.8157003139925223
 30
0.0
 40
0.0062210266266956
 50
179.4392286493576876
 51
263.2216269697236157
  0
LINE
  5
217A3
  8
0
 10
4470.3946863933006171
 20
270.8624043506243879
 30
0.0
 11
4470.3870198893109773
 21
270.8094452799205101
 31
0.0
  0
ARC
  5
217A4
  8
0
 10
4470.3808816371392822
 20
270.8104198842698906
 30
0.0
 40
0.0062151422642885
 50
264.4853621780966932
 51
350.9781409126359222
  0
LINE
  5
217A5
  8
0
 10
4470.2127311874319275
 20
270.877565894210079
 30
0.0
 11
4470.2114553326764508
 21
270.8240705753801763
 31
0.0
  0
LINE
  5
217A6
  8
0
 10
4470.6428036995230286
 20
270.7821897639694839
 30
0.0
 11
4470.0550746535782309
 21
270.8315413605525919
 31
0.0
  0
ARC
  5
217A7
  8
0
 10
4470.0555767065943655
 20
270.8375203188874139
 30
0.0
 40
0.006
 50
178.6337638734509028
 51
265.2001345884193029
  0
ARC
  5
217A8
  8
0
 10
4470.2174536269576492
 20
270.8239275170255951
 30
0.0
 40
0.006
 50
178.6337638734509028
 51
265.2001345884193029
  0
LINE
  5
217A9
  8
0
 10
4470.2943337682863785
 20
270.8707137258904254
 30
0.0
 11
4470.2866672642958292
 21
270.817754655186377
 31
0.0
  0
ARC
  5
217AA
  8
0
 10
4470.280729161934687
 20
270.8186142715815095
 30
0.0
 40
0.006
 50
265.2001345884193029
 51
351.7629232541074202
  0
LINE
  5
217AB
  8
0
 10
4470.2092612862343231
 20
270.8778572620681189
 30
0.0
 11
4470.2015947822446833
 21
270.8248981913641842
 31
0.0
  0
ARC
  5
217AC
  8
0
 10
4470.1956566773033046
 20
270.8257578092421909
 30
0.0
 40
0.0060000027671789
 50
265.200160336897909
 51
351.7629127701387119
  0
LINE
  5
217AD
  8
0
 10
4470.0508542671414034
 20
270.8911586991736158
 30
0.0
 11
4470.0495784123113481
 21
270.837663377241995
 31
0.0
  0
LINE
  5
217AE
  8
0
 10
4470.1324568479958543
 20
270.8843065308539053
 30
0.0
 11
4470.1247903440062146
 21
270.8313474601500275
 31
0.0
  0
ARC
  5
217AF
  8
0
 10
4470.1188522363354423
 20
270.832207079596003
 30
0.0
 40
0.0060000056929572
 50
265.2001875611529158
 51
351.7629016853196049
  0
LINE
  5
217B0
  8
0
 10
4470.0708150903183196
 20
270.8894825888236255
 30
0.0
 11
4470.0695392355619333
 21
270.8359872699937227
 31
0.0
  0
ARC
  5
217B1
  8
0
 10
4470.0755375348244343
 20
270.8358442134779125
 30
0.0
 40
0.0060000049321833
 50
178.63378256076561
 51
265.2000886933591914
  0
LINE
  5
217B2
  8
0
 10
4470.1524176711727705
 20
270.882630420503915
 30
0.0
 11
4470.1447511671840402
 21
270.8296713497999804
 31
0.0
  0
ARC
  5
217B3
  8
0
 10
4470.1388130602208548
 20
270.8305309688385023
 30
0.0
 40
0.0060000049325735
 50
265.2001804858293781
 51
351.7629045661589089
  0
LINE
  5
217B4
  8
0
 10
4470.4134308565935498
 20
270.8607131424527097
 30
0.0
 11
4470.4121550018371636
 21
270.8072178236228069
 31
0.0
  0
ARC
  5
217B5
  8
0
 10
4470.418153296122
 20
270.8070747652682257
 30
0.0
 40
0.006
 50
178.6337638734509028
 51
265.1306135729666948
  0
LINE
  5
217B6
  8
0
 10
4470.4950334374480008
 20
270.8538609741329992
 30
0.0
 11
4470.4873669334592705
 21
270.8009019034291214
 31
0.0
  0
ARC
  5
217B7
  8
0
 10
4470.4814288310990378
 20
270.801761519824197
 30
0.0
 40
0.006
 50
265.2696555979173922
 51
351.7629232541074202
  0
LINE
  5
217B8
  8
0
 10
4470.4985033385946736
 20
270.8535696060206988
 30
0.0
 11
4470.4972274838382873
 21
270.800074287190796
 31
0.0
  0
ARC
  5
217B9
  8
0
 10
4470.5032257781222143
 20
270.7999312288362717
 30
0.0
 40
0.006
 50
178.6337638734509028
 51
265.1179010271757761
  0
LINE
  5
217BA
  8
0
 10
4470.5553469536944249
 20
270.8487964477092191
 30
0.0
 11
4470.5540710989380386
 21
270.7953011288793164
 31
0.0
  0
ARC
  5
217BB
  8
0
 10
4470.5600693932210561
 20
270.7951580705246784
 30
0.0
 40
0.006
 50
178.6337638734509028
 51
265.1111822864675105
  0
LINE
  5
217BC
  8
0
 10
4470.6369495345488758
 20
270.8419442793895087
 30
0.0
 11
4470.6292830305592361
 21
270.7889852086855171
 31
0.0
  0
ARC
  5
217BD
  8
0
 10
4470.6233449281980938
 20
270.789844825080479
 30
0.0
 40
0.006
 50
265.2890868903807018
 51
351.7629232541074202
  0
LINE
  5
217BE
  8
0
 10
4470.5753077768113144
 20
270.8471203364741768
 30
0.0
 11
4470.5740319220540187
 21
270.7936250176442741
 31
0.0
  0
ARC
  5
217BF
  8
0
 10
4470.5800302163379456
 20
270.7934819592898066
 30
0.0
 40
0.006
 50
178.6337638734509028
 51
265.1035132719421767
  0
LINE
  5
217C0
  8
0
 10
4470.6569103576639463
 20
270.8402681681545801
 30
0.0
 11
4470.6492438549003055
 21
270.7873091059092872
 31
0.0
  0
ARC
  5
217C1
  8
0
 10
4470.6433057525373442
 20
270.7881687223043059
 30
0.0
 40
0.006
 50
265.2001345884193029
 51
351.7629232541074202
  0
LINE
  5
217C2
  8
0
 10
4473.6758884570936061
 20
270.4157496878023039
 30
0.0
 11
4473.6758884570936061
 21
266.9808801543848062
 31
0.0
  0
ARC
  5
217C3
  8
0
 10
4473.3608884570949158
 20
270.4157496878023039
 30
0.0
 40
0.315
 50
0.0
 51
85.2001334843969289
  0
ARC
  5
217C4
  8
0
 10
4475.3884719216948724
 20
271.5281092882847815
 30
0.0
 40
0.0197
 50
359.9999999999935199
 51
90.0
  0
LINE
  5
217C5
  8
0
 10
4473.4815155510068507
 20
266.9614552093376005
 30
0.0
 11
4473.4794118904947027
 21
266.8108014142848106
 31
0.0
  0
ARC
  5
217C6
  8
0
 10
4473.5012136307313995
 20
266.961180154384806
 30
0.0
 40
0.0197
 50
90.0
 51
179.1999999993649055
  0
LINE
  5
217C7
  8
0
 10
4475.6025448277823671
 20
266.9614552093376005
 30
0.0
 11
4475.6046484882936056
 21
266.8108014142848106
 31
0.0
  0
ARC
  5
217C8
  8
0
 10
4475.5828467480587278
 20
266.961180154384806
 30
0.0
 40
0.0197
 50
0.8000000006351115
 51
90.0
  0
LINE
  5
217C9
  8
0
 10
4475.4081719216947022
 20
271.5281092882847815
 30
0.0
 11
4475.4081719216947022
 21
266.9808801543848062
 31
0.0
  0
ENDSEC
  0
EOF
