  0
SECTION
  2
HEADER
  9
$ACADVER
  1
AC1009
  9
$INSBASE
 10
4912.8199630177277868
 20
8.9954406423368933
 30
0.0
  9
$EXTMIN
 10
4908.2133744598877456
 20
4.1059552247164168
 30
-0.0000000000000058
  9
$EXTMAX
 10
4917.5926461017561451
 20
10.1622313809187599
 30
0.0000000000000104
  9
$LIMMIN
 10
0.0
 20
0.0
  9
$LIMMAX
 10
11.6929133858000007
 20
8.2677165353999982
  9
$ORTHOMODE
 70
     1
  9
$REGENMODE
 70
     1
  9
$FILLMODE
 70
     1
  9
$QTEXTMODE
 70
     0
  9
$MIRRTEXT
 70
     0
  9
$DRAGMODE
 70
     2
  9
$LTSCALE
 40
0.6431102362
  9
$OSMODE
 70
  2047
  9
$ATTMODE
 70
     1
  9
$TEXTSIZE
 40
0.2
  9
$TRACEWID
 40
0.05
  9
$TEXTSTYLE
  7
STANDARD
  9
$CLAYER
  8
0
  9
$CELTYPE
  6
BYLAYER
  9
$CECOLOR
 62
   256
  9
$DIMSCALE
 40
1.0
  9
$DIMASZ
 40
0.1875
  9
$DIMEXO
 40
0.0625
  9
$DIMDLI
 40
0.4443307087
  9
$DIMRND
 40
0.0
  9
$DIMDLE
 40
0.0
  9
$DIMEXE
 40
0.125
  9
$DIMTP
 40
0.01
  9
$DIMTM
 40
0.01
  9
$DIMTXT
 40
2.0
  9
$DIMCEN
 40
0.1052362205
  9
$DIMTSZ
 40
0.0
  9
$DIMTOL
 70
     1
  9
$DIMLIM
 70
     0
  9
$DIMTIH
 70
     1
  9
$DIMTOH
 70
     1
  9
$DIMSE1
 70
     0
  9
$DIMSE2
 70
     0
  9
$DIMTAD
 70
     0
  9
$DIMZIN
 70
     0
  9
$DIMBLK
  1

  9
$DIMASO
 70
     1
  9
$DIMSHO
 70
     1
  9
$DIMPOST
  1
\X
  9
$DIMAPOST
  1

  9
$DIMALT
 70
     1
  9
$DIMALTD
 70
     2
  9
$DIMALTF
 40
25.3999999999999986
  9
$DIMLFAC
 40
1.0
  9
$DIMTOFL
 70
     0
  9
$DIMTVP
 40
0.0
  9
$DIMTIX
 70
     0
  9
$DIMSOXD
 70
     0
  9
$DIMSAH
 70
     0
  9
$DIMBLK1
  1

  9
$DIMBLK2
  1

  9
$DIMSTYLE
  2
STANDARD
  9
$DIMCLRD
 70
     0
  9
$DIMCLRE
 70
     0
  9
$DIMCLRT
 70
     0
  9
$DIMTFAC
 40
1.0
  9
$DIMGAP
 40
0.09
  9
$LUNITS
 70
     2
  9
$LUPREC
 70
     4
  9
$SKETCHINC
 40
0.1
  9
$FILLETRAD
 40
0.0
  9
$AUNITS
 70
     0
  9
$AUPREC
 70
     0
  9
$MENU
  1
.
  9
$ELEVATION
 40
0.0
  9
$PELEVATION
 40
0.0
  9
$THICKNESS
 40
0.0
  9
$LIMCHECK
 70
     0
  9
$BLIPMODE
 70
     0
  9
$CHAMFERA
 40
0.0
  9
$CHAMFERB
 40
0.0
  9
$SKPOLY
 70
     0
  9
$TDCREATE
 40
2458060.468368056230247
  9
$TDUPDATE
 40
2460655.5143171302042902
  9
$TDINDWG
 40
1.0328658565
  9
$TDUSRTIMER
 40
1.0328658565
  9
$USRTIMER
 70
     1
  9
$ANGBASE
 50
0.0
  9
$ANGDIR
 70
     0
  9
$PDMODE
 70
     0
  9
$PDSIZE
 40
0.3125
  9
$PLINEWID
 40
0.0
  9
$COORDS
 70
     1
  9
$SPLFRAME
 70
     0
  9
$SPLINETYPE
 70
     6
  9
$SPLINESEGS
 70
     8
  9
$ATTDIA
 70
     1
  9
$ATTREQ
 70
     1
  9
$HANDLING
 70
     1
  9
$HANDSEED
  5
3A34B
  9
$SURFTAB1
 70
     6
  9
$SURFTAB2
 70
     6
  9
$SURFTYPE
 70
     6
  9
$SURFU
 70
     6
  9
$SURFV
 70
     6
  9
$UCSNAME
  2

  9
$UCSORG
 10
0.0
 20
0.0
 30
0.0
  9
$UCSXDIR
 10
1.0
 20
0.0
 30
0.0
  9
$UCSYDIR
 10
0.0
 20
1.0
 30
0.0
  9
$PUCSNAME
  2

  9
$PUCSORG
 10
0.0
 20
0.0
 30
0.0
  9
$PUCSXDIR
 10
1.0
 20
0.0
 30
0.0
  9
$PUCSYDIR
 10
0.0
 20
1.0
 30
0.0
  9
$USERI1
 70
     0
  9
$USERI2
 70
     0
  9
$USERI3
 70
     0
  9
$USERI4
 70
     0
  9
$USERI5
 70
     0
  9
$USERR1
 40
0.0
  9
$USERR2
 40
0.0
  9
$USERR3
 40
0.0
  9
$USERR4
 40
0.0
  9
$USERR5
 40
0.0
  9
$WORLDVIEW
 70
     1
  9
$SHADEDGE
 70
     3
  9
$SHADEDIF
 70
    70
  9
$TILEMODE
 70
     1
  9
$MAXACTVP
 70
    64
  9
$PLIMCHECK
 70
     0
  9
$PEXTMIN
 10
1.0000000000000000E+20
 20
1.0000000000000000E+20
 30
1.0000000000000000E+20
  9
$PEXTMAX
 10
-1.0000000000000000E+20
 20
-1.0000000000000000E+20
 30
-1.0000000000000000E+20
  9
$PLIMMIN
 10
0.0
 20
0.0
  9
$PLIMMAX
 10
12.0
 20
9.0
  9
$UNITMODE
 70
     0
  9
$VISRETAIN
 70
     1
  9
$PLINEGEN
 70
     0
  9
$PSLTSCALE
 70
     1
  0
ENDSEC
  0
SECTION
  2
TABLES
  0
TABLE
  2
VPORT
 70
     1
  0
VPORT
  2
*ACTIVE
 70
     0
 10
0.0
 20
0.0
 11
1.0
 21
1.0
 12
1120.5451001245719453
 22
-113.0465631302878933
 13
0.0
 23
0.0
 14
1.0
 24
1.0
 15
0.0
 25
0.0
 16
0.0
 26
0.0
 36
5.1040778033513332
 17
3792.35791015625
 27
120.1806564331053977
 37
0.0
 40
6.1062591781242466
 41
2.6101928374655641
 42
50.0
 43
0.0
 44
0.0
 50
0.0
 51
0.0
 71
     0
 72
   100
 73
     1
 74
     1
 75
     0
 76
     0
 77
     0
 78
     0
  0
ENDTAB
  0
TABLE
  2
LTYPE
 70
     2
  0
LTYPE
  2
CONTINUOUS
 70
     0
  3
Solid line
 72
    65
 73
     0
 40
0.0
  0
LTYPE
  2
PHANTOM2
 70
     0
  3
___ _ _ ___ _ _ ___ _ _ ___ _ _
 72
    65
 73
     6
 40
1.25
 49
0.625
 49
-0.125
 49
0.125
 49
-0.125
 49
0.125
 49
-0.125
  0
ENDTAB
  0
TABLE
  2
LAYER
 70
     2
  0
LAYER
  2
0
 70
     0
 62
   255
  6
CONTINUOUS
  0
LAYER
  2
DEFPOINTS
 70
     0
 62
     7
  6
CONTINUOUS
  0
ENDTAB
  0
TABLE
  2
STYLE
 70
     1
  0
STYLE
  2
STANDARD
 70
     0
 40
0.0
 41
0.8
 50
0.0
 71
     0
 42
0.2
  3
txt
  4

  0
ENDTAB
  0
TABLE
  2
VIEW
 70
     0
  0
ENDTAB
  0
TABLE
  2
UCS
 70
     0
  0
ENDTAB
  0
TABLE
  2
APPID
 70
    11
  0
APPID
  2
ACAD
 70
     0
  0
APPID
  2
ACAD_MLEADERVER
 70
     0
  0
APPID
  2
ACAD_EXEMPT_FROM_CAD_STANDARDS
 70
     0
  0
APPID
  2
ACAD_NAV_VCDISPLAY
 70
     0
  0
APPID
  2
ACAECLAYERSTANDARD
 70
     0
  0
APPID
  2
ACCMTRANSPARENCY
 70
     0
  0
APPID
  2
ACAD_DSTYLE_DIMJAG
 70
     0
  0
APPID
  2
ACAD_DSTYLE_DIMTALN
 70
     0
  0
APPID
  2
ACDBATTR
 70
     0
  0
APPID
  2
GRADIENTCOLOR1ACI
 70
     0
  0
APPID
  2
GRADIENTCOLOR2ACI
 70
     0
  0
ENDTAB
  0
TABLE
  2
DIMSTYLE
 70
     1
  0
DIMSTYLE
  2
STANDARD
 70
     0
  3

  4

  5

  6

  7

 40
1.0
 41
0.1875
 42
0.0625
 43
0.38
 44
0.125
 45
0.0
 46
0.0
 47
0.01
 48
0.01
140
0.15625
141
0.09
142
0.0
143
25.3999999999999986
144
1.0
145
0.0
146
1.0
147
0.09
 71
     1
 72
     0
 73
     1
 74
     1
 75
     0
 76
     0
 77
     0
 78
     4
170
     0
171
     2
172
     0
173
     0
174
     0
175
     0
176
     0
177
     0
178
     0
  0
ENDTAB
  0
ENDSEC
  0
SECTION
  2
BLOCKS
  0
BLOCK
  8
0
  2
$MODEL_SPACE
 70
     0
 10
0.0
 20
0.0
 30
0.0
  3
$MODEL_SPACE
  1

  0
ENDBLK
  5
21
  8
0
  0
BLOCK
 67
     1
  8
0
  2
$PAPER_SPACE
 70
     0
 10
0.0
 20
0.0
 30
0.0
  3
$PAPER_SPACE
  1

  0
ENDBLK
  5
1D
 67
     1
  8
0
  0
ENDSEC
  0
SECTION
  2
ENTITIES
  0
ARC
  5
3A131
  8
0
 10
4910.8199269598226238
 20
8.9954789443693421
 30
0.0
 40
1.1660637332797921
 50
90.027683760904722
 51
156.3334572818361039
  0
ARC
  5
3A132
  8
0
 10
4910.8199526326379782
 20
8.9954397492998392
 30
0.0
 40
1.1661030071756291
 50
203.6677521754988902
 51
269.922200644444672
  0
LINE
  5
3A133
  8
0
 10
4910.787947395104311
 20
8.4642674102680768
 30
0.0
 11
4908.3310432378993937
 21
8.6129381083368912
 31
0.0
  0
ARC
  5
3A134
  8
0
 10
4908.3358005261552535
 20
8.6917912490884657
 30
0.0
 40
0.0789965163659251
 50
182.9202336909634994
 51
266.5474735558424868
  0
ARC
  5
3A135
  8
0
 10
4914.3126280785572817
 20
8.9954401782495719
 30
0.0
 40
6.0635420735587671
 50
177.0890796493303867
 51
182.9083505823780058
  0
ARC
  5
3A136
  8
0
 10
4908.3355082705002133
 20
9.2993701556716601
 30
0.0
 40
0.0787000012025369
 50
93.4478918139952555
 51
177.0890796493305004
  0
LINE
  5
3A137
  8
0
 10
4908.3307751932979954
 20
9.3779277025368923
 30
0.0
 11
4910.7879907061342237
 21
9.525974468090288
 31
0.0
  0
ARC
  5
3A138
  8
0
 10
4910.8199521466976876
 20
8.9954401792368905
 30
0.0
 40
0.5314961574010806
 50
266.5179570928978023
 51
93.4820298528972415
  0
ARC
  5
3A139
  8
0
 10
4910.8199526109992803
 20
8.9954406423368933
 30
0.0
 40
0.7296631965001449
 50
223.3641359404415141
 51
136.6944355538070965
  0
ARC
  5
3A13A
  8
0
 10
4910.8199526109992803
 20
8.9954397162368913
 30
0.0
 40
0.5584885735967235
 50
248.8659072532774985
 51
111.3338814457589052
  0
LINE
  5
3A13B
  8
0
 10
4910.8193635495917988
 20
10.1615425415368907
 30
0.0
 11
4914.8193843630551783
 21
10.1615425415368907
 31
0.0
  0
LINE
  5
3A13C
  8
0
 10
4910.8183692344300653
 20
7.8293378171368921
 30
0.0
 11
4912.1181150032416554
 21
7.8293378171369286
 31
0.0
  0
ARC
  5
3A13D
  8
0
 10
4914.8199734244590218
 20
8.9954397162368913
 30
0.0
 40
1.1661029740833271
 50
23.6678021420680906
 51
90.0289431847422179
  0
ARC
  5
3A13E
  8
0
 10
4914.8199734244590218
 20
8.9954397162368913
 30
0.0
 40
1.1661029740833271
 50
270.077798294538411
 51
336.3322488855616257
  0
LINE
  5
3A13F
  8
0
 10
4914.8519786403530816
 20
8.4642674102680768
 30
0.0
 11
4917.3088827975589084
 21
8.6129381083368912
 31
0.0
  0
ARC
  5
3A140
  8
0
 10
4917.3041255093030486
 20
8.6917912490884657
 30
0.0
 40
0.0789965163659251
 50
273.4525264441573995
 51
357.0797663090364154
  0
ARC
  5
3A141
  8
0
 10
4911.3272979569001109
 20
8.9954401782495719
 30
0.0
 40
6.0635420735587671
 50
357.0916494176220226
 51
2.910920350669568
  0
ARC
  5
3A142
  8
0
 10
4917.3044177649580888
 20
9.2993701556716601
 30
0.0
 40
0.0787000012025369
 50
2.9109203506694659
 51
86.5521081860047445
  0
LINE
  5
3A143
  8
0
 10
4917.3091508421593971
 20
9.3779277025368923
 30
0.0
 11
4914.8519353293231688
 21
9.525974468090288
 31
0.0
  0
ARC
  5
3A144
  8
0
 10
4914.819973888759705
 20
8.9954401792368905
 30
0.0
 40
0.5314961574010806
 50
86.5179701471027727
 51
273.4820429071023113
  0
ARC
  5
3A145
  8
0
 10
4914.8199734244590218
 20
8.9954406423368933
 30
0.0
 40
0.7296631965001449
 50
43.3055644461928608
 51
316.6358640595585143
  0
ARC
  5
3A146
  8
0
 10
4914.8199734244590218
 20
8.9954397162368913
 30
0.0
 40
0.5584885735967235
 50
68.6661185542410948
 51
291.1340927467225015
  0
LINE
  5
3A147
  8
0
 10
4914.8215568010273273
 20
7.8293378171368921
 30
0.0
 11
4913.5219790389692207
 21
7.8293378171368904
 31
0.0
  0
ARC
  5
3A148
  8
0
 10
4912.8199521502892821
 20
8.9954401854607937
 30
0.0
 40
0.7411417261760957
 50
359.999233409712815
 51
180.0008721072304922
  0
ARC
  5
3A149
  8
0
 10
18695.4474249814411451
 20
472.9976414554406006
 30
0.0
 40
13791.1764696857499075
 50
181.9280723982053871
 51
181.948155817591811
  0
ARC
  5
3A14A
  8
0
 10
4912.3050120683456043
 20
4.1662195623762139
 30
0.0
 40
0.0627482781086462
 50
181.9481558175909868
 51
207.5606093323272034
  0
ARC
  5
3A14B
  8
0
 10
4912.2587147006552186
 20
4.1527060036038552
 30
0.0
 40
0.0181080669704932
 50
238.9851961606848079
 51
266.0804892593076829
  0
ARC
  5
3A14C
  8
0
 10
4912.8199527417200443
 20
9.6754227454541137
 30
0.0
 40
5.5692593099520389
 50
264.2034424988834189
 51
275.7965844407609097
  0
ARC
  5
3A14D
  8
0
 10
-8869.8074803784693358
 20
472.9976414554406006
 30
0.0
 40
13791.1764696857499075
 50
358.0518441824082174
 51
358.0719276017945845
  0
ARC
  5
3A14E
  8
0
 10
4913.3356370074943698
 20
4.1661161470261296
 30
0.0
 40
0.0620407476266635
 50
332.2057637253233793
 51
358.1251779383219969
  0
ARC
  5
3A14F
  8
0
 10
4913.381230781665181
 20
4.1525757928069442
 30
0.0
 40
0.0179753632482475
 50
273.829026375149283
 51
301.1161090938020948
  0
LINE
  5
3A22F
  8
0
 10
4910.8199521458991512
 20
10.1535425415368898
 30
0.0
 11
4914.8199521466967781
 21
10.1535425415368898
 31
0.0
  0
ARC
  5
3A230
  8
0
 10
4914.8203302820611498
 20
8.9951302393164063
 30
0.0
 40
1.157792483929075
 50
269.9812871813318225
 51
336.1191465958478943
  0
ARC
  5
3A231
  8
0
 10
4914.8200366228520579
 20
8.9953803021868932
 30
0.0
 40
1.1581622424308391
 50
23.8721628076731385
 51
90.0041791443057946
  0
LINE
  5
3A232
  8
0
 10
4914.8199521466967781
 20
7.837337817136893
 30
0.0
 11
4913.5220382686147786
 21
7.8372180579328941
 31
0.0
  0
ARC
  5
3A236
  8
0
 10
4910.8170712754517808
 20
8.9912503331399041
 30
0.0
 40
1.1539161666916711
 50
203.7554416562574033
 51
270.1441245665772044
  0
ARC
  5
3A237
  8
0
 10
4910.818640401187622
 20
8.9972990331377432
 30
0.0
 40
1.1562442524784089
 50
89.9349986374684534
 51
156.1897349528703955
  0
LINE
  5
3A238
  8
0
 10
4910.8199738887587955
 20
7.837337817136893
 30
0.0
 11
4912.1178877668426139
 21
7.8372180579328941
 31
0.0
  0
ATTDEF
  5
3A240
  8
DEFPOINTS
 10
4912.819982583005185
 20
8.998785938639676
 30
0.0
 40
0.001
  1
K-37894-4
  3

  2
MODELNUMBER
 70
     0
1001
ACDBATTR
1070
     0
1070
     1
  0
ATTDEF
  5
3A241
  8
DEFPOINTS
 10
4912.819982583005185
 20
8.9971192719730109
 30
0.0
 40
0.001
  1
HINT
  3

  2
TRADENAME
 70
     0
1001
ACDBATTR
1070
     0
1070
     1
  0
ATTDEF
  5
3A242
  8
DEFPOINTS
 10
4912.819982583005185
 20
8.9954526053063457
 30
0.0
 40
0.001
  1
BATHROOM SINK FAUCET
  3

  2
PRODUCT
 70
     0
1001
ACDBATTR
1070
     0
1070
     1
  0
ENDSEC
  0
EOF
