  0
SECTION
  2
HEADER
  9
$ACADVER
  1
AC1009
  9
$INSBASE
 10
6496.9055572455899892
 20
386.4151859490235097
 30
0.0
  9
$EXTMIN
 10
6493.6075572455902147
 20
378.2921859490235192
 30
0.0
  9
$EXTMAX
 10
6500.2035572455897636
 20
394.5381859490235001
 30
0.0
  9
$LIMMIN
 10
0.0
 20
0.0
  9
$LIMMAX
 10
11.6929133858000007
 20
8.2677165353999982
  9
$ORTHOMODE
 70
     0
  9
$REGENMODE
 70
     1
  9
$FILLMODE
 70
     1
  9
$QTEXTMODE
 70
     0
  9
$MIRRTEXT
 70
     0
  9
$DRAGMODE
 70
     2
  9
$LTSCALE
 40
0.6431102362
  9
$OSMODE
 70
  4095
  9
$ATTMODE
 70
     1
  9
$TEXTSIZE
 40
0.2
  9
$TRACEWID
 40
0.05
  9
$TEXTSTYLE
  7
STANDARD
  9
$CLAYER
  8
0
  9
$CELTYPE
  6
BYLAYER
  9
$CECOLOR
 62
   256
  9
$DIMSCALE
 40
1.0
  9
$DIMASZ
 40
0.1875
  9
$DIMEXO
 40
0.0625
  9
$DIMDLI
 40
0.4443307087
  9
$DIMRND
 40
0.0
  9
$DIMDLE
 40
0.0
  9
$DIMEXE
 40
0.125
  9
$DIMTP
 40
0.01
  9
$DIMTM
 40
0.01
  9
$DIMTXT
 40
2.0
  9
$DIMCEN
 40
0.1052362205
  9
$DIMTSZ
 40
0.0
  9
$DIMTOL
 70
     1
  9
$DIMLIM
 70
     0
  9
$DIMTIH
 70
     1
  9
$DIMTOH
 70
     1
  9
$DIMSE1
 70
     0
  9
$DIMSE2
 70
     0
  9
$DIMTAD
 70
     0
  9
$DIMZIN
 70
     0
  9
$DIMBLK
  1

  9
$DIMASO
 70
     1
  9
$DIMSHO
 70
     1
  9
$DIMPOST
  1
\X
  9
$DIMAPOST
  1

  9
$DIMALT
 70
     1
  9
$DIMALTD
 70
     2
  9
$DIMALTF
 40
25.3999999999999986
  9
$DIMLFAC
 40
1.0
  9
$DIMTOFL
 70
     0
  9
$DIMTVP
 40
0.0
  9
$DIMTIX
 70
     0
  9
$DIMSOXD
 70
     0
  9
$DIMSAH
 70
     0
  9
$DIMBLK1
  1

  9
$DIMBLK2
  1

  9
$DIMSTYLE
  2
STANDARD
  9
$DIMCLRD
 70
     0
  9
$DIMCLRE
 70
     0
  9
$DIMCLRT
 70
     0
  9
$DIMTFAC
 40
1.0
  9
$DIMGAP
 40
0.09
  9
$LUNITS
 70
     2
  9
$LUPREC
 70
     4
  9
$SKETCHINC
 40
0.1
  9
$FILLETRAD
 40
0.0
  9
$AUNITS
 70
     0
  9
$AUPREC
 70
     0
  9
$MENU
  1
.
  9
$ELEVATION
 40
0.0
  9
$PELEVATION
 40
0.0
  9
$THICKNESS
 40
0.0
  9
$LIMCHECK
 70
     0
  9
$BLIPMODE
 70
     0
  9
$CHAMFERA
 40
0.0
  9
$CHAMFERB
 40
0.0
  9
$SKPOLY
 70
     0
  9
$TDCREATE
 40
2458060.468368056230247
  9
$TDUPDATE
 40
2460683.8348495368845761
  9
$TDINDWG
 40
0.8105278935
  9
$TDUSRTIMER
 40
0.8105278935
  9
$USRTIMER
 70
     1
  9
$ANGBASE
 50
0.0
  9
$ANGDIR
 70
     0
  9
$PDMODE
 70
     0
  9
$PDSIZE
 40
0.3125
  9
$PLINEWID
 40
0.0
  9
$COORDS
 70
     1
  9
$SPLFRAME
 70
     0
  9
$SPLINETYPE
 70
     6
  9
$SPLINESEGS
 70
     8
  9
$ATTDIA
 70
     1
  9
$ATTREQ
 70
     1
  9
$HANDLING
 70
     1
  9
$HANDSEED
  5
3A349
  9
$SURFTAB1
 70
     6
  9
$SURFTAB2
 70
     6
  9
$SURFTYPE
 70
     6
  9
$SURFU
 70
     6
  9
$SURFV
 70
     6
  9
$UCSNAME
  2

  9
$UCSORG
 10
0.0
 20
0.0
 30
0.0
  9
$UCSXDIR
 10
1.0
 20
0.0
 30
0.0
  9
$UCSYDIR
 10
0.0
 20
1.0
 30
0.0
  9
$PUCSNAME
  2

  9
$PUCSORG
 10
0.0
 20
0.0
 30
0.0
  9
$PUCSXDIR
 10
1.0
 20
0.0
 30
0.0
  9
$PUCSYDIR
 10
0.0
 20
1.0
 30
0.0
  9
$USERI1
 70
     0
  9
$USERI2
 70
     0
  9
$USERI3
 70
     0
  9
$USERI4
 70
     0
  9
$USERI5
 70
     0
  9
$USERR1
 40
0.0
  9
$USERR2
 40
0.0
  9
$USERR3
 40
0.0
  9
$USERR4
 40
0.0
  9
$USERR5
 40
0.0
  9
$WORLDVIEW
 70
     1
  9
$SHADEDGE
 70
     3
  9
$SHADEDIF
 70
    70
  9
$TILEMODE
 70
     1
  9
$MAXACTVP
 70
    64
  9
$PLIMCHECK
 70
     0
  9
$PEXTMIN
 10
1.0000000000000000E+20
 20
1.0000000000000000E+20
 30
1.0000000000000000E+20
  9
$PEXTMAX
 10
-1.0000000000000000E+20
 20
-1.0000000000000000E+20
 30
-1.0000000000000000E+20
  9
$PLIMMIN
 10
0.0
 20
0.0
  9
$PLIMMAX
 10
12.0
 20
9.0
  9
$UNITMODE
 70
     0
  9
$VISRETAIN
 70
     1
  9
$PLINEGEN
 70
     0
  9
$PSLTSCALE
 70
     1
  0
ENDSEC
  0
SECTION
  2
TABLES
  0
TABLE
  2
VPORT
 70
     1
  0
VPORT
  2
*ACTIVE
 70
     0
 10
0.0
 20
0.0
 11
1.0
 21
1.0
 12
2585.5402008002779439
 22
253.8355808464843903
 13
0.0
 23
0.0
 14
1.0
 24
1.0
 15
0.0
 25
0.0
 16
0.0
 26
0.0
 36
60.4960186965801583
 17
3911.3653564453120453
 27
132.5796051025390057
 37
0.0
 40
16.3623375031732401
 41
2.1449438202247189
 42
50.0
 43
0.0
 44
0.0
 50
0.0
 51
0.0
 71
     0
 72
   100
 73
     1
 74
     1
 75
     0
 76
     0
 77
     0
 78
     0
  0
ENDTAB
  0
TABLE
  2
LTYPE
 70
     2
  0
LTYPE
  2
CONTINUOUS
 70
     0
  3
Solid line
 72
    65
 73
     0
 40
0.0
  0
LTYPE
  2
PHANTOM2
 70
     0
  3
___ _ _ ___ _ _ ___ _ _ ___ _ _
 72
    65
 73
     6
 40
1.25
 49
0.625
 49
-0.125
 49
0.125
 49
-0.125
 49
0.125
 49
-0.125
  0
ENDTAB
  0
TABLE
  2
LAYER
 70
     2
  0
LAYER
  2
0
 70
     0
 62
   255
  6
CONTINUOUS
  0
LAYER
  2
DEFPOINTS
 70
     0
 62
     7
  6
CONTINUOUS
  0
ENDTAB
  0
TABLE
  2
STYLE
 70
     1
  0
STYLE
  2
STANDARD
 70
     0
 40
0.0
 41
0.8
 50
0.0
 71
     0
 42
0.2
  3
txt
  4

  0
ENDTAB
  0
TABLE
  2
VIEW
 70
     0
  0
ENDTAB
  0
TABLE
  2
UCS
 70
     0
  0
ENDTAB
  0
TABLE
  2
APPID
 70
    11
  0
APPID
  2
ACAD
 70
     0
  0
APPID
  2
ACAD_MLEADERVER
 70
     0
  0
APPID
  2
ACAD_EXEMPT_FROM_CAD_STANDARDS
 70
     0
  0
APPID
  2
ACAD_NAV_VCDISPLAY
 70
     0
  0
APPID
  2
ACAECLAYERSTANDARD
 70
     0
  0
APPID
  2
ACCMTRANSPARENCY
 70
     0
  0
APPID
  2
ACAD_DSTYLE_DIMJAG
 70
     0
  0
APPID
  2
ACAD_DSTYLE_DIMTALN
 70
     0
  0
APPID
  2
ACDBATTR
 70
     0
  0
APPID
  2
ACADANNOTATIVE
 70
     0
  0
APPID
  2
DCO15
 70
     0
  0
ENDTAB
  0
TABLE
  2
DIMSTYLE
 70
     1
  0
DIMSTYLE
  2
STANDARD
 70
     0
  3

  4

  5

  6

  7

 40
1.0
 41
0.1875
 42
0.0625
 43
0.38
 44
0.125
 45
0.0
 46
0.0
 47
0.01
 48
0.01
140
0.15625
141
0.09
142
0.0
143
25.3999999999999986
144
1.0
145
0.0
146
1.0
147
0.09
 71
     1
 72
     0
 73
     1
 74
     1
 75
     0
 76
     0
 77
     0
 78
     4
170
     0
171
     2
172
     0
173
     0
174
     0
175
     0
176
     0
177
     0
178
     0
  0
ENDTAB
  0
ENDSEC
  0
SECTION
  2
BLOCKS
  0
BLOCK
  8
0
  2
$MODEL_SPACE
 70
     0
 10
0.0
 20
0.0
 30
0.0
  3
$MODEL_SPACE
  1

  0
ENDBLK
  5
21
  8
0
  0
BLOCK
 67
     1
  8
0
  2
$PAPER_SPACE
 70
     0
 10
0.0
 20
0.0
 30
0.0
  3
$PAPER_SPACE
  1

  0
ENDBLK
  5
1D
 67
     1
  8
0
  0
BLOCK
  8
0
  2
_FILLED
 70
     0
 10
0.0
 20
0.0
 30
0.0
  3
_FILLED
  1

  0
SOLID
  5
2853B
  8
0
  6
BYBLOCK
 62
     0
 10
0.0
 20
0.0
 30
0.0
 11
-1.0
 21
0.1666666667
 31
0.0
 12
-1.0
 22
-0.1666666667
 32
0.0
 13
-1.0
 23
-0.1666666667
 33
0.0
  0
ENDBLK
  5
2853C
  8
0
  6
BYBLOCK
 62
     0
  0
ENDSEC
  0
SECTION
  2
ENTITIES
  0
ATTDEF
  5
2842F
  8
DEFPOINTS
 10
6496.8980780988331389
 20
386.4137760364545784
 30
0.0
 40
0.001
  1
K-37917-WAL
  3

  2
MODELNUMBER
 70
     0
1001
ACDBATTR
1070
     0
1070
     1
  0
ATTDEF
  5
28430
  8
DEFPOINTS
 10
6496.8979522891759188
 20
386.4121091960755052
 30
0.0
 40
0.001
  1
SYNTHOS
  3

  2
TRADENAME
 70
     0
1001
ACDBATTR
1070
     0
1070
     1
  0
ATTDEF
  5
28431
  8
DEFPOINTS
 10
6496.8980780988331389
 20
386.4104427031213049
 30
0.0
 40
0.001
  1
COLANDER
  3

  2
PRODUCT
 70
     0
1001
ACDBATTR
1070
     0
1070
     1
  0
LINE
  5
3A0A1
  8
0
 10
6493.9255572455886067
 20
394.5381859490235001
 30
0.0
 11
6499.8855572455895526
 21
394.5381859490235001
 31
0.0
  0
LINE
  5
3A0A2
  8
0
 10
6493.6075572455902147
 20
379.1921859490236102
 30
0.0
 11
6493.6075572455902147
 21
393.6381859490235229
 31
0.0
  0
LINE
  5
3A0A3
  8
0
 10
6493.9055572455890797
 20
393.6581859490235047
 30
0.0
 11
6493.9055572455890797
 21
394.5181859490235183
 31
0.0
  0
ARC
  5
3A0A4
  8
0
 10
6493.9255572455886067
 20
394.5181859490235183
 30
0.0
 40
0.02
 50
90.0
 51
180.0
  0
LINE
  5
3A0A5
  8
0
 10
6500.2035572455897636
 20
379.1921859490236102
 30
0.0
 11
6500.2035572455897636
 21
393.6381859490235229
 31
0.0
  0
LINE
  5
3A0A6
  8
0
 10
6493.6075572455902147
 20
393.6381859490235229
 30
0.0
 11
6500.2035572455897636
 21
393.6381859490235229
 31
0.0
  0
ARC
  5
3A0A7
  8
0
 10
6499.8855572455895526
 20
393.6581859490235047
 30
0.0
 40
0.02
 50
270.0
 51
0.0
  0
ARC
  5
3A0A8
  8
0
 10
6493.9255572455886067
 20
393.6581859490235047
 30
0.0
 40
0.02
 50
180.0
 51
270.0
  0
LINE
  5
3A0A9
  8
0
 10
6493.7515572455886286
 20
393.4941859490235174
 30
0.0
 11
6500.0595572455886213
 21
393.4941859490235174
 31
0.0
  0
LINE
  5
3A0AA
  8
0
 10
6493.7515572455886286
 20
393.4941859490235174
 30
0.0
 11
6493.7515572455886286
 21
379.3361859490236156
 31
0.0
  0
LINE
  5
3A0AB
  8
0
 10
6493.7035572455897636
 20
393.5421859490235192
 30
0.0
 11
6500.1075572455902147
 21
393.5421859490235192
 31
0.0
  0
LINE
  5
3A0AC
  8
0
 10
6493.7035572455897636
 20
393.5421859490235192
 30
0.0
 11
6493.7035572455897636
 21
379.2881859490236138
 31
0.0
  0
ARC
  5
3A0AD
  8
0
 10
6493.6980213716888102
 20
393.5052416801455024
 30
0.0
 40
0.0373567250006978
 50
37.9338353037737832
 51
81.4779807889814265
  0
ARC
  5
3A0AE
  8
0
 10
6493.6154147428142096
 20
393.4294460135354825
 30
0.0
 40
0.14937711130978
 50
34.361003865431698
 51
41.3876764571362301
  0
ARC
  5
3A0AF
  8
0
 10
6493.2805829232256656
 20
393.1993494139280756
 30
0.0
 40
0.555648625259557
 50
32.0471438178892782
 51
34.4603443035143826
  0
ARC
  5
3A0B0
  8
0
 10
6494.1530501406969051
 20
394.1302429074168003
 30
0.0
 40
0.7521735166448245
 50
236.2754716721283899
 51
237.7389940041555008
  0
ARC
  5
3A0B1
  8
0
 10
6493.844269237501976
 20
393.6676238628613191
 30
0.0
 40
0.1959702952241447
 50
230.9153019020783972
 51
236.2672372851201033
  0
ARC
  5
3A0B2
  8
0
 10
6493.7680790344757042
 20
393.5738206647064885
 30
0.0
 40
0.0751233382033077
 50
219.3265244257333961
 51
230.9153019020357931
  0
ARC
  5
3A0B3
  8
0
 10
6493.7311930360556289
 20
393.5440030841912744
 30
0.0
 40
0.0276954670462428
 50
183.761952090544213
 51
219.9695144834055043
  0
LINE
  5
3A0B4
  8
0
 10
6499.9055572455899892
 20
393.6581859490235047
 30
0.0
 11
6499.9055572455899892
 21
394.5181859490235183
 31
0.0
  0
ARC
  5
3A0B5
  8
0
 10
6499.8855572455895526
 20
394.5181859490235183
 30
0.0
 40
0.02
 50
0.0
 51
90.0
  0
ARC
  5
3A0B6
  8
0
 10
6500.1130931194911682
 20
393.5052416801455024
 30
0.0
 40
0.0373567250006978
 50
98.5220192110185735
 51
142.0661646962261955
  0
ARC
  5
3A0B7
  8
0
 10
6500.1956997483666783
 20
393.4294460135354825
 30
0.0
 40
0.14937711130978
 50
138.6123235428636917
 51
145.6389961345682877
  0
ARC
  5
3A0B8
  8
0
 10
6500.5305315679534033
 20
393.1993494139280756
 30
0.0
 40
0.555648625259557
 50
145.5396556964855961
 51
147.9528561821107076
  0
ARC
  5
3A0B9
  8
0
 10
6499.6580643504830732
 20
394.1302429074168003
 30
0.0
 40
0.7521735166448245
 50
302.2610059958445845
 51
303.7245283278716101
  0
ARC
  5
3A0BA
  8
0
 10
6499.9668452536780023
 20
393.6676238628613191
 30
0.0
 40
0.1959702952241447
 50
303.7327627148799252
 51
309.0846980979216028
  0
ARC
  5
3A0BB
  8
0
 10
6500.0430354567033646
 20
393.5738206647064885
 30
0.0
 40
0.0751233382033077
 50
309.0846980979216028
 51
320.6734755742666039
  0
ARC
  5
3A0BC
  8
0
 10
6500.0799214551243494
 20
393.5440030841912744
 30
0.0
 40
0.0276954670462428
 50
320.0304855165945241
 51
356.2380479094557018
  0
LINE
  5
3A0BD
  8
0
 10
6500.0595572455886213
 20
393.4941859490235174
 30
0.0
 11
6500.0595572455886213
 21
379.3361859490236156
 31
0.0
  0
LINE
  5
3A0BE
  8
0
 10
6500.1075572455902147
 20
393.5421859490235192
 30
0.0
 11
6500.1075572455902147
 21
379.2881859490236138
 31
0.0
  0
LINE
  5
3A0BF
  8
0
 10
6494.152172245590009
 20
392.4009759490235751
 30
0.0
 11
6494.152172245590009
 21
392.3713959490236221
 31
0.0
  0
ARC
  5
3A0C0
  8
0
 10
6494.1816722455896524
 20
392.4009759490235751
 30
0.0
 40
0.0295
 50
90.0
 51
180.0
  0
LINE
  5
3A0C1
  8
0
 10
6494.152172245590009
 20
390.8643509490235033
 30
0.0
 11
6494.152172245590009
 21
390.8347709490234934
 31
0.0
  0
ARC
  5
3A0C2
  8
0
 10
6494.1816722455896524
 20
390.8643509490235033
 30
0.0
 40
0.0295
 50
90.0
 51
180.0
  0
LINE
  5
3A0C3
  8
0
 10
6494.152172245590009
 20
389.3277259490234883
 30
0.0
 11
6494.152172245590009
 21
389.2981459490234784
 31
0.0
  0
ARC
  5
3A0C4
  8
0
 10
6494.1816722455896524
 20
389.3277259490234883
 30
0.0
 40
0.0295
 50
90.0
 51
180.0
  0
LINE
  5
3A0C5
  8
0
 10
6494.152172245590009
 20
387.7911009490234733
 30
0.0
 11
6494.152172245590009
 21
387.7615209490235202
 31
0.0
  0
ARC
  5
3A0C6
  8
0
 10
6494.1816722455896524
 20
387.7911009490234733
 30
0.0
 40
0.0295
 50
90.0
 51
180.0
  0
LINE
  5
3A0C7
  8
0
 10
6494.152172245590009
 20
386.2544759490235151
 30
0.0
 11
6494.152172245590009
 21
386.2248959490236189
 31
0.0
  0
ARC
  5
3A0C8
  8
0
 10
6494.1816722455896524
 20
386.2544759490235151
 30
0.0
 40
0.0295
 50
90.0
 51
180.0
  0
LINE
  5
3A0C9
  8
0
 10
6495.3221722455900817
 20
392.4009759490235751
 30
0.0
 11
6495.3221722455900817
 21
392.3713959490236221
 31
0.0
  0
ARC
  5
3A0CA
  8
0
 10
6495.2926722455886193
 20
392.4009759490235751
 30
0.0
 40
0.0295
 50
0.0
 51
90.0
  0
LINE
  5
3A0CB
  8
0
 10
6495.3221722455900817
 20
390.8643509490235033
 30
0.0
 11
6495.3221722455900817
 21
390.8347709490234934
 31
0.0
  0
ARC
  5
3A0CC
  8
0
 10
6495.2926722455886193
 20
390.8643509490235033
 30
0.0
 40
0.0295
 50
0.0
 51
90.0
  0
LINE
  5
3A0CD
  8
0
 10
6495.3221722455900817
 20
389.3277259490234883
 30
0.0
 11
6495.3221722455900817
 21
389.2981459490234784
 31
0.0
  0
ARC
  5
3A0CE
  8
0
 10
6495.2926722455886193
 20
389.3277259490234883
 30
0.0
 40
0.0295
 50
0.0
 51
90.0
  0
LINE
  5
3A0CF
  8
0
 10
6495.3221722455900817
 20
387.7911009490234733
 30
0.0
 11
6495.3221722455900817
 21
387.7615209490235202
 31
0.0
  0
ARC
  5
3A0D0
  8
0
 10
6495.2926722455886193
 20
387.7911009490234733
 30
0.0
 40
0.0295
 50
0.0
 51
90.0
  0
LINE
  5
3A0D1
  8
0
 10
6495.3221722455900817
 20
386.2544759490235151
 30
0.0
 11
6495.3221722455900817
 21
386.2248959490236189
 31
0.0
  0
ARC
  5
3A0D2
  8
0
 10
6495.2926722455886193
 20
386.2544759490235151
 30
0.0
 40
0.0295
 50
0.0
 51
90.0
  0
LINE
  5
3A0D3
  8
0
 10
6494.1816722455896524
 20
392.4304759490236165
 30
0.0
 11
6495.2926722455886193
 21
392.4304759490236165
 31
0.0
  0
LINE
  5
3A0D4
  8
0
 10
6494.1816722455896524
 20
392.3418959490235238
 30
0.0
 11
6495.2926722455886193
 21
392.3418959490235238
 31
0.0
  0
ARC
  5
3A0D5
  8
0
 10
6494.1816722455896524
 20
392.3713959490236221
 30
0.0
 40
0.0295
 50
180.0
 51
270.0
  0
ARC
  5
3A0D6
  8
0
 10
6495.2926722455886193
 20
392.3713959490236221
 30
0.0
 40
0.0295
 50
270.0
 51
0.0
  0
LINE
  5
3A0D7
  8
0
 10
6495.2926722455886193
 20
390.8938509490234878
 30
0.0
 11
6494.1816722455896524
 21
390.8938509490234878
 31
0.0
  0
LINE
  5
3A0D8
  8
0
 10
6495.2926722455886193
 20
390.8052709490235088
 30
0.0
 11
6494.1816722455896524
 21
390.8052709490235088
 31
0.0
  0
ARC
  5
3A0D9
  8
0
 10
6494.1816722455896524
 20
390.8347709490234934
 30
0.0
 40
0.0295
 50
180.0
 51
270.0
  0
ARC
  5
3A0DA
  8
0
 10
6495.2926722455886193
 20
390.8347709490234934
 30
0.0
 40
0.0295
 50
270.0
 51
0.0
  0
LINE
  5
3A0DB
  8
0
 10
6495.2926722455886193
 20
389.3572259490234728
 30
0.0
 11
6494.1816722455896524
 21
389.3572259490234728
 31
0.0
  0
LINE
  5
3A0DC
  8
0
 10
6495.2926722455886193
 20
389.2686459490234938
 30
0.0
 11
6494.1816722455896524
 21
389.2686459490234938
 31
0.0
  0
ARC
  5
3A0DD
  8
0
 10
6495.2926722455886193
 20
389.2981459490234784
 30
0.0
 40
0.0295
 50
270.0
 51
0.0
  0
ARC
  5
3A0DE
  8
0
 10
6494.1816722455896524
 20
389.2981459490234784
 30
0.0
 40
0.0295
 50
180.0
 51
270.0
  0
LINE
  5
3A0DF
  8
0
 10
6495.2926722455886193
 20
387.8206009490235147
 30
0.0
 11
6494.1816722455896524
 21
387.8206009490235147
 31
0.0
  0
LINE
  5
3A0E0
  8
0
 10
6495.2926722455886193
 20
387.7320209490234788
 30
0.0
 11
6494.1816722455896524
 21
387.7320209490234788
 31
0.0
  0
ARC
  5
3A0E1
  8
0
 10
6494.1816722455896524
 20
387.7615209490235202
 30
0.0
 40
0.0295
 50
180.0
 51
270.0
  0
ARC
  5
3A0E2
  8
0
 10
6495.2926722455886193
 20
387.7615209490235202
 30
0.0
 40
0.0295
 50
270.0
 51
0.0
  0
LINE
  5
3A0E3
  8
0
 10
6495.2926722455886193
 20
386.2839759490236133
 30
0.0
 11
6494.1816722455896524
 21
386.2839759490236133
 31
0.0
  0
LINE
  5
3A0E4
  8
0
 10
6495.2926722455886193
 20
386.1953959490235206
 30
0.0
 11
6494.1816722455896524
 21
386.1953959490235206
 31
0.0
  0
ARC
  5
3A0E5
  8
0
 10
6495.2926722455886193
 20
386.2248959490236189
 30
0.0
 40
0.0295
 50
270.0
 51
0.0
  0
ARC
  5
3A0E6
  8
0
 10
6494.1816722455896524
 20
386.2248959490236189
 30
0.0
 40
0.0295
 50
180.0
 51
270.0
  0
LINE
  5
3A0E7
  8
0
 10
6495.5977622455911842
 20
392.4009759490235751
 30
0.0
 11
6495.5977622455911842
 21
392.3713959490236221
 31
0.0
  0
ARC
  5
3A0E8
  8
0
 10
6495.6272622455899182
 20
392.4009759490235751
 30
0.0
 40
0.0295
 50
90.0
 51
180.0
  0
LINE
  5
3A0E9
  8
0
 10
6495.5977622455911842
 20
390.8643509490235033
 30
0.0
 11
6495.5977622455911842
 21
390.8347709490234934
 31
0.0
  0
ARC
  5
3A0EA
  8
0
 10
6495.6272622455899182
 20
390.8643509490235033
 30
0.0
 40
0.0295
 50
90.0
 51
180.0
  0
LINE
  5
3A0EB
  8
0
 10
6495.5977622455911842
 20
389.3277259490234883
 30
0.0
 11
6495.5977622455911842
 21
389.2981459490234784
 31
0.0
  0
ARC
  5
3A0EC
  8
0
 10
6495.6272622455899182
 20
389.3277259490234883
 30
0.0
 40
0.0295
 50
90.0
 51
180.0
  0
LINE
  5
3A0ED
  8
0
 10
6495.5977622455911842
 20
387.7911009490234733
 30
0.0
 11
6495.5977622455911842
 21
387.7615209490235202
 31
0.0
  0
ARC
  5
3A0EE
  8
0
 10
6495.6272622455899182
 20
387.7911009490234733
 30
0.0
 40
0.0295
 50
90.0
 51
180.0
  0
LINE
  5
3A0EF
  8
0
 10
6495.5977622455911842
 20
386.2544759490235151
 30
0.0
 11
6495.5977622455911842
 21
386.2248959490236189
 31
0.0
  0
ARC
  5
3A0F0
  8
0
 10
6495.6272622455899182
 20
386.2544759490235151
 30
0.0
 40
0.0295
 50
90.0
 51
180.0
  0
LINE
  5
3A0F1
  8
0
 10
6496.7677622455912569
 20
392.4009759490235751
 30
0.0
 11
6496.7677622455912569
 21
392.3713959490236221
 31
0.0
  0
ARC
  5
3A0F2
  8
0
 10
6496.7382622455897945
 20
392.4009759490235751
 30
0.0
 40
0.0295
 50
0.0
 51
90.0
  0
LINE
  5
3A0F3
  8
0
 10
6496.7677622455912569
 20
390.8643509490235033
 30
0.0
 11
6496.7677622455912569
 21
390.8347709490234934
 31
0.0
  0
ARC
  5
3A0F4
  8
0
 10
6496.7382622455897945
 20
390.8643509490235033
 30
0.0
 40
0.0295
 50
0.0
 51
90.0
  0
LINE
  5
3A0F5
  8
0
 10
6496.7677622455912569
 20
389.3277259490234883
 30
0.0
 11
6496.7677622455912569
 21
389.2981459490234784
 31
0.0
  0
ARC
  5
3A0F6
  8
0
 10
6496.7382622455897945
 20
389.3277259490234883
 30
0.0
 40
0.0295
 50
0.0
 51
90.0
  0
LINE
  5
3A0F7
  8
0
 10
6496.7677622455912569
 20
387.7911009490234733
 30
0.0
 11
6496.7677622455912569
 21
387.7615209490235202
 31
0.0
  0
ARC
  5
3A0F8
  8
0
 10
6496.7382622455897945
 20
387.7911009490234733
 30
0.0
 40
0.0295
 50
0.0
 51
90.0
  0
LINE
  5
3A0F9
  8
0
 10
6496.7677622455912569
 20
386.2544759490235151
 30
0.0
 11
6496.7677622455912569
 21
386.2248959490236189
 31
0.0
  0
ARC
  5
3A0FA
  8
0
 10
6496.7382622455897945
 20
386.2544759490235151
 30
0.0
 40
0.0295
 50
0.0
 51
90.0
  0
LINE
  5
3A0FB
  8
0
 10
6495.6272622455899182
 20
392.4304759490236165
 30
0.0
 11
6496.7382622455897945
 21
392.4304759490236165
 31
0.0
  0
LINE
  5
3A0FC
  8
0
 10
6495.6272622455899182
 20
392.3418959490235238
 30
0.0
 11
6496.7382622455897945
 21
392.3418959490235238
 31
0.0
  0
ARC
  5
3A0FD
  8
0
 10
6495.6272622455899182
 20
392.3713959490236221
 30
0.0
 40
0.0295
 50
180.0
 51
270.0
  0
ARC
  5
3A0FE
  8
0
 10
6496.7382622455897945
 20
392.3713959490236221
 30
0.0
 40
0.0295
 50
270.0
 51
0.0
  0
LINE
  5
3A0FF
  8
0
 10
6496.7382622455897945
 20
390.8938509490234878
 30
0.0
 11
6495.6272622455899182
 21
390.8938509490234878
 31
0.0
  0
LINE
  5
3A100
  8
0
 10
6496.7382622455897945
 20
390.8052709490235088
 30
0.0
 11
6495.6272622455899182
 21
390.8052709490235088
 31
0.0
  0
ARC
  5
3A101
  8
0
 10
6495.6272622455899182
 20
390.8347709490234934
 30
0.0
 40
0.0295
 50
180.0
 51
270.0
  0
ARC
  5
3A102
  8
0
 10
6496.7382622455897945
 20
390.8347709490234934
 30
0.0
 40
0.0295
 50
270.0
 51
0.0
  0
LINE
  5
3A103
  8
0
 10
6496.7382622455897945
 20
389.3572259490234728
 30
0.0
 11
6495.6272622455899182
 21
389.3572259490234728
 31
0.0
  0
LINE
  5
3A104
  8
0
 10
6496.7382622455897945
 20
389.2686459490234938
 30
0.0
 11
6495.6272622455899182
 21
389.2686459490234938
 31
0.0
  0
ARC
  5
3A105
  8
0
 10
6496.7382622455897945
 20
389.2981459490234784
 30
0.0
 40
0.0295
 50
270.0
 51
0.0
  0
ARC
  5
3A106
  8
0
 10
6495.6272622455899182
 20
389.2981459490234784
 30
0.0
 40
0.0295
 50
180.0
 51
270.0
  0
LINE
  5
3A107
  8
0
 10
6496.7382622455897945
 20
387.8206009490235147
 30
0.0
 11
6495.6272622455899182
 21
387.8206009490235147
 31
0.0
  0
LINE
  5
3A108
  8
0
 10
6496.7382622455897945
 20
387.7320209490234788
 30
0.0
 11
6495.6272622455899182
 21
387.7320209490234788
 31
0.0
  0
ARC
  5
3A109
  8
0
 10
6495.6272622455899182
 20
387.7615209490235202
 30
0.0
 40
0.0295
 50
180.0
 51
270.0
  0
ARC
  5
3A10A
  8
0
 10
6496.7382622455897945
 20
387.7615209490235202
 30
0.0
 40
0.0295
 50
270.0
 51
0.0
  0
LINE
  5
3A10B
  8
0
 10
6496.7382622455897945
 20
386.2839759490236133
 30
0.0
 11
6495.6272622455899182
 21
386.2839759490236133
 31
0.0
  0
LINE
  5
3A10C
  8
0
 10
6496.7382622455897945
 20
386.1953959490235206
 30
0.0
 11
6495.6272622455899182
 21
386.1953959490235206
 31
0.0
  0
ARC
  5
3A10D
  8
0
 10
6496.7382622455897945
 20
386.2248959490236189
 30
0.0
 40
0.0295
 50
270.0
 51
0.0
  0
ARC
  5
3A10E
  8
0
 10
6495.6272622455899182
 20
386.2248959490236189
 30
0.0
 40
0.0295
 50
180.0
 51
270.0
  0
LINE
  5
3A10F
  8
0
 10
6499.6589422455899694
 20
392.4009759490235751
 30
0.0
 11
6499.6589422455899694
 21
392.3713959490236221
 31
0.0
  0
ARC
  5
3A110
  8
0
 10
6499.6294422455903259
 20
392.4009759490235751
 30
0.0
 40
0.0295
 50
0.0
 51
90.0
  0
LINE
  5
3A111
  8
0
 10
6499.6589422455899694
 20
390.8643509490235033
 30
0.0
 11
6499.6589422455899694
 21
390.8347709490234934
 31
0.0
  0
ARC
  5
3A112
  8
0
 10
6499.6294422455903259
 20
390.8643509490235033
 30
0.0
 40
0.0295
 50
0.0
 51
90.0
  0
LINE
  5
3A113
  8
0
 10
6499.6589422455899694
 20
389.3277259490234883
 30
0.0
 11
6499.6589422455899694
 21
389.2981459490234784
 31
0.0
  0
ARC
  5
3A114
  8
0
 10
6499.6294422455903259
 20
389.3277259490234883
 30
0.0
 40
0.0295
 50
0.0
 51
90.0
  0
LINE
  5
3A115
  8
0
 10
6499.6589422455899694
 20
387.7911009490234733
 30
0.0
 11
6499.6589422455899694
 21
387.7615209490235202
 31
0.0
  0
ARC
  5
3A116
  8
0
 10
6499.6294422455903259
 20
387.7911009490234733
 30
0.0
 40
0.0295
 50
0.0
 51
90.0
  0
LINE
  5
3A117
  8
0
 10
6499.6589422455899694
 20
386.2544759490235151
 30
0.0
 11
6499.6589422455899694
 21
386.2248959490236189
 31
0.0
  0
ARC
  5
3A118
  8
0
 10
6499.6294422455903259
 20
386.2544759490235151
 30
0.0
 40
0.0295
 50
0.0
 51
90.0
  0
LINE
  5
3A119
  8
0
 10
6498.4889422455898966
 20
392.4009759490235751
 30
0.0
 11
6498.4889422455898966
 21
392.3713959490236221
 31
0.0
  0
ARC
  5
3A11A
  8
0
 10
6498.5184422455904496
 20
392.4009759490235751
 30
0.0
 40
0.0295
 50
90.0
 51
180.0
  0
LINE
  5
3A11B
  8
0
 10
6498.4889422455898966
 20
390.8643509490235033
 30
0.0
 11
6498.4889422455898966
 21
390.8347709490234934
 31
0.0
  0
ARC
  5
3A11C
  8
0
 10
6498.5184422455904496
 20
390.8643509490235033
 30
0.0
 40
0.0295
 50
90.0
 51
180.0
  0
LINE
  5
3A11D
  8
0
 10
6498.4889422455898966
 20
389.3277259490234883
 30
0.0
 11
6498.4889422455898966
 21
389.2981459490234784
 31
0.0
  0
ARC
  5
3A11E
  8
0
 10
6498.5184422455904496
 20
389.3277259490234883
 30
0.0
 40
0.0295
 50
90.0
 51
180.0
  0
LINE
  5
3A11F
  8
0
 10
6498.4889422455898966
 20
387.7911009490234733
 30
0.0
 11
6498.4889422455898966
 21
387.7615209490235202
 31
0.0
  0
ARC
  5
3A120
  8
0
 10
6498.5184422455904496
 20
387.7911009490234733
 30
0.0
 40
0.0295
 50
90.0
 51
180.0
  0
LINE
  5
3A121
  8
0
 10
6498.4889422455898966
 20
386.2544759490235151
 30
0.0
 11
6498.4889422455898966
 21
386.2248959490236189
 31
0.0
  0
ARC
  5
3A122
  8
0
 10
6498.5184422455904496
 20
386.2544759490235151
 30
0.0
 40
0.0295
 50
90.0
 51
180.0
  0
LINE
  5
3A123
  8
0
 10
6499.6294422455903259
 20
392.4304759490236165
 30
0.0
 11
6498.5184422455904496
 21
392.4304759490236165
 31
0.0
  0
LINE
  5
3A124
  8
0
 10
6499.6294422455903259
 20
392.3418959490235238
 30
0.0
 11
6498.5184422455904496
 21
392.3418959490235238
 31
0.0
  0
ARC
  5
3A125
  8
0
 10
6499.6294422455903259
 20
392.3713959490236221
 30
0.0
 40
0.0295
 50
270.0
 51
0.0
  0
ARC
  5
3A126
  8
0
 10
6498.5184422455904496
 20
392.3713959490236221
 30
0.0
 40
0.0295
 50
180.0
 51
270.0
  0
LINE
  5
3A127
  8
0
 10
6498.5184422455904496
 20
390.8938509490234878
 30
0.0
 11
6499.6294422455903259
 21
390.8938509490234878
 31
0.0
  0
LINE
  5
3A128
  8
0
 10
6498.5184422455904496
 20
390.8052709490235088
 30
0.0
 11
6499.6294422455903259
 21
390.8052709490235088
 31
0.0
  0
ARC
  5
3A129
  8
0
 10
6499.6294422455903259
 20
390.8347709490234934
 30
0.0
 40
0.0295
 50
270.0
 51
0.0
  0
ARC
  5
3A12A
  8
0
 10
6498.5184422455904496
 20
390.8347709490234934
 30
0.0
 40
0.0295
 50
180.0
 51
270.0
  0
LINE
  5
3A12B
  8
0
 10
6498.5184422455904496
 20
389.3572259490234728
 30
0.0
 11
6499.6294422455903259
 21
389.3572259490234728
 31
0.0
  0
LINE
  5
3A12C
  8
0
 10
6498.5184422455904496
 20
389.2686459490234938
 30
0.0
 11
6499.6294422455903259
 21
389.2686459490234938
 31
0.0
  0
ARC
  5
3A12D
  8
0
 10
6498.5184422455904496
 20
389.2981459490234784
 30
0.0
 40
0.0295
 50
180.0
 51
270.0
  0
ARC
  5
3A12E
  8
0
 10
6499.6294422455903259
 20
389.2981459490234784
 30
0.0
 40
0.0295
 50
270.0
 51
0.0
  0
LINE
  5
3A12F
  8
0
 10
6498.5184422455904496
 20
387.8206009490235147
 30
0.0
 11
6499.6294422455903259
 21
387.8206009490235147
 31
0.0
  0
LINE
  5
3A130
  8
0
 10
6498.5184422455904496
 20
387.7320209490234788
 30
0.0
 11
6499.6294422455903259
 21
387.7320209490234788
 31
0.0
  0
ARC
  5
3A131
  8
0
 10
6499.6294422455903259
 20
387.7615209490235202
 30
0.0
 40
0.0295
 50
270.0
 51
0.0
  0
ARC
  5
3A132
  8
0
 10
6498.5184422455904496
 20
387.7615209490235202
 30
0.0
 40
0.0295
 50
180.0
 51
270.0
  0
LINE
  5
3A133
  8
0
 10
6498.5184422455904496
 20
386.2839759490236133
 30
0.0
 11
6499.6294422455903259
 21
386.2839759490236133
 31
0.0
  0
LINE
  5
3A134
  8
0
 10
6498.5184422455904496
 20
386.1953959490235206
 30
0.0
 11
6499.6294422455903259
 21
386.1953959490235206
 31
0.0
  0
ARC
  5
3A135
  8
0
 10
6498.5184422455904496
 20
386.2248959490236189
 30
0.0
 40
0.0295
 50
180.0
 51
270.0
  0
ARC
  5
3A136
  8
0
 10
6499.6294422455903259
 20
386.2248959490236189
 30
0.0
 40
0.0295
 50
270.0
 51
0.0
  0
LINE
  5
3A137
  8
0
 10
6498.2133522455887942
 20
392.4009759490235751
 30
0.0
 11
6498.2133522455887942
 21
392.3713959490236221
 31
0.0
  0
ARC
  5
3A138
  8
0
 10
6498.1838522455900602
 20
392.4009759490235751
 30
0.0
 40
0.0295
 50
0.0
 51
90.0
  0
LINE
  5
3A139
  8
0
 10
6498.2133522455887942
 20
390.8643509490235033
 30
0.0
 11
6498.2133522455887942
 21
390.8347709490234934
 31
0.0
  0
ARC
  5
3A13A
  8
0
 10
6498.1838522455900602
 20
390.8643509490235033
 30
0.0
 40
0.0295
 50
0.0
 51
90.0
  0
LINE
  5
3A13B
  8
0
 10
6498.2133522455887942
 20
389.3277259490234883
 30
0.0
 11
6498.2133522455887942
 21
389.2981459490234784
 31
0.0
  0
ARC
  5
3A13C
  8
0
 10
6498.1838522455900602
 20
389.3277259490234883
 30
0.0
 40
0.0295
 50
0.0
 51
90.0
  0
LINE
  5
3A13D
  8
0
 10
6498.2133522455887942
 20
387.7911009490234733
 30
0.0
 11
6498.2133522455887942
 21
387.7615209490235202
 31
0.0
  0
ARC
  5
3A13E
  8
0
 10
6498.1838522455900602
 20
387.7911009490234733
 30
0.0
 40
0.0295
 50
0.0
 51
90.0
  0
LINE
  5
3A13F
  8
0
 10
6498.2133522455887942
 20
386.2544759490235151
 30
0.0
 11
6498.2133522455887942
 21
386.2248959490236189
 31
0.0
  0
ARC
  5
3A140
  8
0
 10
6498.1838522455900602
 20
386.2544759490235151
 30
0.0
 40
0.0295
 50
0.0
 51
90.0
  0
LINE
  5
3A141
  8
0
 10
6497.0433522455887214
 20
392.4009759490235751
 30
0.0
 11
6497.0433522455887214
 21
392.3713959490236221
 31
0.0
  0
ARC
  5
3A142
  8
0
 10
6497.0728522455901839
 20
392.4009759490235751
 30
0.0
 40
0.0295
 50
90.0
 51
180.0
  0
LINE
  5
3A143
  8
0
 10
6497.0433522455887214
 20
390.8643509490235033
 30
0.0
 11
6497.0433522455887214
 21
390.8347709490234934
 31
0.0
  0
ARC
  5
3A144
  8
0
 10
6497.0728522455901839
 20
390.8643509490235033
 30
0.0
 40
0.0295
 50
90.0
 51
180.0
  0
LINE
  5
3A145
  8
0
 10
6497.0433522455887214
 20
389.3277259490234883
 30
0.0
 11
6497.0433522455887214
 21
389.2981459490234784
 31
0.0
  0
ARC
  5
3A146
  8
0
 10
6497.0728522455901839
 20
389.3277259490234883
 30
0.0
 40
0.0295
 50
90.0
 51
180.0
  0
LINE
  5
3A147
  8
0
 10
6497.0433522455887214
 20
387.7911009490234733
 30
0.0
 11
6497.0433522455887214
 21
387.7615209490235202
 31
0.0
  0
ARC
  5
3A148
  8
0
 10
6497.0728522455901839
 20
387.7911009490234733
 30
0.0
 40
0.0295
 50
90.0
 51
180.0
  0
LINE
  5
3A149
  8
0
 10
6497.0433522455887214
 20
386.2544759490235151
 30
0.0
 11
6497.0433522455887214
 21
386.2248959490236189
 31
0.0
  0
ARC
  5
3A14A
  8
0
 10
6497.0728522455901839
 20
386.2544759490235151
 30
0.0
 40
0.0295
 50
90.0
 51
180.0
  0
LINE
  5
3A14B
  8
0
 10
6498.1838522455900602
 20
392.4304759490236165
 30
0.0
 11
6497.0728522455901839
 21
392.4304759490236165
 31
0.0
  0
LINE
  5
3A14C
  8
0
 10
6498.1838522455900602
 20
392.3418959490235238
 30
0.0
 11
6497.0728522455901839
 21
392.3418959490235238
 31
0.0
  0
ARC
  5
3A14D
  8
0
 10
6498.1838522455900602
 20
392.3713959490236221
 30
0.0
 40
0.0295
 50
270.0
 51
0.0
  0
ARC
  5
3A14E
  8
0
 10
6497.0728522455901839
 20
392.3713959490236221
 30
0.0
 40
0.0295
 50
180.0
 51
270.0
  0
LINE
  5
3A14F
  8
0
 10
6497.0728522455901839
 20
390.8938509490234878
 30
0.0
 11
6498.1838522455900602
 21
390.8938509490234878
 31
0.0
  0
LINE
  5
3A150
  8
0
 10
6497.0728522455901839
 20
390.8052709490235088
 30
0.0
 11
6498.1838522455900602
 21
390.8052709490235088
 31
0.0
  0
ARC
  5
3A151
  8
0
 10
6498.1838522455900602
 20
390.8347709490234934
 30
0.0
 40
0.0295
 50
270.0
 51
0.0
  0
ARC
  5
3A152
  8
0
 10
6497.0728522455901839
 20
390.8347709490234934
 30
0.0
 40
0.0295
 50
180.0
 51
270.0
  0
LINE
  5
3A153
  8
0
 10
6497.0728522455901839
 20
389.3572259490234728
 30
0.0
 11
6498.1838522455900602
 21
389.3572259490234728
 31
0.0
  0
LINE
  5
3A154
  8
0
 10
6497.0728522455901839
 20
389.2686459490234938
 30
0.0
 11
6498.1838522455900602
 21
389.2686459490234938
 31
0.0
  0
ARC
  5
3A155
  8
0
 10
6497.0728522455901839
 20
389.2981459490234784
 30
0.0
 40
0.0295
 50
180.0
 51
270.0
  0
ARC
  5
3A156
  8
0
 10
6498.1838522455900602
 20
389.2981459490234784
 30
0.0
 40
0.0295
 50
270.0
 51
0.0
  0
LINE
  5
3A157
  8
0
 10
6497.0728522455901839
 20
387.8206009490235147
 30
0.0
 11
6498.1838522455900602
 21
387.8206009490235147
 31
0.0
  0
LINE
  5
3A158
  8
0
 10
6497.0728522455901839
 20
387.7320209490234788
 30
0.0
 11
6498.1838522455900602
 21
387.7320209490234788
 31
0.0
  0
ARC
  5
3A159
  8
0
 10
6498.1838522455900602
 20
387.7615209490235202
 30
0.0
 40
0.0295
 50
270.0
 51
0.0
  0
ARC
  5
3A15A
  8
0
 10
6497.0728522455901839
 20
387.7615209490235202
 30
0.0
 40
0.0295
 50
180.0
 51
270.0
  0
LINE
  5
3A15B
  8
0
 10
6497.0728522455901839
 20
386.2839759490236133
 30
0.0
 11
6498.1838522455900602
 21
386.2839759490236133
 31
0.0
  0
LINE
  5
3A15C
  8
0
 10
6497.0728522455901839
 20
386.1953959490235206
 30
0.0
 11
6498.1838522455900602
 21
386.1953959490235206
 31
0.0
  0
ARC
  5
3A15D
  8
0
 10
6497.0728522455901839
 20
386.2248959490236189
 30
0.0
 40
0.0295
 50
180.0
 51
270.0
  0
ARC
  5
3A15E
  8
0
 10
6498.1838522455900602
 20
386.2248959490236189
 30
0.0
 40
0.0295
 50
270.0
 51
0.0
  0
LINE
  5
3A15F
  8
0
 10
6493.9255572455886067
 20
378.2921859490235192
 30
0.0
 11
6499.8855572455895526
 21
378.2921859490235192
 31
0.0
  0
ARC
  5
3A160
  8
0
 10
6499.8855572455895526
 20
378.3121859490235011
 30
0.0
 40
0.02
 50
270.0
 51
0.0
  0
ARC
  5
3A161
  8
0
 10
6493.9255572455886067
 20
378.3121859490235011
 30
0.0
 40
0.02
 50
180.0
 51
270.0
  0
LINE
  5
3A162
  8
0
 10
6493.9055572455890797
 20
379.1721859490235147
 30
0.0
 11
6493.9055572455890797
 21
378.3121859490235011
 31
0.0
  0
ARC
  5
3A163
  8
0
 10
6493.9255572455886067
 20
379.1721859490235147
 30
0.0
 40
0.02
 50
90.0
 51
180.0
  0
LINE
  5
3A164
  8
0
 10
6493.6075572455902147
 20
379.1921859490236102
 30
0.0
 11
6500.2035572455897636
 21
379.1921859490236102
 31
0.0
  0
LINE
  5
3A165
  8
0
 10
6493.7515572455886286
 20
379.3361859490236156
 30
0.0
 11
6500.0595572455886213
 21
379.3361859490236156
 31
0.0
  0
LINE
  5
3A166
  8
0
 10
6493.7035572455897636
 20
379.2881859490236138
 30
0.0
 11
6500.1075572455902147
 21
379.2881859490236138
 31
0.0
  0
ARC
  5
3A167
  8
0
 10
6493.6980213716888102
 20
379.3251302179015738
 30
0.0
 40
0.0373567250006978
 50
278.5220192110185735
 51
322.0661646962262239
  0
ARC
  5
3A168
  8
0
 10
6493.6154147428142096
 20
379.40092588451148
 30
0.0
 40
0.14937711130978
 50
318.6123235428638054
 51
325.6389961345682877
  0
ARC
  5
3A169
  8
0
 10
6493.2805829232256656
 20
379.6310224841190006
 30
0.0
 40
0.555648625259557
 50
325.5396556964856245
 51
327.9528561821106791
  0
ARC
  5
3A16A
  8
0
 10
6494.1530501406969051
 20
378.7001289906302191
 30
0.0
 40
0.7521735166448245
 50
122.2610059958444992
 51
123.7245283278714965
  0
ARC
  5
3A16B
  8
0
 10
6493.844269237501976
 20
379.1627480351857002
 30
0.0
 40
0.1959702952241447
 50
123.7327627148798967
 51
129.0846980979216028
  0
ARC
  5
3A16C
  8
0
 10
6493.7680790344757042
 20
379.256551233340474
 30
0.0
 40
0.0751233382033077
 50
129.0846980979640932
 51
140.6734755742666039
  0
ARC
  5
3A16D
  8
0
 10
6493.7311930360556289
 20
379.2863688138556881
 30
0.0
 40
0.0276954670462428
 50
140.0304855165944957
 51
176.238047909455787
  0
LINE
  5
3A16E
  8
0
 10
6499.9055572455899892
 20
379.1721859490235147
 30
0.0
 11
6499.9055572455899892
 21
378.3121859490235011
 31
0.0
  0
ARC
  5
3A16F
  8
0
 10
6499.8855572455895526
 20
379.1721859490235147
 30
0.0
 40
0.02
 50
0.0
 51
90.0
  0
ARC
  5
3A170
  8
0
 10
6500.1130931194911682
 20
379.3251302179015738
 30
0.0
 40
0.0373567250006978
 50
217.9338353037738045
 51
261.4779807889814265
  0
ARC
  5
3A171
  8
0
 10
6500.1956997483666783
 20
379.40092588451148
 30
0.0
 40
0.14937711130978
 50
214.3610038654317123
 51
221.3876764571361946
  0
ARC
  5
3A172
  8
0
 10
6500.5305315679534033
 20
379.6310224841190006
 30
0.0
 40
0.555648625259557
 50
212.0471438178892072
 51
214.4603443035144039
  0
ARC
  5
3A173
  8
0
 10
6499.6580643504830732
 20
378.7001289906302191
 30
0.0
 40
0.7521735166448245
 50
56.2754716721284609
 51
57.7389940041554794
  0
ARC
  5
3A174
  8
0
 10
6499.9668452536780023
 20
379.1627480351857002
 30
0.0
 40
0.1959702952241447
 50
50.9153019020783688
 51
56.2672372851200819
  0
ARC
  5
3A175
  8
0
 10
6500.0430354567033646
 20
379.256551233340474
 30
0.0
 40
0.0751233382033077
 50
39.3265244257334103
 51
50.9153019020358784
  0
ARC
  5
3A176
  8
0
 10
6500.0799214551243494
 20
379.2863688138556881
 30
0.0
 40
0.0276954670462428
 50
3.7619520905442201
 51
39.9695144834054616
  0
LINE
  5
3A177
  8
0
 10
6494.152172245590009
 20
380.4293959490236148
 30
0.0
 11
6494.152172245590009
 21
380.458975949023511
 31
0.0
  0
ARC
  5
3A178
  8
0
 10
6494.1816722455896524
 20
380.4293959490236148
 30
0.0
 40
0.0295
 50
180.0
 51
270.0
  0
LINE
  5
3A179
  8
0
 10
6494.152172245590009
 20
381.615020949023517
 30
0.0
 11
6494.152172245590009
 21
381.6446009490235269
 31
0.0
  0
ARC
  5
3A17A
  8
0
 10
6494.1816722455896524
 20
381.615020949023517
 30
0.0
 40
0.0295
 50
180.0
 51
270.0
  0
LINE
  5
3A17B
  8
0
 10
6494.152172245590009
 20
383.1516459490234752
 30
0.0
 11
6494.152172245590009
 21
383.1812259490234851
 31
0.0
  0
ARC
  5
3A17C
  8
0
 10
6494.1816722455896524
 20
383.1516459490234752
 30
0.0
 40
0.0295
 50
180.0
 51
270.0
  0
LINE
  5
3A17D
  8
0
 10
6494.152172245590009
 20
384.6882709490234902
 30
0.0
 11
6494.152172245590009
 21
384.7178509490235001
 31
0.0
  0
ARC
  5
3A17E
  8
0
 10
6494.1816722455896524
 20
384.6882709490234902
 30
0.0
 40
0.0295
 50
180.0
 51
270.0
  0
LINE
  5
3A17F
  8
0
 10
6495.3221722455900817
 20
380.4293959490236148
 30
0.0
 11
6495.3221722455900817
 21
380.458975949023511
 31
0.0
  0
ARC
  5
3A180
  8
0
 10
6495.2926722455886193
 20
380.4293959490236148
 30
0.0
 40
0.0295
 50
270.0
 51
0.0
  0
LINE
  5
3A181
  8
0
 10
6495.3221722455900817
 20
381.615020949023517
 30
0.0
 11
6495.3221722455900817
 21
381.6446009490235269
 31
0.0
  0
ARC
  5
3A182
  8
0
 10
6495.2926722455886193
 20
381.615020949023517
 30
0.0
 40
0.0295
 50
270.0
 51
0.0
  0
LINE
  5
3A183
  8
0
 10
6495.3221722455900817
 20
383.1516459490234752
 30
0.0
 11
6495.3221722455900817
 21
383.1812259490234851
 31
0.0
  0
ARC
  5
3A184
  8
0
 10
6495.2926722455886193
 20
383.1516459490234752
 30
0.0
 40
0.0295
 50
270.0
 51
0.0
  0
LINE
  5
3A185
  8
0
 10
6495.3221722455900817
 20
384.6882709490234902
 30
0.0
 11
6495.3221722455900817
 21
384.7178509490235001
 31
0.0
  0
ARC
  5
3A186
  8
0
 10
6495.2926722455886193
 20
384.6882709490234902
 30
0.0
 40
0.0295
 50
270.0
 51
0.0
  0
LINE
  5
3A187
  8
0
 10
6495.2926722455886193
 20
380.3998959490235166
 30
0.0
 11
6494.1816722455896524
 21
380.3998959490235166
 31
0.0
  0
LINE
  5
3A188
  8
0
 10
6495.2926722455886193
 20
380.4884759490234956
 30
0.0
 11
6494.1816722455896524
 21
380.4884759490234956
 31
0.0
  0
ARC
  5
3A189
  8
0
 10
6494.1816722455896524
 20
380.458975949023511
 30
0.0
 40
0.0295
 50
90.0
 51
180.0
  0
ARC
  5
3A18A
  8
0
 10
6495.2926722455886193
 20
380.458975949023511
 30
0.0
 40
0.0295
 50
0.0
 51
90.0
  0
LINE
  5
3A18B
  8
0
 10
6495.2926722455886193
 20
381.5855209490234756
 30
0.0
 11
6494.1816722455896524
 21
381.5855209490234756
 31
0.0
  0
LINE
  5
3A18C
  8
0
 10
6495.2926722455886193
 20
381.6741009490235115
 30
0.0
 11
6494.1816722455896524
 21
381.6741009490235115
 31
0.0
  0
ARC
  5
3A18D
  8
0
 10
6495.2926722455886193
 20
381.6446009490235269
 30
0.0
 40
0.0295
 50
0.0
 51
90.0
  0
ARC
  5
3A18E
  8
0
 10
6494.1816722455896524
 20
381.6446009490235269
 30
0.0
 40
0.0295
 50
90.0
 51
180.0
  0
LINE
  5
3A18F
  8
0
 10
6495.2926722455886193
 20
383.1221459490234906
 30
0.0
 11
6494.1816722455896524
 21
383.1221459490234906
 31
0.0
  0
LINE
  5
3A190
  8
0
 10
6495.2926722455886193
 20
383.2107259490235265
 30
0.0
 11
6494.1816722455896524
 21
383.2107259490235265
 31
0.0
  0
ARC
  5
3A191
  8
0
 10
6494.1816722455896524
 20
383.1812259490234851
 30
0.0
 40
0.0295
 50
90.0
 51
180.0
  0
ARC
  5
3A192
  8
0
 10
6495.2926722455886193
 20
383.1812259490234851
 30
0.0
 40
0.0295
 50
0.0
 51
90.0
  0
LINE
  5
3A193
  8
0
 10
6495.2926722455886193
 20
384.6587709490235056
 30
0.0
 11
6494.1816722455896524
 21
384.6587709490235056
 31
0.0
  0
LINE
  5
3A194
  8
0
 10
6495.2926722455886193
 20
384.7473509490234846
 30
0.0
 11
6494.1816722455896524
 21
384.7473509490234846
 31
0.0
  0
ARC
  5
3A195
  8
0
 10
6495.2926722455886193
 20
384.7178509490235001
 30
0.0
 40
0.0295
 50
0.0
 51
90.0
  0
ARC
  5
3A196
  8
0
 10
6494.1816722455896524
 20
384.7178509490235001
 30
0.0
 40
0.0295
 50
90.0
 51
180.0
  0
LINE
  5
3A197
  8
0
 10
6495.5977622455911842
 20
380.4293959490236148
 30
0.0
 11
6495.5977622455911842
 21
380.458975949023511
 31
0.0
  0
ARC
  5
3A198
  8
0
 10
6495.6272622455899182
 20
380.4293959490236148
 30
0.0
 40
0.0295
 50
180.0
 51
270.0
  0
LINE
  5
3A199
  8
0
 10
6495.5977622455911842
 20
381.615020949023517
 30
0.0
 11
6495.5977622455911842
 21
381.6446009490235269
 31
0.0
  0
ARC
  5
3A19A
  8
0
 10
6495.6272622455899182
 20
381.615020949023517
 30
0.0
 40
0.0295
 50
180.0
 51
270.0
  0
LINE
  5
3A19B
  8
0
 10
6495.5977622455911842
 20
383.1516459490234752
 30
0.0
 11
6495.5977622455911842
 21
383.1812259490234851
 31
0.0
  0
ARC
  5
3A19C
  8
0
 10
6495.6272622455899182
 20
383.1516459490234752
 30
0.0
 40
0.0295
 50
180.0
 51
270.0
  0
LINE
  5
3A19D
  8
0
 10
6495.5977622455911842
 20
384.6882709490234902
 30
0.0
 11
6495.5977622455911842
 21
384.7178509490235001
 31
0.0
  0
ARC
  5
3A19E
  8
0
 10
6495.6272622455899182
 20
384.6882709490234902
 30
0.0
 40
0.0295
 50
180.0
 51
270.0
  0
LINE
  5
3A19F
  8
0
 10
6496.7677622455912569
 20
380.4293959490236148
 30
0.0
 11
6496.7677622455912569
 21
380.458975949023511
 31
0.0
  0
ARC
  5
3A1A0
  8
0
 10
6496.7382622455897945
 20
380.4293959490236148
 30
0.0
 40
0.0295
 50
270.0
 51
0.0
  0
LINE
  5
3A1A1
  8
0
 10
6496.7677622455912569
 20
381.615020949023517
 30
0.0
 11
6496.7677622455912569
 21
381.6446009490235269
 31
0.0
  0
ARC
  5
3A1A2
  8
0
 10
6496.7382622455897945
 20
381.615020949023517
 30
0.0
 40
0.0295
 50
270.0
 51
0.0
  0
LINE
  5
3A1A3
  8
0
 10
6496.7677622455912569
 20
383.1516459490234752
 30
0.0
 11
6496.7677622455912569
 21
383.1812259490234851
 31
0.0
  0
ARC
  5
3A1A4
  8
0
 10
6496.7382622455897945
 20
383.1516459490234752
 30
0.0
 40
0.0295
 50
270.0
 51
0.0
  0
LINE
  5
3A1A5
  8
0
 10
6496.7677622455912569
 20
384.6882709490234902
 30
0.0
 11
6496.7677622455912569
 21
384.7178509490235001
 31
0.0
  0
ARC
  5
3A1A6
  8
0
 10
6496.7382622455897945
 20
384.6882709490234902
 30
0.0
 40
0.0295
 50
270.0
 51
0.0
  0
LINE
  5
3A1A7
  8
0
 10
6496.7382622455897945
 20
380.3998959490235166
 30
0.0
 11
6495.6272622455899182
 21
380.3998959490235166
 31
0.0
  0
LINE
  5
3A1A8
  8
0
 10
6496.7382622455897945
 20
380.4884759490234956
 30
0.0
 11
6495.6272622455899182
 21
380.4884759490234956
 31
0.0
  0
ARC
  5
3A1A9
  8
0
 10
6495.6272622455899182
 20
380.458975949023511
 30
0.0
 40
0.0295
 50
90.0
 51
180.0
  0
ARC
  5
3A1AA
  8
0
 10
6496.7382622455897945
 20
380.458975949023511
 30
0.0
 40
0.0295
 50
0.0
 51
90.0
  0
LINE
  5
3A1AB
  8
0
 10
6496.7382622455897945
 20
381.5855209490234756
 30
0.0
 11
6495.6272622455899182
 21
381.5855209490234756
 31
0.0
  0
LINE
  5
3A1AC
  8
0
 10
6496.7382622455897945
 20
381.6741009490235115
 30
0.0
 11
6495.6272622455899182
 21
381.6741009490235115
 31
0.0
  0
ARC
  5
3A1AD
  8
0
 10
6496.7382622455897945
 20
381.6446009490235269
 30
0.0
 40
0.0295
 50
0.0
 51
90.0
  0
ARC
  5
3A1AE
  8
0
 10
6495.6272622455899182
 20
381.6446009490235269
 30
0.0
 40
0.0295
 50
90.0
 51
180.0
  0
LINE
  5
3A1AF
  8
0
 10
6496.7382622455897945
 20
383.1221459490234906
 30
0.0
 11
6495.6272622455899182
 21
383.1221459490234906
 31
0.0
  0
LINE
  5
3A1B0
  8
0
 10
6496.7382622455897945
 20
383.2107259490235265
 30
0.0
 11
6495.6272622455899182
 21
383.2107259490235265
 31
0.0
  0
ARC
  5
3A1B1
  8
0
 10
6495.6272622455899182
 20
383.1812259490234851
 30
0.0
 40
0.0295
 50
90.0
 51
180.0
  0
ARC
  5
3A1B2
  8
0
 10
6496.7382622455897945
 20
383.1812259490234851
 30
0.0
 40
0.0295
 50
0.0
 51
90.0
  0
LINE
  5
3A1B3
  8
0
 10
6496.7382622455897945
 20
384.6587709490235056
 30
0.0
 11
6495.6272622455899182
 21
384.6587709490235056
 31
0.0
  0
LINE
  5
3A1B4
  8
0
 10
6496.7382622455897945
 20
384.7473509490234846
 30
0.0
 11
6495.6272622455899182
 21
384.7473509490234846
 31
0.0
  0
ARC
  5
3A1B5
  8
0
 10
6496.7382622455897945
 20
384.7178509490235001
 30
0.0
 40
0.0295
 50
0.0
 51
90.0
  0
ARC
  5
3A1B6
  8
0
 10
6495.6272622455899182
 20
384.7178509490235001
 30
0.0
 40
0.0295
 50
90.0
 51
180.0
  0
LINE
  5
3A1B7
  8
0
 10
6499.6589422455899694
 20
380.4293959490236148
 30
0.0
 11
6499.6589422455899694
 21
380.458975949023511
 31
0.0
  0
ARC
  5
3A1B8
  8
0
 10
6499.6294422455903259
 20
380.4293959490236148
 30
0.0
 40
0.0295
 50
270.0
 51
0.0
  0
LINE
  5
3A1B9
  8
0
 10
6499.6589422455899694
 20
381.615020949023517
 30
0.0
 11
6499.6589422455899694
 21
381.6446009490235269
 31
0.0
  0
ARC
  5
3A1BA
  8
0
 10
6499.6294422455903259
 20
381.615020949023517
 30
0.0
 40
0.0295
 50
270.0
 51
0.0
  0
LINE
  5
3A1BB
  8
0
 10
6499.6589422455899694
 20
383.1516459490234752
 30
0.0
 11
6499.6589422455899694
 21
383.1812259490234851
 31
0.0
  0
ARC
  5
3A1BC
  8
0
 10
6499.6294422455903259
 20
383.1516459490234752
 30
0.0
 40
0.0295
 50
270.0
 51
0.0
  0
LINE
  5
3A1BD
  8
0
 10
6499.6589422455899694
 20
384.6882709490234902
 30
0.0
 11
6499.6589422455899694
 21
384.7178509490235001
 31
0.0
  0
ARC
  5
3A1BE
  8
0
 10
6499.6294422455903259
 20
384.6882709490234902
 30
0.0
 40
0.0295
 50
270.0
 51
0.0
  0
LINE
  5
3A1BF
  8
0
 10
6498.4889422455898966
 20
380.4293959490236148
 30
0.0
 11
6498.4889422455898966
 21
380.458975949023511
 31
0.0
  0
ARC
  5
3A1C0
  8
0
 10
6498.5184422455904496
 20
380.4293959490236148
 30
0.0
 40
0.0295
 50
180.0
 51
270.0
  0
LINE
  5
3A1C1
  8
0
 10
6498.4889422455898966
 20
381.615020949023517
 30
0.0
 11
6498.4889422455898966
 21
381.6446009490235269
 31
0.0
  0
ARC
  5
3A1C2
  8
0
 10
6498.5184422455904496
 20
381.615020949023517
 30
0.0
 40
0.0295
 50
180.0
 51
270.0
  0
LINE
  5
3A1C3
  8
0
 10
6498.4889422455898966
 20
383.1516459490234752
 30
0.0
 11
6498.4889422455898966
 21
383.1812259490234851
 31
0.0
  0
ARC
  5
3A1C4
  8
0
 10
6498.5184422455904496
 20
383.1516459490234752
 30
0.0
 40
0.0295
 50
180.0
 51
270.0
  0
LINE
  5
3A1C5
  8
0
 10
6498.4889422455898966
 20
384.6882709490234902
 30
0.0
 11
6498.4889422455898966
 21
384.7178509490235001
 31
0.0
  0
ARC
  5
3A1C6
  8
0
 10
6498.5184422455904496
 20
384.6882709490234902
 30
0.0
 40
0.0295
 50
180.0
 51
270.0
  0
LINE
  5
3A1C7
  8
0
 10
6498.5184422455904496
 20
380.3998959490235166
 30
0.0
 11
6499.6294422455903259
 21
380.3998959490235166
 31
0.0
  0
LINE
  5
3A1C8
  8
0
 10
6498.5184422455904496
 20
380.4884759490234956
 30
0.0
 11
6499.6294422455903259
 21
380.4884759490234956
 31
0.0
  0
ARC
  5
3A1C9
  8
0
 10
6499.6294422455903259
 20
380.458975949023511
 30
0.0
 40
0.0295
 50
0.0
 51
90.0
  0
ARC
  5
3A1CA
  8
0
 10
6498.5184422455904496
 20
380.458975949023511
 30
0.0
 40
0.0295
 50
90.0
 51
180.0
  0
LINE
  5
3A1CB
  8
0
 10
6498.5184422455904496
 20
381.5855209490234756
 30
0.0
 11
6499.6294422455903259
 21
381.5855209490234756
 31
0.0
  0
LINE
  5
3A1CC
  8
0
 10
6498.5184422455904496
 20
381.6741009490235115
 30
0.0
 11
6499.6294422455903259
 21
381.6741009490235115
 31
0.0
  0
ARC
  5
3A1CD
  8
0
 10
6498.5184422455904496
 20
381.6446009490235269
 30
0.0
 40
0.0295
 50
90.0
 51
180.0
  0
ARC
  5
3A1CE
  8
0
 10
6499.6294422455903259
 20
381.6446009490235269
 30
0.0
 40
0.0295
 50
0.0
 51
90.0
  0
LINE
  5
3A1CF
  8
0
 10
6498.5184422455904496
 20
383.1221459490234906
 30
0.0
 11
6499.6294422455903259
 21
383.1221459490234906
 31
0.0
  0
LINE
  5
3A1D0
  8
0
 10
6498.5184422455904496
 20
383.2107259490235265
 30
0.0
 11
6499.6294422455903259
 21
383.2107259490235265
 31
0.0
  0
ARC
  5
3A1D1
  8
0
 10
6499.6294422455903259
 20
383.1812259490234851
 30
0.0
 40
0.0295
 50
0.0
 51
90.0
  0
ARC
  5
3A1D2
  8
0
 10
6498.5184422455904496
 20
383.1812259490234851
 30
0.0
 40
0.0295
 50
90.0
 51
180.0
  0
LINE
  5
3A1D3
  8
0
 10
6498.5184422455904496
 20
384.6587709490235056
 30
0.0
 11
6499.6294422455903259
 21
384.6587709490235056
 31
0.0
  0
LINE
  5
3A1D4
  8
0
 10
6498.5184422455904496
 20
384.7473509490234846
 30
0.0
 11
6499.6294422455903259
 21
384.7473509490234846
 31
0.0
  0
ARC
  5
3A1D5
  8
0
 10
6498.5184422455904496
 20
384.7178509490235001
 30
0.0
 40
0.0295
 50
90.0
 51
180.0
  0
ARC
  5
3A1D6
  8
0
 10
6499.6294422455903259
 20
384.7178509490235001
 30
0.0
 40
0.0295
 50
0.0
 51
90.0
  0
LINE
  5
3A1D7
  8
0
 10
6498.2133522455887942
 20
380.4293959490236148
 30
0.0
 11
6498.2133522455887942
 21
380.458975949023511
 31
0.0
  0
ARC
  5
3A1D8
  8
0
 10
6498.1838522455900602
 20
380.4293959490236148
 30
0.0
 40
0.0295
 50
270.0
 51
0.0
  0
LINE
  5
3A1D9
  8
0
 10
6498.2133522455887942
 20
381.615020949023517
 30
0.0
 11
6498.2133522455887942
 21
381.6446009490235269
 31
0.0
  0
ARC
  5
3A1DA
  8
0
 10
6498.1838522455900602
 20
381.615020949023517
 30
0.0
 40
0.0295
 50
270.0
 51
0.0
  0
LINE
  5
3A1DB
  8
0
 10
6498.2133522455887942
 20
383.1516459490234752
 30
0.0
 11
6498.2133522455887942
 21
383.1812259490234851
 31
0.0
  0
ARC
  5
3A1DC
  8
0
 10
6498.1838522455900602
 20
383.1516459490234752
 30
0.0
 40
0.0295
 50
270.0
 51
0.0
  0
LINE
  5
3A1DD
  8
0
 10
6498.2133522455887942
 20
384.6882709490234902
 30
0.0
 11
6498.2133522455887942
 21
384.7178509490235001
 31
0.0
  0
ARC
  5
3A1DE
  8
0
 10
6498.1838522455900602
 20
384.6882709490234902
 30
0.0
 40
0.0295
 50
270.0
 51
0.0
  0
LINE
  5
3A1DF
  8
0
 10
6497.0433522455887214
 20
380.4293959490236148
 30
0.0
 11
6497.0433522455887214
 21
380.458975949023511
 31
0.0
  0
ARC
  5
3A1E0
  8
0
 10
6497.0728522455901839
 20
380.4293959490236148
 30
0.0
 40
0.0295
 50
180.0
 51
270.0
  0
LINE
  5
3A1E1
  8
0
 10
6497.0433522455887214
 20
381.615020949023517
 30
0.0
 11
6497.0433522455887214
 21
381.6446009490235269
 31
0.0
  0
ARC
  5
3A1E2
  8
0
 10
6497.0728522455901839
 20
381.615020949023517
 30
0.0
 40
0.0295
 50
180.0
 51
270.0
  0
LINE
  5
3A1E3
  8
0
 10
6497.0433522455887214
 20
383.1516459490234752
 30
0.0
 11
6497.0433522455887214
 21
383.1812259490234851
 31
0.0
  0
ARC
  5
3A1E4
  8
0
 10
6497.0728522455901839
 20
383.1516459490234752
 30
0.0
 40
0.0295
 50
180.0
 51
270.0
  0
LINE
  5
3A1E5
  8
0
 10
6497.0433522455887214
 20
384.6882709490234902
 30
0.0
 11
6497.0433522455887214
 21
384.7178509490235001
 31
0.0
  0
ARC
  5
3A1E6
  8
0
 10
6497.0728522455901839
 20
384.6882709490234902
 30
0.0
 40
0.0295
 50
180.0
 51
270.0
  0
LINE
  5
3A1E7
  8
0
 10
6497.0728522455901839
 20
380.3998959490235166
 30
0.0
 11
6498.1838522455900602
 21
380.3998959490235166
 31
0.0
  0
LINE
  5
3A1E8
  8
0
 10
6497.0728522455901839
 20
380.4884759490234956
 30
0.0
 11
6498.1838522455900602
 21
380.4884759490234956
 31
0.0
  0
ARC
  5
3A1E9
  8
0
 10
6498.1838522455900602
 20
380.458975949023511
 30
0.0
 40
0.0295
 50
0.0
 51
90.0
  0
ARC
  5
3A1EA
  8
0
 10
6497.0728522455901839
 20
380.458975949023511
 30
0.0
 40
0.0295
 50
90.0
 51
180.0
  0
LINE
  5
3A1EB
  8
0
 10
6497.0728522455901839
 20
381.5855209490234756
 30
0.0
 11
6498.1838522455900602
 21
381.5855209490234756
 31
0.0
  0
LINE
  5
3A1EC
  8
0
 10
6497.0728522455901839
 20
381.6741009490235115
 30
0.0
 11
6498.1838522455900602
 21
381.6741009490235115
 31
0.0
  0
ARC
  5
3A1ED
  8
0
 10
6497.0728522455901839
 20
381.6446009490235269
 30
0.0
 40
0.0295
 50
90.0
 51
180.0
  0
ARC
  5
3A1EE
  8
0
 10
6498.1838522455900602
 20
381.6446009490235269
 30
0.0
 40
0.0295
 50
0.0
 51
90.0
  0
LINE
  5
3A1EF
  8
0
 10
6497.0728522455901839
 20
383.1221459490234906
 30
0.0
 11
6498.1838522455900602
 21
383.1221459490234906
 31
0.0
  0
LINE
  5
3A1F0
  8
0
 10
6497.0728522455901839
 20
383.2107259490235265
 30
0.0
 11
6498.1838522455900602
 21
383.2107259490235265
 31
0.0
  0
ARC
  5
3A1F1
  8
0
 10
6498.1838522455900602
 20
383.1812259490234851
 30
0.0
 40
0.0295
 50
0.0
 51
90.0
  0
ARC
  5
3A1F2
  8
0
 10
6497.0728522455901839
 20
383.1812259490234851
 30
0.0
 40
0.0295
 50
90.0
 51
180.0
  0
LINE
  5
3A1F3
  8
0
 10
6497.0728522455901839
 20
384.6587709490235056
 30
0.0
 11
6498.1838522455900602
 21
384.6587709490235056
 31
0.0
  0
LINE
  5
3A1F4
  8
0
 10
6497.0728522455901839
 20
384.7473509490234846
 30
0.0
 11
6498.1838522455900602
 21
384.7473509490234846
 31
0.0
  0
ARC
  5
3A1F5
  8
0
 10
6497.0728522455901839
 20
384.7178509490235001
 30
0.0
 40
0.0295
 50
90.0
 51
180.0
  0
ARC
  5
3A1F6
  8
0
 10
6498.1838522455900602
 20
384.7178509490235001
 30
0.0
 40
0.0295
 50
0.0
 51
90.0
  0
LINE
  5
3A1F7
  8
0
 10
6500.1075572455902147
 20
379.2881859490233865
 30
0.0
 11
6500.2035572455897636
 21
379.1921859490236102
 31
0.0
  0
LINE
  5
3A1F8
  8
0
 10
6493.7035572455897636
 20
379.2881859490233865
 30
0.0
 11
6493.6075572455902147
 21
379.1921859490236102
 31
0.0
  0
LINE
  5
3A1F9
  8
0
 10
6493.6075572455902147
 20
393.6381859490235229
 30
0.0
 11
6493.7035572455897636
 21
393.5421859490236898
 31
0.0
  0
LINE
  5
3A1FA
  8
0
 10
6500.1075572455902147
 20
393.542185949022894
 30
0.0
 11
6500.2035572455897636
 21
393.6381859490235229
 31
0.0
  0
ENDSEC
  0
EOF
