  0
SECTION
  2
HEADER
  9
$ACADVER
  1
AC1009
  9
$INSBASE
 10
6480.6655931426867028
 20
389.3677996889384758
 30
0.0
  9
$EXTMIN
 10
6472.4960884059109958
 20
385.1052819994508809
 30
-0.0000000000112498
  9
$EXTMAX
 10
6488.8337667543682983
 20
389.383370855168323
 30
0.0000000000002956
  9
$LIMMIN
 10
0.0
 20
0.0
  9
$LIMMAX
 10
11.6929133858000007
 20
8.2677165353999982
  9
$ORTHOMODE
 70
     0
  9
$REGENMODE
 70
     1
  9
$FILLMODE
 70
     1
  9
$QTEXTMODE
 70
     0
  9
$MIRRTEXT
 70
     0
  9
$DRAGMODE
 70
     2
  9
$LTSCALE
 40
0.6431102362
  9
$OSMODE
 70
  4095
  9
$ATTMODE
 70
     1
  9
$TEXTSIZE
 40
0.2
  9
$TRACEWID
 40
0.05
  9
$TEXTSTYLE
  7
STANDARD
  9
$CLAYER
  8
0
  9
$CELTYPE
  6
BYLAYER
  9
$CECOLOR
 62
   256
  9
$DIMSCALE
 40
1.0
  9
$DIMASZ
 40
0.1875
  9
$DIMEXO
 40
0.0625
  9
$DIMDLI
 40
0.4443307087
  9
$DIMRND
 40
0.0
  9
$DIMDLE
 40
0.0
  9
$DIMEXE
 40
0.125
  9
$DIMTP
 40
0.01
  9
$DIMTM
 40
0.01
  9
$DIMTXT
 40
2.0
  9
$DIMCEN
 40
0.1052362205
  9
$DIMTSZ
 40
0.0
  9
$DIMTOL
 70
     1
  9
$DIMLIM
 70
     0
  9
$DIMTIH
 70
     1
  9
$DIMTOH
 70
     1
  9
$DIMSE1
 70
     0
  9
$DIMSE2
 70
     0
  9
$DIMTAD
 70
     0
  9
$DIMZIN
 70
     0
  9
$DIMBLK
  1

  9
$DIMASO
 70
     1
  9
$DIMSHO
 70
     1
  9
$DIMPOST
  1
\X
  9
$DIMAPOST
  1

  9
$DIMALT
 70
     1
  9
$DIMALTD
 70
     2
  9
$DIMALTF
 40
25.3999999999999986
  9
$DIMLFAC
 40
1.0
  9
$DIMTOFL
 70
     0
  9
$DIMTVP
 40
0.0
  9
$DIMTIX
 70
     0
  9
$DIMSOXD
 70
     0
  9
$DIMSAH
 70
     0
  9
$DIMBLK1
  1

  9
$DIMBLK2
  1

  9
$DIMSTYLE
  2
STANDARD
  9
$DIMCLRD
 70
     0
  9
$DIMCLRE
 70
     0
  9
$DIMCLRT
 70
     0
  9
$DIMTFAC
 40
1.0
  9
$DIMGAP
 40
0.09
  9
$LUNITS
 70
     2
  9
$LUPREC
 70
     4
  9
$SKETCHINC
 40
0.1
  9
$FILLETRAD
 40
0.0
  9
$AUNITS
 70
     0
  9
$AUPREC
 70
     0
  9
$MENU
  1
.
  9
$ELEVATION
 40
0.0
  9
$PELEVATION
 40
0.0
  9
$THICKNESS
 40
0.0
  9
$LIMCHECK
 70
     0
  9
$BLIPMODE
 70
     0
  9
$CHAMFERA
 40
0.0
  9
$CHAMFERB
 40
0.0
  9
$SKPOLY
 70
     0
  9
$TDCREATE
 40
2458060.468368056230247
  9
$TDUPDATE
 40
2460683.8345833332277834
  9
$TDINDWG
 40
0.8108866898
  9
$TDUSRTIMER
 40
0.8108866898
  9
$USRTIMER
 70
     1
  9
$ANGBASE
 50
0.0
  9
$ANGDIR
 70
     0
  9
$PDMODE
 70
     0
  9
$PDSIZE
 40
0.3125
  9
$PLINEWID
 40
0.0
  9
$COORDS
 70
     1
  9
$SPLFRAME
 70
     0
  9
$SPLINETYPE
 70
     6
  9
$SPLINESEGS
 70
     8
  9
$ATTDIA
 70
     1
  9
$ATTREQ
 70
     1
  9
$HANDLING
 70
     1
  9
$HANDSEED
  5
3A08A
  9
$SURFTAB1
 70
     6
  9
$SURFTAB2
 70
     6
  9
$SURFTYPE
 70
     6
  9
$SURFU
 70
     6
  9
$SURFV
 70
     6
  9
$UCSNAME
  2

  9
$UCSORG
 10
0.0
 20
0.0
 30
0.0
  9
$UCSXDIR
 10
1.0
 20
0.0
 30
0.0
  9
$UCSYDIR
 10
0.0
 20
1.0
 30
0.0
  9
$PUCSNAME
  2

  9
$PUCSORG
 10
0.0
 20
0.0
 30
0.0
  9
$PUCSXDIR
 10
1.0
 20
0.0
 30
0.0
  9
$PUCSYDIR
 10
0.0
 20
1.0
 30
0.0
  9
$USERI1
 70
     0
  9
$USERI2
 70
     0
  9
$USERI3
 70
     0
  9
$USERI4
 70
     0
  9
$USERI5
 70
     0
  9
$USERR1
 40
0.0
  9
$USERR2
 40
0.0
  9
$USERR3
 40
0.0
  9
$USERR4
 40
0.0
  9
$USERR5
 40
0.0
  9
$WORLDVIEW
 70
     1
  9
$SHADEDGE
 70
     3
  9
$SHADEDIF
 70
    70
  9
$TILEMODE
 70
     1
  9
$MAXACTVP
 70
    64
  9
$PLIMCHECK
 70
     0
  9
$PEXTMIN
 10
1.0000000000000000E+20
 20
1.0000000000000000E+20
 30
1.0000000000000000E+20
  9
$PEXTMAX
 10
-1.0000000000000000E+20
 20
-1.0000000000000000E+20
 30
-1.0000000000000000E+20
  9
$PLIMMIN
 10
0.0
 20
0.0
  9
$PLIMMAX
 10
12.0
 20
9.0
  9
$UNITMODE
 70
     0
  9
$VISRETAIN
 70
     1
  9
$PLINEGEN
 70
     0
  9
$PSLTSCALE
 70
     1
  0
ENDSEC
  0
SECTION
  2
TABLES
  0
TABLE
  2
VPORT
 70
     1
  0
VPORT
  2
*ACTIVE
 70
     0
 10
0.0
 20
0.0
 11
1.0
 21
1.0
 12
2569.299571134827147
 22
254.664721324770511
 13
0.0
 23
0.0
 14
1.0
 24
1.0
 15
0.0
 25
0.0
 16
0.0
 26
0.0
 36
60.4960186965801583
 17
3911.3653564453120453
 27
132.5796051025390057
 37
0.0
 40
7.640745644240968
 41
2.1449438202247189
 42
50.0
 43
0.0
 44
0.0
 50
0.0
 51
0.0
 71
     0
 72
   100
 73
     1
 74
     1
 75
     0
 76
     0
 77
     0
 78
     0
  0
ENDTAB
  0
TABLE
  2
LTYPE
 70
     2
  0
LTYPE
  2
CONTINUOUS
 70
     0
  3
Solid line
 72
    65
 73
     0
 40
0.0
  0
LTYPE
  2
PHANTOM2
 70
     0
  3
___ _ _ ___ _ _ ___ _ _ ___ _ _
 72
    65
 73
     6
 40
1.25
 49
0.625
 49
-0.125
 49
0.125
 49
-0.125
 49
0.125
 49
-0.125
  0
ENDTAB
  0
TABLE
  2
LAYER
 70
     2
  0
LAYER
  2
0
 70
     0
 62
   255
  6
CONTINUOUS
  0
LAYER
  2
DEFPOINTS
 70
     0
 62
     7
  6
CONTINUOUS
  0
ENDTAB
  0
TABLE
  2
STYLE
 70
     1
  0
STYLE
  2
STANDARD
 70
     0
 40
0.0
 41
0.8
 50
0.0
 71
     0
 42
0.2
  3
txt
  4

  0
ENDTAB
  0
TABLE
  2
VIEW
 70
     0
  0
ENDTAB
  0
TABLE
  2
UCS
 70
     0
  0
ENDTAB
  0
TABLE
  2
APPID
 70
    11
  0
APPID
  2
ACAD
 70
     0
  0
APPID
  2
ACAD_MLEADERVER
 70
     0
  0
APPID
  2
ACAD_EXEMPT_FROM_CAD_STANDARDS
 70
     0
  0
APPID
  2
ACAD_NAV_VCDISPLAY
 70
     0
  0
APPID
  2
ACAECLAYERSTANDARD
 70
     0
  0
APPID
  2
ACCMTRANSPARENCY
 70
     0
  0
APPID
  2
ACAD_DSTYLE_DIMJAG
 70
     0
  0
APPID
  2
ACAD_DSTYLE_DIMTALN
 70
     0
  0
APPID
  2
ACDBATTR
 70
     0
  0
APPID
  2
ACADANNOTATIVE
 70
     0
  0
APPID
  2
DCO15
 70
     0
  0
ENDTAB
  0
TABLE
  2
DIMSTYLE
 70
     1
  0
DIMSTYLE
  2
STANDARD
 70
     0
  3

  4

  5

  6

  7

 40
1.0
 41
0.1875
 42
0.0625
 43
0.38
 44
0.125
 45
0.0
 46
0.0
 47
0.01
 48
0.01
140
0.15625
141
0.09
142
0.0
143
25.3999999999999986
144
1.0
145
0.0
146
1.0
147
0.09
 71
     1
 72
     0
 73
     1
 74
     1
 75
     0
 76
     0
 77
     0
 78
     4
170
     0
171
     2
172
     0
173
     0
174
     0
175
     0
176
     0
177
     0
178
     0
  0
ENDTAB
  0
ENDSEC
  0
SECTION
  2
BLOCKS
  0
BLOCK
  8
0
  2
$MODEL_SPACE
 70
     0
 10
0.0
 20
0.0
 30
0.0
  3
$MODEL_SPACE
  1

  0
ENDBLK
  5
21
  8
0
  0
BLOCK
 67
     1
  8
0
  2
$PAPER_SPACE
 70
     0
 10
0.0
 20
0.0
 30
0.0
  3
$PAPER_SPACE
  1

  0
ENDBLK
  5
1D
 67
     1
  8
0
  0
BLOCK
  8
0
  2
_FILLED
 70
     0
 10
0.0
 20
0.0
 30
0.0
  3
_FILLED
  1

  0
SOLID
  5
2853B
  8
0
  6
BYBLOCK
 62
     0
 10
0.0
 20
0.0
 30
0.0
 11
-1.0
 21
0.1666666667
 31
0.0
 12
-1.0
 22
-0.1666666667
 32
0.0
 13
-1.0
 23
-0.1666666667
 33
0.0
  0
ENDBLK
  5
2853C
  8
0
  6
BYBLOCK
 62
     0
  0
ENDSEC
  0
SECTION
  2
ENTITIES
  0
ATTDEF
  5
2842F
  8
DEFPOINTS
 10
6480.6611005339827898
 20
389.3715443796248223
 30
0.0
 40
0.001
  1
K-37917-WAL
  3

  2
MODELNUMBER
 70
     0
1001
ACDBATTR
1070
     0
1070
     1
  0
ATTDEF
  5
28430
  8
DEFPOINTS
 10
6480.6609747243255697
 20
389.3698775392456923
 30
0.0
 40
0.001
  1
SYNTHOS
  3

  2
TRADENAME
 70
     0
1001
ACDBATTR
1070
     0
1070
     1
  0
ATTDEF
  5
28431
  8
DEFPOINTS
 10
6480.6611005339827898
 20
389.368211046291492
 30
0.0
 40
0.001
  1
COLANDER
  3

  2
PRODUCT
 70
     0
1001
ACDBATTR
1070
     0
1070
     1
  0
LINE
  5
39E8C
  8
0
 10
6472.5425931483150634
 20
389.2297996889383853
 30
0.0
 11
6472.5425931483150634
 21
388.5497996889383785
 31
0.0
  0
ARC
  5
39E8D
  8
0
 10
6472.562593148313681
 20
389.2297996889383853
 30
0.0
 40
0.02
 50
90.0
 51
180.0
  0
LINE
  5
39E8E
  8
0
 10
6472.562593148313681
 20
389.249799688938424
 30
0.0
 11
6473.4225931483133536
 21
389.249799688938424
 31
0.0
  0
LINE
  5
39E8F
  8
0
 10
6472.562593148313681
 20
388.5297996889385104
 30
0.0
 11
6473.4225931483133536
 21
388.5297996889385104
 31
0.0
  0
ARC
  5
39E90
  8
0
 10
6473.4225931483133536
 20
388.5497996889383785
 30
0.0
 40
0.02
 50
270.0
 51
0.0
  0
ARC
  5
39E91
  8
0
 10
6472.562593148313681
 20
388.5497996889383785
 30
0.0
 40
0.02
 50
180.0
 51
270.0
  0
LINE
  5
39E92
  8
0
 10
6473.4625931483142267
 20
389.1277996889385236
 30
0.0
 11
6487.8685931370600883
 21
389.1277996889385236
 31
0.0
  0
LINE
  5
39E93
  8
0
 10
6473.4905931483135646
 20
389.3677996889384758
 30
0.0
 11
6487.8405931370589315
 21
389.3677996889384758
 31
0.0
  0
ARC
  5
39E94
  8
0
 10
6473.4905931483135646
 20
389.319799688938474
 30
0.0
 40
0.048
 50
90.0
 51
180.0
  0
LINE
  5
39E95
  8
0
 10
6473.5865931483149325
 20
385.1177996889384758
 30
0.0
 11
6487.7445931370602921
 21
385.1177996889384758
 31
0.0
  0
LINE
  5
39E96
  8
0
 10
6473.4425931483137902
 20
388.5497996889383785
 30
0.0
 11
6473.4425931483137902
 21
389.319799688938474
 31
0.0
  0
ARC
  5
39E97
  8
0
 10
6473.4225931483133536
 20
389.2297996889383853
 30
0.0
 40
0.02
 50
0.0
 51
90.0
  0
ARC
  5
39E98
  8
0
 10
6473.4625931483142267
 20
389.1477996889383917
 30
0.0
 40
0.02
 50
180.0000000000358114
 51
269.999999999895806
  0
LINE
  5
39E99
  8
0
 10
6473.4905931483135646
 20
389.1277996889385236
 30
0.0
 11
6473.4905931483135646
 21
385.2137996889384226
 31
0.0
  0
ARC
  5
39E9A
  8
0
 10
6473.4229081483135815
 20
388.7349846889384821
 30
0.0
 40
0.0676850000000793
 50
286.9078051376488929
 51
343.0921948688391012
  0
LINE
  5
39E9B
  8
0
 10
6473.4425931483137902
 20
388.7152996889383871
 30
0.0
 11
6473.4905931483135646
 21
388.7152996889383871
 31
0.0
  0
ARC
  5
39E9C
  8
0
 10
6473.5865931483149325
 20
385.2137996889384794
 30
0.0
 40
0.096
 50
180.0
 51
270.0
  0
LINE
  5
39E9D
  8
0
 10
6473.5385931366199657
 20
385.2137997494230035
 30
0.0
 11
6473.5385931483142485
 21
389.1277996889385236
 31
0.0
  0
ARC
  5
39E9E
  8
0
 10
6475.2916346911515575
 20
385.7657017507924024
 30
0.0
 40
1.837865748913339
 50
197.4753258375012877
 51
198.6339597683275997
  0
ARC
  5
39E9F
  8
0
 10
6473.9939789975232998
 20
385.3282698193776241
 30
0.0
 40
0.4684655405387567
 50
198.6494747344218013
 51
201.6296746205167949
  0
ARC
  5
39EA0
  8
0
 10
6473.7512914778144477
 20
385.2320376069683903
 30
0.0
 40
0.207394916132921
 50
201.6296746205198929
 51
207.6816417457067985
  0
ARC
  5
39EA1
  8
0
 10
6473.62369689062416
 20
385.1651010939673938
 30
0.0
 40
0.0633085689209649
 50
207.6816417456952877
 51
220.3162263648927137
  0
ARC
  5
39EA2
  8
0
 10
6473.5890699991268775
 20
385.1351685158372788
 30
0.0
 40
0.0175445415385457
 50
218.9466178176953122
 51
261.8841553342351176
  0
ARC
  5
39EA3
  8
0
 10
6473.5865932860042449
 20
385.2137997494230035
 30
0.0
 40
0.0480001493842792
 50
179.9999999999706972
 51
215.8674844950529064
  0
LINE
  5
39EA4
  8
0
 10
6473.4905931483135646
 20
385.2137996889384226
 30
0.0
 11
6487.8405931370589315
 21
385.2137996889384226
 31
0.0
  0
LINE
  5
39EA5
  8
0
 10
6488.7885931370601611
 20
389.2297996889383853
 30
0.0
 11
6488.7885931370601611
 21
388.5497996889383785
 31
0.0
  0
ARC
  5
39EA6
  8
0
 10
6488.768593137058815
 20
389.2297996889383853
 30
0.0
 40
0.02
 50
0.0
 51
90.0
  0
LINE
  5
39EA7
  8
0
 10
6488.768593137058815
 20
389.249799688938424
 30
0.0
 11
6487.908593137060052
 21
389.249799688938424
 31
0.0
  0
ARC
  5
39EA8
  8
0
 10
6487.908593137060052
 20
389.2297996889383853
 30
0.0
 40
0.02
 50
90.0
 51
180.0
  0
LINE
  5
39EA9
  8
0
 10
6488.768593137058815
 20
388.5297996889385104
 30
0.0
 11
6487.908593137060052
 21
388.5297996889385104
 31
0.0
  0
ARC
  5
39EAA
  8
0
 10
6487.908593137060052
 20
388.5497996889383785
 30
0.0
 40
0.02
 50
180.0
 51
270.0
  0
ARC
  5
39EAB
  8
0
 10
6488.768593137058815
 20
388.5497996889383785
 30
0.0
 40
0.02
 50
270.0
 51
0.0
  0
LINE
  5
39EAC
  8
0
 10
6487.8885931370614344
 20
388.5497996889383785
 30
0.0
 11
6487.8885931370614344
 21
389.319799688938474
 31
0.0
  0
ARC
  5
39EAD
  8
0
 10
6487.8405931370589315
 20
389.319799688938474
 30
0.0
 40
0.048
 50
0.0
 51
90.0
  0
ARC
  5
39EAE
  8
0
 10
6487.8685931370600883
 20
389.1477996889383917
 30
0.0
 40
0.02
 50
270.000000000104194
 51
359.9999999999641886
  0
LINE
  5
39EAF
  8
0
 10
6487.8405931370589315
 20
389.1277996889385236
 30
0.0
 11
6487.8405931370589315
 21
385.2137996889384226
 31
0.0
  0
ARC
  5
39EB0
  8
0
 10
6487.9082781370598241
 20
388.7349846889384821
 30
0.0
 40
0.0676850000000793
 50
196.9078051311608988
 51
253.0921948623511071
  0
LINE
  5
39EB1
  8
0
 10
6487.8885931483137028
 20
388.7152996889383871
 30
0.0
 11
6487.8405931370589315
 21
388.7152996889383871
 31
0.0
  0
ARC
  5
39EB2
  8
0
 10
6487.7445931370602921
 20
385.2137996889384794
 30
0.0
 40
0.096
 50
270.0
 51
359.9999999999968168
  0
LINE
  5
39EB3
  8
0
 10
6487.7925931487534399
 20
385.2137997494230035
 30
0.0
 11
6487.7925931370600665
 21
389.1277996889385236
 31
0.0
  0
ARC
  5
39EB4
  8
0
 10
6486.0395515942227576
 20
385.7657017507924024
 30
0.0
 40
1.837865748913339
 50
341.3660402316724003
 51
342.5246741624986271
  0
ARC
  5
39EB5
  8
0
 10
6487.3372072878510153
 20
385.3282698193776241
 30
0.0
 40
0.4684655405387567
 50
338.3703253794831767
 51
341.3505252655750724
  0
ARC
  5
39EB6
  8
0
 10
6487.5798948075589578
 20
385.2320376069683903
 30
0.0
 40
0.207394916132921
 50
332.3183582542931731
 51
338.3703253794801071
  0
ARC
  5
39EB7
  8
0
 10
6487.707489394750155
 20
385.1651010939673938
 30
0.0
 40
0.0633085689209649
 50
319.6837736351071726
 51
332.318358254301927
  0
ARC
  5
39EB8
  8
0
 10
6487.7421162862456185
 20
385.1351685158372788
 30
0.0
 40
0.0175445415385457
 50
278.1158446657648824
 51
321.0533821823045741
  0
ARC
  5
39EB9
  8
0
 10
6487.7445929993691607
 20
385.2137997494230035
 30
0.0
 40
0.0480001493842792
 50
324.1325155049444788
 51
0.000000000029312
  0
ENDSEC
  0
EOF
