  0
SECTION
  2
HEADER
  9
$ACADVER
  1
AC1009
  9
$INSBASE
 10
7175.871961059118803
 20
163.4188700389674977
 30
0.0
  9
$EXTMIN
 10
7169.9724687382258708
 20
155.2382388673375999
 30
-0.0000000000000058
  9
$EXTMAX
 10
7182.0268861542608647
 20
171.488756357059799
 30
0.0000000000000104
  9
$LIMMIN
 10
0.0
 20
0.0
  9
$LIMMAX
 10
11.6929133858000007
 20
8.2677165353999982
  9
$ORTHOMODE
 70
     0
  9
$REGENMODE
 70
     1
  9
$FILLMODE
 70
     1
  9
$QTEXTMODE
 70
     0
  9
$MIRRTEXT
 70
     0
  9
$DRAGMODE
 70
     2
  9
$LTSCALE
 40
0.6431102362
  9
$OSMODE
 70
  4095
  9
$ATTMODE
 70
     1
  9
$TEXTSIZE
 40
0.2
  9
$TRACEWID
 40
0.05
  9
$TEXTSTYLE
  7
STANDARD
  9
$CLAYER
  8
0
  9
$CELTYPE
  6
BYLAYER
  9
$CECOLOR
 62
   256
  9
$DIMSCALE
 40
1.0
  9
$DIMASZ
 40
0.1875
  9
$DIMEXO
 40
0.0625
  9
$DIMDLI
 40
0.4443307087
  9
$DIMRND
 40
0.0
  9
$DIMDLE
 40
0.0
  9
$DIMEXE
 40
0.125
  9
$DIMTP
 40
0.01
  9
$DIMTM
 40
0.01
  9
$DIMTXT
 40
2.0
  9
$DIMCEN
 40
0.1052362205
  9
$DIMTSZ
 40
0.0
  9
$DIMTOL
 70
     1
  9
$DIMLIM
 70
     0
  9
$DIMTIH
 70
     1
  9
$DIMTOH
 70
     1
  9
$DIMSE1
 70
     0
  9
$DIMSE2
 70
     0
  9
$DIMTAD
 70
     0
  9
$DIMZIN
 70
     0
  9
$DIMBLK
  1

  9
$DIMASO
 70
     1
  9
$DIMSHO
 70
     1
  9
$DIMPOST
  1
\X
  9
$DIMAPOST
  1

  9
$DIMALT
 70
     1
  9
$DIMALTD
 70
     2
  9
$DIMALTF
 40
25.3999999999999986
  9
$DIMLFAC
 40
1.0
  9
$DIMTOFL
 70
     0
  9
$DIMTVP
 40
0.0
  9
$DIMTIX
 70
     0
  9
$DIMSOXD
 70
     0
  9
$DIMSAH
 70
     0
  9
$DIMBLK1
  1

  9
$DIMBLK2
  1

  9
$DIMSTYLE
  2
STANDARD
  9
$DIMCLRD
 70
     0
  9
$DIMCLRE
 70
     0
  9
$DIMCLRT
 70
     0
  9
$DIMTFAC
 40
1.0
  9
$DIMGAP
 40
0.09
  9
$LUNITS
 70
     2
  9
$LUPREC
 70
     4
  9
$SKETCHINC
 40
0.1
  9
$FILLETRAD
 40
0.0
  9
$AUNITS
 70
     0
  9
$AUPREC
 70
     0
  9
$MENU
  1
.
  9
$ELEVATION
 40
0.0
  9
$PELEVATION
 40
0.0
  9
$THICKNESS
 40
0.0
  9
$LIMCHECK
 70
     0
  9
$BLIPMODE
 70
     0
  9
$CHAMFERA
 40
0.0
  9
$CHAMFERB
 40
0.0
  9
$SKPOLY
 70
     0
  9
$TDCREATE
 40
2458060.468368056230247
  9
$TDUPDATE
 40
2460679.4547916669398546
  9
$TDINDWG
 40
1.2757246527999999
  9
$TDUSRTIMER
 40
1.2757246527999999
  9
$USRTIMER
 70
     1
  9
$ANGBASE
 50
0.0
  9
$ANGDIR
 70
     0
  9
$PDMODE
 70
     0
  9
$PDSIZE
 40
0.3125
  9
$PLINEWID
 40
0.0
  9
$COORDS
 70
     2
  9
$SPLFRAME
 70
     0
  9
$SPLINETYPE
 70
     6
  9
$SPLINESEGS
 70
     8
  9
$ATTDIA
 70
     1
  9
$ATTREQ
 70
     1
  9
$HANDLING
 70
     1
  9
$HANDSEED
  5
3AD7A
  9
$SURFTAB1
 70
     6
  9
$SURFTAB2
 70
     6
  9
$SURFTYPE
 70
     6
  9
$SURFU
 70
     6
  9
$SURFV
 70
     6
  9
$UCSNAME
  2

  9
$UCSORG
 10
0.0
 20
0.0
 30
0.0
  9
$UCSXDIR
 10
1.0
 20
0.0
 30
0.0
  9
$UCSYDIR
 10
0.0
 20
1.0
 30
0.0
  9
$PUCSNAME
  2

  9
$PUCSORG
 10
0.0
 20
0.0
 30
0.0
  9
$PUCSXDIR
 10
1.0
 20
0.0
 30
0.0
  9
$PUCSYDIR
 10
0.0
 20
1.0
 30
0.0
  9
$USERI1
 70
     0
  9
$USERI2
 70
     0
  9
$USERI3
 70
     0
  9
$USERI4
 70
     0
  9
$USERI5
 70
     0
  9
$USERR1
 40
0.0
  9
$USERR2
 40
0.0
  9
$USERR3
 40
0.0
  9
$USERR4
 40
0.0
  9
$USERR5
 40
0.0
  9
$WORLDVIEW
 70
     1
  9
$SHADEDGE
 70
     3
  9
$SHADEDIF
 70
    70
  9
$TILEMODE
 70
     1
  9
$MAXACTVP
 70
    64
  9
$PLIMCHECK
 70
     0
  9
$PEXTMIN
 10
1.0000000000000000E+20
 20
1.0000000000000000E+20
 30
1.0000000000000000E+20
  9
$PEXTMAX
 10
-1.0000000000000000E+20
 20
-1.0000000000000000E+20
 30
-1.0000000000000000E+20
  9
$PLIMMIN
 10
0.0
 20
0.0
  9
$PLIMMAX
 10
12.0
 20
9.0
  9
$UNITMODE
 70
     0
  9
$VISRETAIN
 70
     1
  9
$PLINEGEN
 70
     0
  9
$PSLTSCALE
 70
     1
  0
ENDSEC
  0
SECTION
  2
TABLES
  0
TABLE
  2
VPORT
 70
     1
  0
VPORT
  2
*ACTIVE
 70
     0
 10
0.0
 20
0.0
 11
1.0
 21
1.0
 12
3264.6343210009308677
 22
30.7838925096596689
 13
0.0
 23
0.0
 14
1.0
 24
1.0
 15
0.0
 25
0.0
 16
0.0
 26
0.0
 36
60.4960186965801583
 17
3911.3653564453120453
 27
132.5796051025390057
 37
0.0
 40
16.3657693868124916
 41
2.21775147928994
 42
50.0
 43
0.0
 44
0.0
 50
0.0
 51
0.0
 71
     0
 72
   100
 73
     1
 74
     1
 75
     0
 76
     0
 77
     0
 78
     0
  0
ENDTAB
  0
TABLE
  2
LTYPE
 70
     2
  0
LTYPE
  2
CONTINUOUS
 70
     0
  3
Solid line
 72
    65
 73
     0
 40
0.0
  0
LTYPE
  2
PHANTOM2
 70
     0
  3
___ _ _ ___ _ _ ___ _ _ ___ _ _
 72
    65
 73
     6
 40
1.25
 49
0.625
 49
-0.125
 49
0.125
 49
-0.125
 49
0.125
 49
-0.125
  0
ENDTAB
  0
TABLE
  2
LAYER
 70
     2
  0
LAYER
  2
0
 70
     0
 62
   255
  6
CONTINUOUS
  0
LAYER
  2
DEFPOINTS
 70
     0
 62
     7
  6
CONTINUOUS
  0
ENDTAB
  0
TABLE
  2
STYLE
 70
     1
  0
STYLE
  2
STANDARD
 70
     0
 40
0.0
 41
0.8
 50
0.0
 71
     0
 42
0.2
  3
txt
  4

  0
ENDTAB
  0
TABLE
  2
VIEW
 70
     0
  0
ENDTAB
  0
TABLE
  2
UCS
 70
     0
  0
ENDTAB
  0
TABLE
  2
APPID
 70
    11
  0
APPID
  2
ACAD
 70
     0
  0
APPID
  2
ACAD_MLEADERVER
 70
     0
  0
APPID
  2
ACAD_EXEMPT_FROM_CAD_STANDARDS
 70
     0
  0
APPID
  2
ACAD_NAV_VCDISPLAY
 70
     0
  0
APPID
  2
ACAECLAYERSTANDARD
 70
     0
  0
APPID
  2
ACCMTRANSPARENCY
 70
     0
  0
APPID
  2
ACAD_DSTYLE_DIMJAG
 70
     0
  0
APPID
  2
ACAD_DSTYLE_DIMTALN
 70
     0
  0
APPID
  2
ACDBATTR
 70
     0
  0
APPID
  2
ACADANNOTATIVE
 70
     0
  0
APPID
  2
DCO15
 70
     0
  0
ENDTAB
  0
TABLE
  2
DIMSTYLE
 70
     1
  0
DIMSTYLE
  2
STANDARD
 70
     0
  3

  4

  5

  6

  7

 40
1.0
 41
0.1875
 42
0.0625
 43
0.38
 44
0.125
 45
0.0
 46
0.0
 47
0.01
 48
0.01
140
0.15625
141
0.09
142
0.0
143
25.3999999999999986
144
1.0
145
0.0
146
1.0
147
0.09
 71
     1
 72
     0
 73
     1
 74
     1
 75
     0
 76
     0
 77
     0
 78
     4
170
     0
171
     2
172
     0
173
     0
174
     0
175
     0
176
     0
177
     0
178
     0
  0
ENDTAB
  0
ENDSEC
  0
SECTION
  2
BLOCKS
  0
BLOCK
  8
0
  2
$MODEL_SPACE
 70
     0
 10
0.0
 20
0.0
 30
0.0
  3
$MODEL_SPACE
  1

  0
ENDBLK
  5
21
  8
0
  0
BLOCK
 67
     1
  8
0
  2
$PAPER_SPACE
 70
     0
 10
0.0
 20
0.0
 30
0.0
  3
$PAPER_SPACE
  1

  0
ENDBLK
  5
1D
 67
     1
  8
0
  0
BLOCK
  8
0
  2
_FILLED
 70
     0
 10
0.0
 20
0.0
 30
0.0
  3
_FILLED
  1

  0
SOLID
  5
2EA00
  8
0
  6
BYBLOCK
 62
     0
 10
0.0
 20
0.0
 30
0.0
 11
-1.0
 21
0.1666666667
 31
0.0
 12
-1.0
 22
-0.1666666667
 32
0.0
 13
-1.0
 23
-0.1666666667
 33
0.0
  0
ENDBLK
  5
2EA01
  8
0
  6
BYBLOCK
 62
     0
  0
ENDSEC
  0
SECTION
  2
ENTITIES
  0
ATTDEF
  5
26A5B
  8
DEFPOINTS
 10
7175.8602897959599431
 20
163.4232832569419998
 30
0.0
 40
0.001
  1
K-37918-WAL
  3

  2
MODELNUMBER
 70
     0
1001
ACDBATTR
1070
     0
1070
     1
  0
ATTDEF
  5
26A5C
  8
DEFPOINTS
 10
7175.8601639863027231
 20
163.4216164165628129
 30
0.0
 40
0.001
  1
SYNTHOS
  3

  2
TRADENAME
 70
     0
1001
ACDBATTR
1070
     0
1070
     1
  0
ATTDEF
  5
26A5D
  8
DEFPOINTS
 10
7175.8602897959599431
 20
163.4199499236086126
 30
0.0
 40
0.001
  1
SOAKING BIN
  3

  2
PRODUCT
 70
     0
1001
ACDBATTR
1070
     0
1070
     1
  0
LINE
  5
3AAAC
  8
0
 10
7170.39196105911833
 20
171.4868700389675098
 30
0.0
 11
7181.3519610591183664
 21
171.4868700389675098
 31
0.0
  0
ARC
  5
3AAAD
  8
0
 10
7170.39196105911833
 20
171.4668700389674996
 30
0.0
 40
0.02
 50
90.0
 51
180.0
  0
ARC
  5
3AAAE
  8
0
 10
7181.3519610591183664
 20
171.4668700389674996
 30
0.0
 40
0.02
 50
0.0
 51
90.0
  0
LINE
  5
3AAAF
  8
0
 10
7170.39196105911833
 20
155.2408700389675005
 30
0.0
 11
7181.3519610591183664
 21
155.2408700389675005
 31
0.0
  0
ARC
  5
3AAB0
  8
0
 10
7181.3519610591183664
 20
155.2608700389675107
 30
0.0
 40
0.02
 50
270.0
 51
0.0
  0
ARC
  5
3AAB1
  8
0
 10
7170.39196105911833
 20
155.2608700389675107
 30
0.0
 40
0.02
 50
180.0
 51
270.0
  0
LINE
  5
3AAB2
  8
0
 10
7170.073961059118119
 20
156.1408700389675062
 30
0.0
 11
7170.073961059118119
 21
170.5868700389675041
 31
0.0
  0
LINE
  5
3AAB3
  8
0
 10
7170.371961059116984
 20
170.6068700389674859
 30
0.0
 11
7170.371961059116984
 21
171.4668700389674996
 31
0.0
  0
LINE
  5
3AAB4
  8
0
 10
7170.073961059118119
 20
170.5868700389675041
 30
0.0
 11
7181.6699610591167584
 21
170.5868700389675041
 31
0.0
  0
ARC
  5
3AAB5
  8
0
 10
7170.39196105911833
 20
170.6068700389674859
 30
0.0
 40
0.02
 50
180.0
 51
270.0
  0
ARC
  5
3AAB6
  8
0
 10
7181.3519610591183664
 20
170.6068700389674859
 30
0.0
 40
0.02
 50
270.0
 51
0.0
  0
LINE
  5
3AAB7
  8
0
 10
7170.1699610591176679
 20
170.4908700389675005
 30
0.0
 11
7181.573961059118119
 21
170.4908700389675005
 31
0.0
  0
LINE
  5
3AAB8
  8
0
 10
7170.1699610591176679
 20
170.4908700389675005
 30
0.0
 11
7170.1699610591176679
 21
156.2368700389675098
 31
0.0
  0
LINE
  5
3AAB9
  8
0
 10
7170.2179610591192613
 20
170.4428700389674987
 30
0.0
 11
7181.5259610591192541
 21
170.4428700389674987
 31
0.0
  0
LINE
  5
3AABA
  8
0
 10
7170.2179610591192613
 20
170.4428700389674987
 30
0.0
 11
7170.2179610591192613
 21
156.2848700389675116
 31
0.0
  0
ARC
  5
3AABB
  8
0
 10
7170.1936359272658592
 20
170.4915315595791867
 30
0.0
 40
0.0236841084145053
 50
181.6005360376204862
 51
211.7817320552622107
  0
ARC
  5
3AABC
  8
0
 10
7170.2142993924280745
 20
170.504086908031212
 30
0.0
 40
0.0478624805106871
 50
211.5299528761294141
 51
226.8565502538372982
  0
ARC
  5
3AABD
  8
0
 10
7170.2752916376375651
 20
170.5691656510167036
 30
0.0
 40
0.1370549508446057
 50
226.8565502538361898
 51
235.4001802035006108
  0
ARC
  5
3AABE
  8
0
 10
7170.5146007624125559
 20
170.9161828629517004
 30
0.0
 40
0.5585876322647201
 50
235.406968818210089
 51
237.9233626431970094
  0
ARC
  5
3AABF
  8
0
 10
7169.7035227639880759
 20
170.1193888828634897
 30
0.0
 40
0.6076897381477786
 50
32.1618694871687865
 51
34.4141837800338806
  0
ARC
  5
3AAC0
  8
0
 10
7170.0890928424296362
 20
170.3835077486249929
 30
0.0
 40
0.1403322106177454
 50
34.4231769504308218
 51
42.8243006639771124
  0
ARC
  5
3AAC1
  8
0
 10
7170.1566073151534511
 20
170.4460800455337051
 30
0.0
 40
0.0482806143932778
 50
42.8243006639771124
 51
60.6478610613688573
  0
ARC
  5
3AAC2
  8
0
 10
7170.1695771560725916
 20
170.468415394250087
 30
0.0
 40
0.0224579262384181
 50
61.5576010969460583
 51
89.0205197316760319
  0
LINE
  5
3AAC3
  8
0
 10
7170.073961059118119
 20
170.5868700389675041
 30
0.0
 11
7170.1699610591176679
 21
170.4908700389675005
 31
0.0
  0
LINE
  5
3AAC4
  8
0
 10
7170.371961059116984
 20
156.1208700389674959
 30
0.0
 11
7170.371961059116984
 21
155.2608700389675107
 31
0.0
  0
LINE
  5
3AAC5
  8
0
 10
7170.073961059118119
 20
156.1408700389675062
 30
0.0
 11
7181.6699610591167584
 21
156.1408700389675062
 31
0.0
  0
ARC
  5
3AAC6
  8
0
 10
7181.3519610591183664
 20
156.1208700389674959
 30
0.0
 40
0.02
 50
0.0
 51
90.0
  0
ARC
  5
3AAC7
  8
0
 10
7170.39196105911833
 20
156.1208700389674959
 30
0.0
 40
0.02
 50
90.0
 51
180.0
  0
LINE
  5
3AAC8
  8
0
 10
7170.1699610591176679
 20
156.2368700389675098
 30
0.0
 11
7181.573961059118119
 21
156.2368700389675098
 31
0.0
  0
LINE
  5
3AAC9
  8
0
 10
7170.2179610591192613
 20
156.2848700389675116
 30
0.0
 11
7181.5259610591192541
 21
156.2848700389675116
 31
0.0
  0
ARC
  5
3AACA
  8
0
 10
7170.1936359272658592
 20
156.2362085183557099
 30
0.0
 40
0.0236841084145053
 50
148.2182679447377893
 51
178.3994639623794001
  0
ARC
  5
3AACB
  8
0
 10
7170.2142993924280745
 20
156.2236531699037982
 30
0.0
 40
0.0478624805106871
 50
133.1434497461627018
 51
148.4700471238705859
  0
ARC
  5
3AACC
  8
0
 10
7170.2752916376375651
 20
156.158574426918193
 30
0.0
 40
0.1370549508446057
 50
124.5998197964994034
 51
133.1434497461638102
  0
ARC
  5
3AACD
  8
0
 10
7170.5146007624125559
 20
155.8115572149831962
 30
0.0
 40
0.5585876322647201
 50
122.0766373568030048
 51
124.5930311817898968
  0
ARC
  5
3AACE
  8
0
 10
7169.7035227639880759
 20
156.6083511950714069
 30
0.0
 40
0.6076897381477786
 50
325.5858162199662047
 51
327.8381305128311851
  0
ARC
  5
3AACF
  8
0
 10
7170.0890928424296362
 20
156.3442323293099037
 30
0.0
 40
0.1403322106177454
 50
317.1756993360228876
 51
325.5768230495692137
  0
ARC
  5
3AAD0
  8
0
 10
7170.1566073151534511
 20
156.2816600324011915
 30
0.0
 40
0.0482806143932778
 50
299.3521389386311853
 51
317.1756993360228876
  0
ARC
  5
3AAD1
  8
0
 10
7170.1695771560725916
 20
156.2593246836848095
 30
0.0
 40
0.0224579262384181
 50
270.9794802683239823
 51
298.442398903054027
  0
LINE
  5
3AAD2
  8
0
 10
7170.073961059118119
 20
156.1408700389675062
 30
0.0
 11
7170.1699610591176679
 21
156.2368700389675098
 31
0.0
  0
LINE
  5
3AAD3
  8
0
 10
7181.6699610591167584
 20
156.1408700389675062
 30
0.0
 11
7181.6699610591167584
 21
170.5868700389675041
 31
0.0
  0
LINE
  5
3AAD4
  8
0
 10
7181.3719610591178935
 20
170.6068700389674859
 30
0.0
 11
7181.3719610591178935
 21
171.4668700389674996
 31
0.0
  0
LINE
  5
3AAD5
  8
0
 10
7181.573961059118119
 20
170.4908700389675005
 30
0.0
 11
7181.573961059118119
 21
156.2368700389675098
 31
0.0
  0
LINE
  5
3AAD6
  8
0
 10
7181.5259610591192541
 20
170.4428700389674987
 30
0.0
 11
7181.5259610591192541
 21
156.2848700389675116
 31
0.0
  0
ARC
  5
3AAD7
  8
0
 10
7181.5502861909690182
 20
170.4915315595791867
 30
0.0
 40
0.0236841084145053
 50
328.2182679447378177
 51
358.3994639623794001
  0
ARC
  5
3AAD8
  8
0
 10
7181.5296227258077124
 20
170.504086908031212
 30
0.0
 40
0.0478624805106871
 50
313.1434497461626734
 51
328.4700471238705859
  0
ARC
  5
3AAD9
  8
0
 10
7181.4686304805991313
 20
170.5691656510167036
 30
0.0
 40
0.1370549508446057
 50
304.5998197964993892
 51
313.1434497461639239
  0
ARC
  5
3AADA
  8
0
 10
7181.2293213558223215
 20
170.9161828629517004
 30
0.0
 40
0.5585876322647201
 50
302.076637356803019
 51
304.5930311817897973
  0
ARC
  5
3AADB
  8
0
 10
7182.040399354247711
 20
170.1193888828634897
 30
0.0
 40
0.6076897381477786
 50
145.585816219966091
 51
147.8381305128312135
  0
ARC
  5
3AADC
  8
0
 10
7181.6548292758070602
 20
170.3835077486249929
 30
0.0
 40
0.1403322106177454
 50
137.1756993360228876
 51
145.5768230495704927
  0
ARC
  5
3AADD
  8
0
 10
7181.5873148030850643
 20
170.4460800455337051
 30
0.0
 40
0.0482806143932778
 50
119.3521389386311
 51
137.1756993360228876
  0
ARC
  5
3AADE
  8
0
 10
7181.5743449621641048
 20
170.468415394250087
 30
0.0
 40
0.0224579262384181
 50
90.9794802683239539
 51
118.4423989030538991
  0
LINE
  5
3AADF
  8
0
 10
7181.6699610591167584
 20
170.5868700389675041
 30
0.0
 11
7181.573961059118119
 21
170.4908700389675005
 31
0.0
  0
LINE
  5
3AAE0
  8
0
 10
7181.3719610591178935
 20
156.1208700389674959
 30
0.0
 11
7181.3719610591178935
 21
155.2608700389675107
 31
0.0
  0
ARC
  5
3AAE1
  8
0
 10
7181.5502861909690182
 20
156.2362085183557099
 30
0.0
 40
0.0236841084145053
 50
1.6005360376205471
 51
31.7817320552621894
  0
ARC
  5
3AAE2
  8
0
 10
7181.5296227258077124
 20
156.2236531699037982
 30
0.0
 40
0.0478624805106871
 50
31.5299528761293999
 51
46.8565502538372627
  0
ARC
  5
3AAE3
  8
0
 10
7181.4686304805991313
 20
156.158574426918193
 30
0.0
 40
0.1370549508446057
 50
46.8565502538361471
 51
55.4001802035005966
  0
ARC
  5
3AAE4
  8
0
 10
7181.2293213558223215
 20
155.8115572149831962
 30
0.0
 40
0.5585876322647201
 50
55.4069688182101316
 51
57.9233626431970023
  0
ARC
  5
3AAE5
  8
0
 10
7182.040399354247711
 20
156.6083511950714069
 30
0.0
 40
0.6076897381477786
 50
212.1618694871687865
 51
214.414183780033909
  0
ARC
  5
3AAE6
  8
0
 10
7181.6548292758070602
 20
156.3442323293099037
 30
0.0
 40
0.1403322106177454
 50
214.4231769504307863
 51
222.8243006639771124
  0
ARC
  5
3AAE7
  8
0
 10
7181.5873148030850643
 20
156.2816600324011915
 30
0.0
 40
0.0482806143932778
 50
222.8243006639771124
 51
240.6478610613687863
  0
ARC
  5
3AAE8
  8
0
 10
7181.5743449621641048
 20
156.2593246836848095
 30
0.0
 40
0.0224579262384181
 50
241.5576010969460867
 51
269.0205197316760177
  0
LINE
  5
3AAE9
  8
0
 10
7181.6699610591167584
 20
156.1408700389675062
 30
0.0
 11
7181.573961059118119
 21
156.2368700389675098
 31
0.0
  0
ENDSEC
  0
EOF
