  0
SECTION
  2
HEADER
  9
$ACADVER
  1
AC1009
  9
$INSBASE
 10
4713.5197353799958364
 20
172.762412910835593
 30
0.0
  9
$EXTMIN
 10
4705.6584768718694249
 20
172.7620064457119042
 30
-0.0000000000000058
  9
$EXTMAX
 10
4721.1475642773439176
 20
214.7336587553863012
 30
0.0000000000000104
  9
$LIMMIN
 10
0.0
 20
0.0
  9
$LIMMAX
 10
11.6929133858000007
 20
8.2677165353999982
  9
$ORTHOMODE
 70
     0
  9
$REGENMODE
 70
     1
  9
$FILLMODE
 70
     1
  9
$QTEXTMODE
 70
     0
  9
$MIRRTEXT
 70
     0
  9
$DRAGMODE
 70
     2
  9
$LTSCALE
 40
0.6431102362
  9
$OSMODE
 70
  4095
  9
$ATTMODE
 70
     1
  9
$TEXTSIZE
 40
0.2
  9
$TRACEWID
 40
0.05
  9
$TEXTSTYLE
  7
STANDARD
  9
$CLAYER
  8
0
  9
$CELTYPE
  6
BYLAYER
  9
$CECOLOR
 62
   256
  9
$DIMSCALE
 40
1.0
  9
$DIMASZ
 40
0.1875
  9
$DIMEXO
 40
0.0625
  9
$DIMDLI
 40
0.4443307087
  9
$DIMRND
 40
0.0
  9
$DIMDLE
 40
0.0
  9
$DIMEXE
 40
0.125
  9
$DIMTP
 40
0.01
  9
$DIMTM
 40
0.01
  9
$DIMTXT
 40
2.0
  9
$DIMCEN
 40
0.1052362205
  9
$DIMTSZ
 40
0.0
  9
$DIMTOL
 70
     1
  9
$DIMLIM
 70
     0
  9
$DIMTIH
 70
     1
  9
$DIMTOH
 70
     1
  9
$DIMSE1
 70
     0
  9
$DIMSE2
 70
     0
  9
$DIMTAD
 70
     0
  9
$DIMZIN
 70
     0
  9
$DIMBLK
  1

  9
$DIMASO
 70
     1
  9
$DIMSHO
 70
     1
  9
$DIMPOST
  1
\X
  9
$DIMAPOST
  1

  9
$DIMALT
 70
     1
  9
$DIMALTD
 70
     2
  9
$DIMALTF
 40
25.3999999999999986
  9
$DIMLFAC
 40
1.0
  9
$DIMTOFL
 70
     0
  9
$DIMTVP
 40
0.0
  9
$DIMTIX
 70
     0
  9
$DIMSOXD
 70
     0
  9
$DIMSAH
 70
     0
  9
$DIMBLK1
  1

  9
$DIMBLK2
  1

  9
$DIMSTYLE
  2
STANDARD
  9
$DIMCLRD
 70
     0
  9
$DIMCLRE
 70
     0
  9
$DIMCLRT
 70
     0
  9
$DIMTFAC
 40
1.0
  9
$DIMGAP
 40
0.09
  9
$LUNITS
 70
     2
  9
$LUPREC
 70
     4
  9
$SKETCHINC
 40
0.1
  9
$FILLETRAD
 40
0.0
  9
$AUNITS
 70
     0
  9
$AUPREC
 70
     0
  9
$MENU
  1
.
  9
$ELEVATION
 40
0.0
  9
$PELEVATION
 40
0.0
  9
$THICKNESS
 40
0.0
  9
$LIMCHECK
 70
     0
  9
$BLIPMODE
 70
     0
  9
$CHAMFERA
 40
0.0
  9
$CHAMFERB
 40
0.0
  9
$SKPOLY
 70
     0
  9
$TDCREATE
 40
2458060.468368056230247
  9
$TDUPDATE
 40
2460468.5547685190103948
  9
$TDINDWG
 40
0.5078542824
  9
$TDUSRTIMER
 40
0.5078542824
  9
$USRTIMER
 70
     1
  9
$ANGBASE
 50
0.0
  9
$ANGDIR
 70
     0
  9
$PDMODE
 70
     0
  9
$PDSIZE
 40
0.3125
  9
$PLINEWID
 40
0.0
  9
$COORDS
 70
     1
  9
$SPLFRAME
 70
     0
  9
$SPLINETYPE
 70
     6
  9
$SPLINESEGS
 70
     8
  9
$ATTDIA
 70
     1
  9
$ATTREQ
 70
     1
  9
$HANDLING
 70
     1
  9
$HANDSEED
  5
C019
  9
$SURFTAB1
 70
     6
  9
$SURFTAB2
 70
     6
  9
$SURFTYPE
 70
     6
  9
$SURFU
 70
     6
  9
$SURFV
 70
     6
  9
$UCSNAME
  2

  9
$UCSORG
 10
0.0
 20
0.0
 30
0.0
  9
$UCSXDIR
 10
1.0
 20
0.0
 30
0.0
  9
$UCSYDIR
 10
0.0
 20
1.0
 30
0.0
  9
$PUCSNAME
  2

  9
$PUCSORG
 10
0.0
 20
0.0
 30
0.0
  9
$PUCSXDIR
 10
1.0
 20
0.0
 30
0.0
  9
$PUCSYDIR
 10
0.0
 20
1.0
 30
0.0
  9
$USERI1
 70
     0
  9
$USERI2
 70
     0
  9
$USERI3
 70
     0
  9
$USERI4
 70
     0
  9
$USERI5
 70
     0
  9
$USERR1
 40
0.0
  9
$USERR2
 40
0.0
  9
$USERR3
 40
0.0
  9
$USERR4
 40
0.0
  9
$USERR5
 40
0.0
  9
$WORLDVIEW
 70
     1
  9
$SHADEDGE
 70
     3
  9
$SHADEDIF
 70
    70
  9
$TILEMODE
 70
     1
  9
$MAXACTVP
 70
    64
  9
$PLIMCHECK
 70
     0
  9
$PEXTMIN
 10
1.0000000000000000E+20
 20
1.0000000000000000E+20
 30
1.0000000000000000E+20
  9
$PEXTMAX
 10
-1.0000000000000000E+20
 20
-1.0000000000000000E+20
 30
-1.0000000000000000E+20
  9
$PLIMMIN
 10
0.0
 20
0.0
  9
$PLIMMAX
 10
12.0
 20
9.0
  9
$UNITMODE
 70
     0
  9
$VISRETAIN
 70
     1
  9
$PLINEGEN
 70
     0
  9
$PSLTSCALE
 70
     1
  0
ENDSEC
  0
SECTION
  2
TABLES
  0
TABLE
  2
VPORT
 70
     1
  0
VPORT
  2
*ACTIVE
 70
     0
 10
0.0
 20
0.0
 11
1.0
 21
1.0
 12
909.8589531917940576
 22
67.7525704037991687
 13
0.0
 23
0.0
 14
1.0
 24
1.0
 15
0.0
 25
0.0
 16
0.0
 26
0.0
 36
17.1152628219792007
 17
3803.5440673828129547
 27
125.9952621967499056
 37
0.0
 40
42.2578226663312435
 41
2.1604095563139931
 42
50.0
 43
0.0
 44
0.0
 50
0.0
 51
0.0
 71
     0
 72
   100
 73
     1
 74
     1
 75
     0
 76
     0
 77
     0
 78
     0
  0
ENDTAB
  0
TABLE
  2
LTYPE
 70
     2
  0
LTYPE
  2
CONTINUOUS
 70
     0
  3
Solid line
 72
    65
 73
     0
 40
0.0
  0
LTYPE
  2
PHANTOM2
 70
     0
  3
___ _ _ ___ _ _ ___ _ _ ___ _ _
 72
    65
 73
     6
 40
1.25
 49
0.625
 49
-0.125
 49
0.125
 49
-0.125
 49
0.125
 49
-0.125
  0
ENDTAB
  0
TABLE
  2
LAYER
 70
     2
  0
LAYER
  2
0
 70
     0
 62
   255
  6
CONTINUOUS
  0
LAYER
  2
DEFPOINTS
 70
     0
 62
     7
  6
CONTINUOUS
  0
ENDTAB
  0
TABLE
  2
STYLE
 70
     1
  0
STYLE
  2
STANDARD
 70
     0
 40
0.0
 41
0.8
 50
0.0
 71
     0
 42
0.2
  3
txt
  4

  0
ENDTAB
  0
TABLE
  2
VIEW
 70
     0
  0
ENDTAB
  0
TABLE
  2
UCS
 70
     0
  0
ENDTAB
  0
TABLE
  2
APPID
 70
     9
  0
APPID
  2
ACAD
 70
     0
  0
APPID
  2
ACAD_MLEADERVER
 70
     0
  0
APPID
  2
ACAD_EXEMPT_FROM_CAD_STANDARDS
 70
     0
  0
APPID
  2
ACAD_NAV_VCDISPLAY
 70
     0
  0
APPID
  2
ACAECLAYERSTANDARD
 70
     0
  0
APPID
  2
ACCMTRANSPARENCY
 70
     0
  0
APPID
  2
ACAD_DSTYLE_DIMJAG
 70
     0
  0
APPID
  2
ACAD_DSTYLE_DIMTALN
 70
     0
  0
APPID
  2
ACDBATTR
 70
     0
  0
ENDTAB
  0
TABLE
  2
DIMSTYLE
 70
     1
  0
DIMSTYLE
  2
STANDARD
 70
     0
  3

  4

  5

  6

  7

 40
1.0
 41
0.1875
 42
0.0625
 43
0.38
 44
0.125
 45
0.0
 46
0.0
 47
0.01
 48
0.01
140
0.15625
141
0.09
142
0.0
143
25.3999999999999986
144
1.0
145
0.0
146
1.0
147
0.09
 71
     1
 72
     0
 73
     1
 74
     1
 75
     0
 76
     0
 77
     0
 78
     4
170
     0
171
     2
172
     0
173
     0
174
     0
175
     0
176
     0
177
     0
178
     0
  0
ENDTAB
  0
ENDSEC
  0
SECTION
  2
BLOCKS
  0
BLOCK
  8
0
  2
$MODEL_SPACE
 70
     0
 10
0.0
 20
0.0
 30
0.0
  3
$MODEL_SPACE
  1

  0
ENDBLK
  5
21
  8
0
  0
BLOCK
 67
     1
  8
0
  2
$PAPER_SPACE
 70
     0
 10
0.0
 20
0.0
 30
0.0
  3
$PAPER_SPACE
  1

  0
ENDBLK
  5
1D
 67
     1
  8
0
  0
ENDSEC
  0
SECTION
  2
ENTITIES
  0
ATTDEF
  5
3930
  8
DEFPOINTS
 10
4713.5160494970677973
 20
172.7662940018493032
 30
0.0
 40
0.001
  1
K-38020T-ER
  3

  2
MODELNUMBER
 70
     0
1001
ACDBATTR
1070
     0
1070
     1
  0
ATTDEF
  5
3931
  8
DEFPOINTS
 10
4713.5160494970677973
 20
172.7646273351826096
 30
0.0
 40
0.001
  1
PORTICO
  3

  2
TRADENAME
 70
     0
1001
ACDBATTR
1070
     0
1070
     1
  0
ATTDEF
  5
3932
  8
DEFPOINTS
 10
4713.5160494970677973
 20
172.7629606685160013
 30
0.0
 40
0.001
  1
URINAL
  3

  2
PRODUCT
 70
     0
1001
ACDBATTR
1070
     0
1070
     1
  0
LINE
  5
BF14
  8
0
 10
4721.1447353799958364
 20
213.9754728175547029
 30
0.0
 11
4721.1447353799958364
 21
188.6571810532547033
 31
0.0
  0
ARC
  5
BF15
  8
0
 10
4720.3967353799962439
 20
213.9754728175547029
 30
0.0
 40
0.7480000000000001
 50
0.0
 51
90.0
  0
LINE
  5
BF16
  8
0
 10
4705.8947353799958364
 20
213.9754728175547029
 30
0.0
 11
4705.8947353799958364
 21
188.6571810532547033
 31
0.0
  0
LINE
  5
BF17
  8
0
 10
4720.3967353799962439
 20
187.9091810532547129
 30
0.0
 11
4706.6427353799963385
 21
187.9091810532547129
 31
0.0
  0
LINE
  5
BF18
  8
0
 10
4720.3967353799962439
 20
214.7234728175546934
 30
0.0
 11
4706.6427353799963385
 21
214.7234728175546934
 31
0.0
  0
ARC
  5
BF19
  8
0
 10
4706.6427353799963385
 20
213.9754728175547029
 30
0.0
 40
0.7480000000000001
 50
90.0
 51
180.0
  0
ARC
  5
BF1A
  8
0
 10
4706.6427353799963385
 20
188.6571810532547033
 30
0.0
 40
0.7480000000000001
 50
180.0
 51
270.0
  0
ARC
  5
BF1B
  8
0
 10
4720.3967353799962439
 20
188.6571810532547033
 30
0.0
 40
0.7480000000000001
 50
270.0
 51
0.0
  0
LINE
  5
BF1C
  8
0
 10
4708.2436537471967313
 20
207.4734728175546934
 30
0.0
 11
4708.2436537471967313
 21
197.8541202734581077
 31
0.0
  0
ARC
  5
BF1D
  8
0
 10
4709.2269161150979926
 20
197.9751213333377109
 30
0.0
 40
0.9906796357164088
 50
187.0155921035334927
 51
217.7752633348083862
  0
ARC
  5
BF1E
  8
0
 10
4709.4794857980868983
 20
198.170859867369586
 30
0.0
 40
1.310218394664338
 50
217.7752633348083862
 51
229.8002594115691863
  0
ARC
  5
BF1F
  8
0
 10
4712.0843005269416608
 20
201.2532701550348122
 30
0.0
 40
5.3458488228837071
 50
229.8002594115691863
 51
250.3147077851706115
  0
ARC
  5
BF20
  8
0
 10
4713.8116646081562067
 20
206.0815158802498956
 30
0.0
 40
10.4737863665871096
 50
250.3147077851706115
 51
260.9754817933957725
  0
ARC
  5
BF21
  8
0
 10
4713.5543714382865801
 20
206.8886866048991919
 30
0.0
 40
11.2370584589693401
 50
262.9170707877229916
 51
269.8233965669580243
  0
ARC
  5
BF22
  8
0
 10
4713.5197353799958364
 20
207.4734728172682878
 30
0.0
 40
5.2760816328000031
 50
0.000000003110328
 51
179.9999999968896134
  0
LINE
  5
BF23
  8
0
 10
4709.0797441760960282
 20
207.4734728175546934
 30
0.0
 11
4709.0797441760960282
 21
198.6014335280283092
 31
0.0
  0
ARC
  5
BF24
  8
0
 10
4711.0084334674038473
 20
198.7031593560560907
 30
0.0
 40
1.9313701163915751
 50
183.0191824862733938
 51
199.997655497862894
  0
ARC
  5
BF25
  8
0
 10
4712.2432288518957648
 20
200.6389715087069874
 30
0.0
 40
4.0051932895231301
 50
220.4086395764437043
 51
237.5677093752622113
  0
ARC
  5
BF26
  8
0
 10
4712.9245177480906932
 20
201.7111748924590984
 30
0.0
 40
5.2755375956883057
 50
237.5677093752622113
 51
256.3625093951163194
  0
ARC
  5
BF27
  8
0
 10
4713.6864686075077771
 20
206.3877649474700036
 30
0.0
 40
10.0064876967961904
 50
258.4366877400934754
 51
269.0452641686986794
  0
ARC
  5
BF28
  8
0
 10
4713.5197353799958364
 20
207.4734728172709026
 30
0.0
 40
4.4399912039
 50
0.0000000036623705
 51
179.9999999963376069
  0
ARC
  5
BF29
  8
0
 10
4713.6520644136471674
 20
205.8662189740115878
 30
0.0
 40
9.6837660438896016
 50
246.2247773151354977
 51
269.2170266107195857
  0
ARC
  5
BF2A
  8
0
 10
4711.8202357505815598
 20
201.4767846325607081
 30
0.0
 40
4.9292257924746403
 50
225.813172392311202
 51
245.1410388349088976
  0
ARC
  5
BF2B
  8
0
 10
4708.7090272834220741
 20
198.2759867753802894
 30
0.0
 40
0.4655137667441268
 50
181.4063827727983949
 51
225.813172392311202
  0
ARC
  5
BF2C
  8
0
 10
4727.2557317780665471
 20
196.5184324939675946
 30
0.0
 40
17.3255689330134892
 50
145.7205806762499094
 51
177.2323451309642053
  0
ARC
  5
BF2D
  8
0
 10
4733.8577435425677322
 20
196.2286569659545137
 30
0.0
 40
24.6631074741006486
 50
155.9576429416825931
 51
175.9495320088902872
  0
ARC
  5
BF2E
  8
0
 10
4717.8244256695734293
 20
197.9060067830901914
 30
0.0
 40
9.1612185135348572
 50
185.5970704967307086
 51
210.5357938383928058
  0
ARC
  5
BF2F
  8
0
 10
4714.8889393441122593
 20
196.1744021235685125
 30
0.0
 40
5.7530614361905732
 50
210.5357938383928058
 51
233.9163344339941091
  0
ARC
  5
BF30
  8
0
 10
4713.1259851930972218
 20
193.7553401895301874
 30
0.0
 40
2.7597575793642708
 50
233.9163344339941091
 51
257.5741985422403104
  0
ARC
  5
BF31
  8
0
 10
4713.4916754143077924
 20
194.7873108031845106
 30
0.0
 40
3.8486131258003251
 50
255.5629510730124139
 51
270.4177431710210726
  0
ARC
  5
BF32
  8
0
 10
4708.4284053857309118
 20
196.9786177144094097
 30
0.0
 40
0.2805319056284
 50
6.9359543888146229
 51
43.5074962594974082
  0
LINE
  5
BF33
  8
0
 10
4718.7958170127967605
 20
207.4734728175546934
 30
0.0
 11
4718.7958170127967605
 21
197.8541202734581077
 31
0.0
  0
ARC
  5
BF34
  8
0
 10
4717.8125546448945897
 20
197.9751213333377109
 30
0.0
 40
0.9906796357164088
 50
322.2247366651914717
 51
352.9844078964665073
  0
ARC
  5
BF35
  8
0
 10
4717.5599849619065935
 20
198.170859867369586
 30
0.0
 40
1.310218394664338
 50
310.1997405884308137
 51
322.2247366651914717
  0
ARC
  5
BF36
  8
0
 10
4714.9551702330491025
 20
201.2532701550348122
 30
0.0
 40
5.3458488228837071
 50
289.6852922148294169
 51
310.1997405884308137
  0
ARC
  5
BF37
  8
0
 10
4713.2278061518372851
 20
206.0815158802498956
 30
0.0
 40
10.4737863665871096
 50
279.0245182066042275
 51
289.6852922148294169
  0
ARC
  5
BF38
  8
0
 10
4713.5116195610089562
 20
206.4706254069002966
 30
0.0
 40
10.8189469254058803
 50
270.0429803586413868
 51
277.2165522867239247
  0
LINE
  5
BF39
  8
0
 10
4717.9597265838956446
 20
207.4734728175546934
 30
0.0
 11
4717.9597265838956446
 21
198.6014335280283092
 31
0.0
  0
ARC
  5
BF3A
  8
0
 10
4716.0310372925896445
 20
198.7031593560560907
 30
0.0
 40
1.9313701163915751
 50
340.0023445021370208
 51
356.9808175137250146
  0
ARC
  5
BF3B
  8
0
 10
4714.796241908095908
 20
200.6389715087069874
 30
0.0
 40
4.0051932895231301
 50
302.4322906247377887
 51
319.591360423556182
  0
ARC
  5
BF3C
  8
0
 10
4714.1149530119027986
 20
201.7111748924590984
 30
0.0
 40
5.2755375956883057
 50
283.6374906048836806
 51
302.4322906247377887
  0
ARC
  5
BF3D
  8
0
 10
4713.3530021524848053
 20
206.3877649474700036
 30
0.0
 40
10.0064876967961904
 50
270.9547358313013206
 51
281.5633122599065246
  0
ARC
  5
BF3E
  8
0
 10
4713.4715170118452079
 20
205.4797753623828953
 30
0.0
 40
9.2965432973060853
 50
270.2971772721207913
 51
294.2610188020303781
  0
ARC
  5
BF3F
  8
0
 10
4715.219235009411932
 20
201.4767846325607081
 30
0.0
 40
4.9292257924746403
 50
294.8589611650911024
 51
314.1868276076888264
  0
ARC
  5
BF40
  8
0
 10
4718.3304434765695987
 20
198.2759867753802894
 30
0.0
 40
0.4655137667441268
 50
314.1868276076888264
 51
358.5936172272016051
  0
ARC
  5
BF41
  8
0
 10
4699.7837389819251257
 20
196.5184324939675946
 30
0.0
 40
17.3255689330134892
 50
2.7676548690357432
 51
34.2794187526758307
  0
ARC
  5
BF42
  8
0
 10
4695.3382856664647989
 20
196.789986976868704
 30
0.0
 40
22.4759821981450187
 50
3.0113592046096072
 51
24.9661184045488085
  0
ARC
  5
BF43
  8
0
 10
4709.215045090419153
 20
197.9060067830901914
 30
0.0
 40
9.1612185135348572
 50
329.4642061616071942
 51
354.4029295032693199
  0
ARC
  5
BF44
  8
0
 10
4712.150531415882142
 20
196.1744021235685125
 30
0.0
 40
5.7530614361905732
 50
306.0836655660057772
 51
329.4642061616071942
  0
ARC
  5
BF45
  8
0
 10
4713.91348556689627
 20
193.7553401895301874
 30
0.0
 40
2.7597575793642708
 50
282.4258014577598033
 51
306.0836655660057772
  0
ARC
  5
BF46
  8
0
 10
4713.5477953456838804
 20
194.7873108031845106
 30
0.0
 40
3.8486131258003522
 50
269.5822568289789274
 51
284.4370489269876998
  0
ARC
  5
BF47
  8
0
 10
4718.611065374260761
 20
196.9786177144094097
 30
0.0
 40
0.2805319056284
 50
136.4925037405025989
 51
173.0640456111854064
  0
LINE
  5
BF49
  8
0
 10
4715.7140568403092402
 20
206.2767000452859065
 30
0.0
 11
4711.334295801008011
 21
206.2767001641211095
 31
0.0
  0
ARC
  5
BF4A
  8
0
 10
4712.2607425413261808
 20
207.5211532879619085
 30
0.0
 40
0.4434722544667564
 50
90.044684497122347
 51
269.9553155028776814
  0
LINE
  5
BF4B
  8
0
 10
4712.2603966810756901
 20
207.964625407561897
 30
0.0
 11
4714.7879549675062663
 21
207.9665966294367081
 31
0.0
  0
ARC
  5
BF4C
  8
0
 10
4714.7883015964262086
 20
207.5221388994926031
 30
0.0
 40
0.4444578651107295
 50
269.9555119469044939
 51
90.044684497122347
  0
LINE
  5
BF4D
  8
0
 10
4714.787956491371915
 20
207.0776811683624885
 30
0.0
 11
4712.2603966810756901
 21
207.0776811683618064
 31
0.0
  0
ARC
  5
BF4E
  8
0
 10
4712.2553783555313203
 20
207.4961737974442997
 30
0.0
 40
0.4305720722496881
 50
89.3322015001457714
 51
196.749593907800687
  0
LINE
  5
BF4F
  8
0
 10
4712.2603966810756901
 20
207.9267166243618021
 30
0.0
 11
4714.787955723975756
 21
207.9267166243618021
 31
0.0
  0
ARC
  5
BF50
  8
0
 10
4714.7874023033873527
 20
207.4793046621506107
 30
0.0
 40
0.4474123044843988
 50
5.4937820353615079
 51
89.9291287436914644
  0
ENDSEC
  0
EOF
