  0
SECTION
  2
HEADER
  9
$ACADVER
  1
AC1009
  9
$INSBASE
 10
7177.9844086448074449
 20
234.1557667730218952
 30
0.0
  9
$EXTMIN
 10
7168.473714422510966
 20
211.0389581979754041
 30
-0.0000000000112498
  9
$EXTMAX
 10
7184.3022479436303911
 20
234.1635412142024109
 30
0.0000000000002956
  9
$LIMMIN
 10
0.0
 20
0.0
  9
$LIMMAX
 10
11.6929133858000007
 20
8.2677165353999982
  9
$ORTHOMODE
 70
     0
  9
$REGENMODE
 70
     1
  9
$FILLMODE
 70
     1
  9
$QTEXTMODE
 70
     0
  9
$MIRRTEXT
 70
     0
  9
$DRAGMODE
 70
     2
  9
$LTSCALE
 40
0.6431102362
  9
$OSMODE
 70
  4095
  9
$ATTMODE
 70
     1
  9
$TEXTSIZE
 40
0.2
  9
$TRACEWID
 40
0.05
  9
$TEXTSTYLE
  7
STANDARD
  9
$CLAYER
  8
0
  9
$CELTYPE
  6
BYLAYER
  9
$CECOLOR
 62
   256
  9
$DIMSCALE
 40
1.0
  9
$DIMASZ
 40
0.1875
  9
$DIMEXO
 40
0.0625
  9
$DIMDLI
 40
0.4443307087
  9
$DIMRND
 40
0.0
  9
$DIMDLE
 40
0.0
  9
$DIMEXE
 40
0.125
  9
$DIMTP
 40
0.01
  9
$DIMTM
 40
0.01
  9
$DIMTXT
 40
2.0
  9
$DIMCEN
 40
0.1052362205
  9
$DIMTSZ
 40
0.0
  9
$DIMTOL
 70
     1
  9
$DIMLIM
 70
     0
  9
$DIMTIH
 70
     1
  9
$DIMTOH
 70
     1
  9
$DIMSE1
 70
     0
  9
$DIMSE2
 70
     0
  9
$DIMTAD
 70
     0
  9
$DIMZIN
 70
     0
  9
$DIMBLK
  1

  9
$DIMASO
 70
     1
  9
$DIMSHO
 70
     1
  9
$DIMPOST
  1
\X
  9
$DIMAPOST
  1

  9
$DIMALT
 70
     1
  9
$DIMALTD
 70
     2
  9
$DIMALTF
 40
25.3999999999999986
  9
$DIMLFAC
 40
1.0
  9
$DIMTOFL
 70
     0
  9
$DIMTVP
 40
0.0
  9
$DIMTIX
 70
     0
  9
$DIMSOXD
 70
     0
  9
$DIMSAH
 70
     0
  9
$DIMBLK1
  1

  9
$DIMBLK2
  1

  9
$DIMSTYLE
  2
STANDARD
  9
$DIMCLRD
 70
     0
  9
$DIMCLRE
 70
     0
  9
$DIMCLRT
 70
     0
  9
$DIMTFAC
 40
1.0
  9
$DIMGAP
 40
0.09
  9
$LUNITS
 70
     2
  9
$LUPREC
 70
     4
  9
$SKETCHINC
 40
0.1
  9
$FILLETRAD
 40
0.0
  9
$AUNITS
 70
     0
  9
$AUPREC
 70
     0
  9
$MENU
  1
.
  9
$ELEVATION
 40
0.0
  9
$PELEVATION
 40
0.0
  9
$THICKNESS
 40
0.0
  9
$LIMCHECK
 70
     0
  9
$BLIPMODE
 70
     0
  9
$CHAMFERA
 40
0.0
  9
$CHAMFERB
 40
0.0
  9
$SKPOLY
 70
     0
  9
$TDCREATE
 40
2458060.468368056230247
  9
$TDUPDATE
 40
2460657.5746064819395542
  9
$TDINDWG
 40
1.020134375
  9
$TDUSRTIMER
 40
1.020134375
  9
$USRTIMER
 70
     1
  9
$ANGBASE
 50
0.0
  9
$ANGDIR
 70
     0
  9
$PDMODE
 70
     0
  9
$PDSIZE
 40
0.3125
  9
$PLINEWID
 40
0.0
  9
$COORDS
 70
     1
  9
$SPLFRAME
 70
     0
  9
$SPLINETYPE
 70
     6
  9
$SPLINESEGS
 70
     8
  9
$ATTDIA
 70
     1
  9
$ATTREQ
 70
     1
  9
$HANDLING
 70
     1
  9
$HANDSEED
  5
3D77C
  9
$SURFTAB1
 70
     6
  9
$SURFTAB2
 70
     6
  9
$SURFTYPE
 70
     6
  9
$SURFU
 70
     6
  9
$SURFV
 70
     6
  9
$UCSNAME
  2

  9
$UCSORG
 10
0.0
 20
0.0
 30
0.0
  9
$UCSXDIR
 10
1.0
 20
0.0
 30
0.0
  9
$UCSYDIR
 10
0.0
 20
1.0
 30
0.0
  9
$PUCSNAME
  2

  9
$PUCSORG
 10
0.0
 20
0.0
 30
0.0
  9
$PUCSXDIR
 10
1.0
 20
0.0
 30
0.0
  9
$PUCSYDIR
 10
0.0
 20
1.0
 30
0.0
  9
$USERI1
 70
     0
  9
$USERI2
 70
     0
  9
$USERI3
 70
     0
  9
$USERI4
 70
     0
  9
$USERI5
 70
     0
  9
$USERR1
 40
0.0
  9
$USERR2
 40
0.0
  9
$USERR3
 40
0.0
  9
$USERR4
 40
0.0
  9
$USERR5
 40
0.0
  9
$WORLDVIEW
 70
     1
  9
$SHADEDGE
 70
     3
  9
$SHADEDIF
 70
    70
  9
$TILEMODE
 70
     1
  9
$MAXACTVP
 70
    64
  9
$PLIMCHECK
 70
     0
  9
$PEXTMIN
 10
1.0000000000000000E+20
 20
1.0000000000000000E+20
 30
1.0000000000000000E+20
  9
$PEXTMAX
 10
-1.0000000000000000E+20
 20
-1.0000000000000000E+20
 30
-1.0000000000000000E+20
  9
$PLIMMIN
 10
0.0
 20
0.0
  9
$PLIMMAX
 10
12.0
 20
9.0
  9
$UNITMODE
 70
     0
  9
$VISRETAIN
 70
     1
  9
$PLINEGEN
 70
     0
  9
$PSLTSCALE
 70
     1
  0
ENDSEC
  0
SECTION
  2
TABLES
  0
TABLE
  2
VPORT
 70
     1
  0
VPORT
  2
*ACTIVE
 70
     0
 10
0.0
 20
0.0
 11
1.0
 21
1.0
 12
3265.0226247377581785
 22
90.0216446035498166
 13
0.0
 23
0.0
 14
1.0
 24
1.0
 15
0.0
 25
0.0
 16
0.0
 26
0.0
 36
60.4960186965801583
 17
3911.3653564453120453
 27
132.5796051025390057
 37
0.0
 40
23.2683193451300703
 41
2.3631889763779519
 42
50.0
 43
0.0
 44
0.0
 50
0.0
 51
0.0
 71
     0
 72
   100
 73
     1
 74
     1
 75
     0
 76
     0
 77
     0
 78
     0
  0
ENDTAB
  0
TABLE
  2
LTYPE
 70
     2
  0
LTYPE
  2
CONTINUOUS
 70
     0
  3
Solid line
 72
    65
 73
     0
 40
0.0
  0
LTYPE
  2
PHANTOM2
 70
     0
  3
___ _ _ ___ _ _ ___ _ _ ___ _ _
 72
    65
 73
     6
 40
1.25
 49
0.625
 49
-0.125
 49
0.125
 49
-0.125
 49
0.125
 49
-0.125
  0
ENDTAB
  0
TABLE
  2
LAYER
 70
     2
  0
LAYER
  2
0
 70
     0
 62
   255
  6
CONTINUOUS
  0
LAYER
  2
DEFPOINTS
 70
     0
 62
     7
  6
CONTINUOUS
  0
ENDTAB
  0
TABLE
  2
STYLE
 70
     1
  0
STYLE
  2
STANDARD
 70
     0
 40
0.0
 41
0.8
 50
0.0
 71
     0
 42
0.2
  3
txt
  4

  0
ENDTAB
  0
TABLE
  2
VIEW
 70
     0
  0
ENDTAB
  0
TABLE
  2
UCS
 70
     0
  0
ENDTAB
  0
TABLE
  2
APPID
 70
    11
  0
APPID
  2
ACAD
 70
     0
  0
APPID
  2
ACAD_MLEADERVER
 70
     0
  0
APPID
  2
ACAD_EXEMPT_FROM_CAD_STANDARDS
 70
     0
  0
APPID
  2
ACAD_NAV_VCDISPLAY
 70
     0
  0
APPID
  2
ACAECLAYERSTANDARD
 70
     0
  0
APPID
  2
ACCMTRANSPARENCY
 70
     0
  0
APPID
  2
ACAD_DSTYLE_DIMJAG
 70
     0
  0
APPID
  2
ACAD_DSTYLE_DIMTALN
 70
     0
  0
APPID
  2
ACDBATTR
 70
     0
  0
APPID
  2
ACADANNOTATIVE
 70
     0
  0
APPID
  2
DCO15
 70
     0
  0
ENDTAB
  0
TABLE
  2
DIMSTYLE
 70
     1
  0
DIMSTYLE
  2
STANDARD
 70
     0
  3

  4

  5

  6

  7

 40
1.0
 41
0.1875
 42
0.0625
 43
0.38
 44
0.125
 45
0.0
 46
0.0
 47
0.01
 48
0.01
140
0.15625
141
0.09
142
0.0
143
25.3999999999999986
144
1.0
145
0.0
146
1.0
147
0.09
 71
     1
 72
     0
 73
     1
 74
     1
 75
     0
 76
     0
 77
     0
 78
     4
170
     0
171
     2
172
     0
173
     0
174
     0
175
     0
176
     0
177
     0
178
     0
  0
ENDTAB
  0
ENDSEC
  0
SECTION
  2
BLOCKS
  0
BLOCK
  8
0
  2
$MODEL_SPACE
 70
     0
 10
0.0
 20
0.0
 30
0.0
  3
$MODEL_SPACE
  1

  0
ENDBLK
  5
21
  8
0
  0
BLOCK
 67
     1
  8
0
  2
$PAPER_SPACE
 70
     0
 10
0.0
 20
0.0
 30
0.0
  3
$PAPER_SPACE
  1

  0
ENDBLK
  5
1D
 67
     1
  8
0
  0
BLOCK
  8
0
  2
_FILLED
 70
     0
 10
0.0
 20
0.0
 30
0.0
  3
_FILLED
  1

  0
SOLID
  5
32D38
  8
0
  6
BYBLOCK
 62
     0
 10
0.0
 20
0.0
 30
0.0
 11
-1.0
 21
0.1666666667
 31
0.0
 12
-1.0
 22
-0.1666666667
 32
0.0
 13
-1.0
 23
-0.1666666667
 33
0.0
  0
ENDBLK
  5
32D39
  8
0
  6
BYBLOCK
 62
     0
  0
ENDSEC
  0
SECTION
  2
ENTITIES
  0
ATTDEF
  5
26A5B
  8
DEFPOINTS
 10
7177.9809374214182753
 20
234.1597322371964935
 30
0.0
 40
0.001
  1
K-38055T-9
  3

  2
MODELNUMBER
 70
     0
1001
ACDBATTR
1070
     0
1070
     1
  0
ATTDEF
  5
26A5C
  8
DEFPOINTS
 10
7177.9808116117601458
 20
234.158065396817392
 30
0.0
 40
0.001
  1
FLUENCE
  3

  2
TRADENAME
 70
     0
1001
ACDBATTR
1070
     0
1070
     1
  0
ATTDEF
  5
26A5D
  8
DEFPOINTS
 10
7177.9809374214182753
 20
234.1563989038631917
 30
0.0
 40
0.001
  1
SHOWER COLUMN
  3

  2
PRODUCT
 70
     0
1001
ACDBATTR
1070
     0
1070
     1
  0
LINE
  5
3D621
  8
0
 10
7177.6300779361072273
 20
217.0455305525219956
 30
0.0
 11
7177.6300779361072273
 21
232.0061604737219056
 31
0.0
  0
ARC
  5
3D622
  8
0
 10
7177.9844082360068569
 20
217.0455305525219956
 30
0.0
 40
0.8070866142000003
 50
116.0416176577253964
 51
63.9583177494652872
  0
ARC
  5
3D623
  8
0
 10
7177.9844084404076057
 20
217.0455305525219956
 30
0.0
 40
0.7130222187972923
 50
119.797872777831202
 51
151.4754117948635042
  0
ARC
  5
3D624
  8
0
 10
7177.4099522222068117
 20
217.3577541057086933
 30
0.0
 40
0.0592
 50
151.475411794867199
 51
179.9999959902725095
  0
ARC
  5
3D625
  8
0
 10
7177.9844085464592354
 20
217.0455307048254099
 30
0.0
 40
0.7130223847058101
 50
208.524586869076586
 51
331.4911422935845735
  0
ARC
  5
3D626
  8
0
 10
7177.4099521785055913
 20
216.7333070797396886
 30
0.0
 40
0.0592
 50
179.9999959902660009
 51
208.5245801856789001
  0
ARC
  5
3D627
  8
0
 10
7177.9844084404076057
 20
217.0455305525219956
 30
0.0
 40
0.5334647713000013
 50
131.6214410247501121
 51
48.3785002558350214
  0
ARC
  5
3D628
  8
0
 10
7177.9844082360068569
 20
217.0455305525219956
 30
0.0
 40
0.4724409448999998
 50
138.5903029409865042
 51
41.4095471686213514
  0
LINE
  5
3D629
  8
0
 10
7177.4095826177072013
 20
217.3577499699246971
 30
0.0
 11
7177.4095825741069348
 21
216.7333112153910122
 31
0.0
  0
ARC
  5
3D62A
  8
0
 10
7177.9844084622072842
 20
217.0455305067642087
 30
0.0
 40
0.6541449666631358
 50
208.5087999457990975
 51
331.4911960352952178
  0
ARC
  5
3D62B
  8
0
 10
7177.9844084404076057
 20
217.0455305525219956
 30
0.0
 40
0.6541450076596442
 50
122.7973723677342974
 51
151.4911894425860055
  0
LINE
  5
3D62C
  8
0
 10
7177.4095826177072013
 20
217.3577499699246971
 30
0.0
 11
7177.3578446642213748
 21
217.3858517520828002
 31
0.0
  0
ARC
  5
3D62D
  8
0
 10
7177.9789430325517969
 20
217.046897169330407
 30
0.0
 40
0.7210055859331997
 50
152.304436206307912
 51
208.0113707691226068
  0
ARC
  5
3D62E
  8
0
 10
7177.3585597324708942
 20
217.3418416571668104
 30
0.0
 40
0.0440159036839825
 50
90.9308498004161123
 51
114.1618514592338016
  0
LINE
  5
3D62F
  8
0
 10
7177.4095826177072013
 20
216.7333112153910122
 30
0.0
 11
7177.3578446642213748
 21
216.7052094332329943
 31
0.0
  0
ARC
  5
3D630
  8
0
 10
7177.3585523224446661
 20
216.7491568142631024
 30
0.0
 40
0.0439530781580576
 50
248.4391945177812033
 51
269.077480276128199
  0
LINE
  5
3D631
  8
0
 10
7177.3507522222071202
 20
217.3577541098516122
 30
0.0
 11
7177.3507521785058998
 21
216.7333070838828064
 31
0.0
  0
LINE
  5
3D632
  8
0
 10
7178.3387393534067087
 20
217.0455305525219956
 30
0.0
 11
7178.3387393534067087
 21
232.0061604737219056
 31
0.0
  0
LINE
  5
3D633
  8
0
 10
7176.1724447510760001
 20
232.7820483196223051
 30
0.0
 11
7177.7088390783974319
 21
232.7887521470860008
 31
0.0
  0
LINE
  5
3D634
  8
0
 10
7178.2599991960069019
 20
232.7911560458782958
 30
0.0
 11
7178.7993802983073692
 21
232.7935614759416865
 31
0.0
  0
LINE
  5
3D635
  8
0
 10
7176.1332537841426529
 20
231.2688827601513992
 30
0.0
 11
7176.1332587932702154
 21
232.7436641459744067
 31
0.0
  0
ARC
  5
3D636
  8
0
 10
7176.1726165350246447
 20
231.2696423318647874
 30
0.0
 40
0.0393700788199304
 50
181.1054830230324058
 51
269.7499993279888031
  0
ARC
  5
3D637
  8
0
 10
7176.172616535061934
 20
232.7426786155409957
 30
0.0
 40
0.039370078856753
 50
90.2500002252140234
 51
178.5655951178202088
  0
LINE
  5
3D638
  8
0
 10
7178.8111802983066809
 20
232.7817614759416927
 30
0.0
 11
7178.8111802983066809
 21
231.2305583263417077
 31
0.0
  0
ARC
  5
3D639
  8
0
 10
7178.7993802983073692
 20
232.7817614759416927
 30
0.0
 40
0.0118
 50
0.0
 51
90.0
  0
LINE
  5
3D63A
  8
0
 10
7178.8308653377544033
 20
232.7817581020985926
 30
0.0
 11
7178.8308653377052906
 21
231.2305616586409087
 31
0.0
  0
ARC
  5
3D63B
  8
0
 10
7177.9844086448074449
 20
232.0081240794307007
 30
0.0
 40
0.3937056855964494
 50
334.1565954420341882
 51
205.8434045245624873
  0
LINE
  5
3D63C
  8
0
 10
7178.3387393534067087
 20
231.2208211724075966
 30
0.0
 11
7178.7993802983073692
 21
231.2187583263417139
 31
0.0
  0
ARC
  5
3D63D
  8
0
 10
7178.7993802983073692
 20
231.2305583263417077
 30
0.0
 40
0.0118
 50
270.0
 51
0.0
  0
ARC
  5
3D63E
  8
0
 10
7177.0370261295101955
 20
232.0035744986498116
 30
0.0
 40
0.295276263637262
 50
270.1229730542991092
 51
89.8783016379756532
  0
ARC
  5
3D63F
  8
0
 10
7177.0388810331369314
 20
232.0035745192467971
 30
0.0
 40
0.2952781292637891
 50
90.2382287363503366
 51
269.7630459368286893
  0
LINE
  5
3D640
  8
0
 10
7176.1724447510778191
 20
231.2302726278217051
 30
0.0
 11
7177.6300779361072273
 21
231.218427203396601
 31
0.0
  0
LINE
  5
3D641
  8
0
 10
7178.8426653122978678
 20
232.7935581020981886
 30
0.0
 11
7180.4084054350068982
 21
232.7797950646759944
 31
0.0
  0
ARC
  5
3D642
  8
0
 10
7178.842665337753715
 20
232.7817581020981947
 30
0.0
 40
0.0118
 50
90.0001236061947907
 51
179.9999999981826022
  0
LINE
  5
3D643
  8
0
 10
7178.8426652706039022
 20
231.2187616586406875
 30
0.0
 11
7179.4212140479503432
 21
231.2187583686871051
 31
0.0
  0
ARC
  5
3D644
  8
0
 10
7178.8426653377064213
 20
231.2305616586403971
 30
0.0
 40
0.0118
 50
179.9999999981826022
 51
269.9996741839996162
  0
ARC
  5
3D645
  8
0
 10
7180.4082336528072119
 20
232.7601107748220102
 30
0.0
 40
0.0196850393999834
 50
4.3950010650416846
 51
89.4999999858599864
  0
ARC
  5
3D646
  8
0
 10
7180.3973705644393704
 20
232.167979111181296
 30
0.0
 40
0.0308437205595833
 50
281.268758114906916
 51
353.8316657346998113
  0
ARC
  5
3D647
  8
0
 10
7179.1683278137370507
 20
232.3918103958914116
 30
0.0
 40
1.2800230653692271
 50
349.7784922130954897
 51
5.0101498237465218
  0
LINE
  5
3D648
  8
0
 10
7180.4278608072063435
 20
232.7616192794916969
 30
0.0
 11
7180.4434602219898807
 21
232.5035976456098012
 31
0.0
  0
LINE
  5
3D649
  8
0
 10
7180.2613938595068248
 20
232.108508141221904
 30
0.0
 11
7180.4033977794142629
 21
232.1377300156975991
 31
0.0
  0
LINE
  5
3D64A
  8
0
 10
7180.2638214550042903
 20
232.151266772694612
 30
0.0
 11
7180.4084054349996222
 21
232.1881905211365904
 31
0.0
  0
LINE
  5
3D64B
  8
0
 10
7180.4280357152756551
 20
232.1646649563838025
 30
0.0
 11
7180.4278608072063435
 21
232.7616192794916117
 31
0.0
  0
ARC
  5
3D64C
  8
0
 10
7185.8551480366186297
 20
242.3575098515109119
 30
0.0
 40
11.0739851817769299
 50
240.6435892416230047
 51
240.6438200548724922
  0
ARC
  5
3D64D
  8
0
 10
7179.9696154554985696
 20
231.8489512151560064
 30
0.0
 40
0.4218435849573817
 50
45.7788865150997566
 51
115.6428565493501992
  0
ARC
  5
3D64E
  8
0
 10
7180.0053995495072741
 20
231.7744071915624033
 30
0.0
 40
0.5045316302691633
 50
115.6428565493501992
 51
152.4976262798357993
  0
ARC
  5
3D64F
  8
0
 10
7180.2542677470091803
 20
231.6448415032913033
 30
0.0
 40
0.7851071946087803
 50
152.4976262798411142
 51
166.4499055739840117
  0
ARC
  5
3D650
  8
0
 10
7180.6361050254718066
 20
231.4832734649814938
 30
0.0
 40
1.1964070261148241
 50
162.9291602089608091
 51
177.1677558395772962
  0
ARC
  5
3D651
  8
0
 10
7179.9780925915792977
 20
231.6853379943883056
 30
0.0
 40
0.5080681290559134
 50
115.0561805344069057
 51
162.9291602089608091
  0
ARC
  5
3D652
  8
0
 10
7179.9647078668758695
 20
231.6090412356826107
 30
0.0
 40
0.5732412770788208
 50
59.8611736231313429
 51
110.6101857808569946
  0
ARC
  5
3D653
  8
0
 10
7179.9738050010955703
 20
231.700522069516694
 30
0.0
 40
0.4910375773265077
 50
12.1438910158867497
 51
55.415178869554893
  0
ARC
  5
3D654
  8
0
 10
7178.9665794505481244
 20
231.4205056656894897
 30
0.0
 40
1.535876542391728
 50
0.7663336997702729
 51
14.4523017311784692
  0
ARC
  5
3D655
  8
0
 10
7323.985621531466677
 20
239.1483949383010952
 30
0.0
 40
143.6901577011209952
 50
183.0747444150638898
 51
183.497021349356686
  0
ARC
  5
3D656
  8
0
 10
7285.8694201095568133
 20
224.8193409876764974
 30
0.0
 40
106.6403915810092968
 50
176.3880859363534057
 51
177.0089768577115024
  0
LINE
  5
3D657
  8
0
 10
7180.2638215050692452
 20
232.1512669616311086
 30
0.0
 11
7180.2613938595068248
 21
232.108508141221904
 31
0.0
  0
ARC
  5
3D658
  8
0
 10
7185.8433402866476172
 20
237.7617255933822946
 30
0.0
 40
9.0728121462752185
 50
234.4090955632061082
 51
241.5709510944803924
  0
ARC
  5
3D659
  8
0
 10
7180.5455514984651018
 20
227.7709222659968873
 30
0.0
 40
2.2374138284330258
 50
42.1330314802219306
 51
64.0661879226235413
  0
ARC
  5
3D65A
  8
0
 10
7181.5358657670021785
 20
228.6667774621217859
 30
0.0
 40
0.902019174073062
 50
1.342948961064367
 51
42.1330314802219306
  0
ARC
  5
3D65B
  8
0
 10
7214.6870557461934368
 20
229.3739224014778983
 30
0.0
 40
32.2567140351993729
 50
181.2186030219152997
 51
181.979683051483903
  0
ARC
  5
3D65C
  8
0
 10
7181.3158148295779029
 20
228.3017051847884886
 30
0.0
 40
1.134560809523943
 50
302.5444243990448854
 51
357.8737171170380975
  0
ARC
  5
3D65D
  8
0
 10
7180.2390756636768856
 20
229.7816673221659869
 30
0.0
 40
2.9634655835420789
 50
276.7489419270820008
 51
304.7009337107841134
  0
ARC
  5
3D65E
  8
0
 10
7179.9695694827187253
 20
231.0431003276644901
 30
0.0
 40
4.2495074014349834
 50
259.7235845884117111
 51
278.3589642437112275
  0
ARC
  5
3D65F
  8
0
 10
7179.7846487804681601
 20
230.1111977907445123
 30
0.0
 40
3.2996019695776102
 50
244.0104490380967093
 51
259.9963030051835062
  0
ARC
  5
3D660
  8
0
 10
7177.9261971119185546
 20
231.8903396213538883
 30
0.0
 40
2.0896704263395911
 50
297.300139391386324
 51
313.8666737860471017
  0
ARC
  5
3D661
  8
0
 10
7192.0418199482501223
 20
204.5419846398743005
 30
0.0
 40
28.6866732202109702
 50
117.3001393913862955
 51
118.5340578807806935
  0
ARC
  5
3D662
  8
0
 10
7179.926670307421773
 20
231.0044422929078962
 30
0.0
 40
3.7047391682759701
 50
244.6198895437711087
 51
270.649543972191907
  0
ARC
  5
3D663
  8
0
 10
7180.0464213806799307
 20
230.63840203123479
 30
0.0
 40
3.339366144789274
 50
268.6658263682843995
 51
306.6150281704814802
  0
ARC
  5
3D664
  8
0
 10
7181.4094608831128426
 20
228.7349968815879038
 30
0.0
 40
0.9994614159588726
 50
308.9775285549807222
 51
356.6211066528539959
  0
ARC
  5
3D665
  8
0
 10
7181.5808736075687193
 20
228.727680456778188
 30
0.0
 40
0.8279201858021952
 50
356.4273942172869738
 51
41.0968939470425809
  0
ARC
  5
3D666
  8
0
 10
7177.9844086448074449
 20
232.0061604737219056
 30
0.0
 40
0.3543307087000009
 50
0.0
 51
180.0
  0
ARC
  5
3D667
  8
0
 10
7177.9844086448074449
 20
217.0455305525219956
 30
0.0
 40
0.3543307086999974
 50
180.0
 51
0.0
  0
ARC
  5
3D668
  8
0
 10
7178.5588601290173756
 20
217.3577534878729978
 30
0.0
 40
0.0592049383926798
 50
0.0006019218978917
 51
28.3328699720392017
  0
ARC
  5
3D669
  8
0
 10
7178.5588651111056606
 20
216.7333070797396886
 30
0.0
 40
0.0592
 50
331.4754198143211283
 51
0.000004009733938
  0
LINE
  5
3D66A
  8
0
 10
7178.5592346719067791
 20
217.3577499699246971
 30
0.0
 11
7178.5592347155070456
 21
216.7333112153910122
 31
0.0
  0
LINE
  5
3D66B
  8
0
 10
7178.5592346719067791
 20
217.3577499699246971
 30
0.0
 11
7178.6109726253916961
 21
217.3858517520828002
 31
0.0
  0
ARC
  5
3D66C
  8
0
 10
7177.989874257061274
 20
217.046897169330407
 30
0.0
 40
0.7210055859331997
 50
331.9886292308773932
 51
27.6955637936920809
  0
ARC
  5
3D66D
  8
0
 10
7178.6102575571430862
 20
217.3418416571668104
 30
0.0
 40
0.0440159036839825
 50
65.8381485407661273
 51
89.0691501995838735
  0
LINE
  5
3D66E
  8
0
 10
7178.5592346719067791
 20
216.7333112153910122
 30
0.0
 11
7178.6109726253916961
 21
216.7052094332329943
 31
0.0
  0
ARC
  5
3D66F
  8
0
 10
7178.6102649671693143
 20
216.7491568142631024
 30
0.0
 40
0.0439530781580576
 50
270.922519723871801
 51
291.5608054822188251
  0
LINE
  5
3D670
  8
0
 10
7178.6180650674068602
 20
217.3577541098516122
 30
0.0
 11
7178.6180651111062616
 21
216.7333070838828064
 31
0.0
  0
ARC
  5
3D671
  8
0
 10
7177.9844051571999444
 20
217.0455263918580897
 30
0.0
 40
0.6541502378505683
 50
28.5089764479413397
 51
57.2025381393083308
  0
ARC
  5
3D672
  8
0
 10
7177.9844086448074449
 20
217.0455305525221092
 30
0.0
 40
0.713022074199862
 50
28.5081392170916814
 51
60.2021016502287125
  0
LINE
  5
3D673
  8
0
 10
7173.5146098566228829
 20
234.1557667730218952
 30
0.0
 11
7183.4379060225301146
 21
234.1557667730218952
 31
0.0
  0
ARC
  5
3D674
  8
0
 10
7173.516368794628761
 20
231.3902623150306113
 30
0.0
 40
2.7655050173581248
 50
90.0364417096592149
 51
199.8670450480074976
  0
ARC
  5
3D675
  8
0
 10
7173.516368794628761
 20
231.3902623150306113
 30
0.0
 40
2.7655050173581248
 50
212.1745869419397081
 51
270.0067827967756102
  0
LINE
  5
3D676
  8
0
 10
7173.5166961810082285
 20
228.6247573170506939
 30
0.0
 11
7177.4975232979813882
 21
228.6247573170506939
 31
0.0
  0
ARC
  5
3D677
  8
0
 10
7173.5166962929351939
 20
231.3900187415219136
 30
0.0
 40
2.5688976378000059
 50
90.0
 51
199.3825695871763912
  0
ARC
  5
3D678
  8
0
 10
7173.5166962929351939
 20
231.3900187415219136
 30
0.0
 40
2.5688976378000059
 50
212.7171515198575094
 51
270.0
  0
LINE
  5
3D679
  8
0
 10
7173.5166962929351939
 20
233.9589163793218916
 30
0.0
 11
7177.0993734582352772
 21
233.9589163793218916
 31
0.0
  0
LINE
  5
3D67A
  8
0
 10
7178.8710270015335482
 20
233.9589163793218916
 30
0.0
 11
7183.4576411748339524
 21
233.9589163793218916
 31
0.0
  0
LINE
  5
3D67B
  8
0
 10
7173.5166962929351939
 20
228.8211211037219073
 30
0.0
 11
7177.5123568028820955
 21
228.8211211037219073
 31
0.0
  0
LINE
  5
3D67C
  8
0
 10
7182.4224944777752171
 20
228.8211211037219073
 30
0.0
 11
7183.4576060225299443
 21
228.8211211037219073
 31
0.0
  0
LINE
  5
3D67D
  8
0
 10
7183.4576060225299443
 20
234.136066773021895
 30
0.0
 11
7183.4576060225299443
 21
228.6916361011288927
 31
0.0
  0
ARC
  5
3D67E
  8
0
 10
7180.237524476838189
 20
220.2378561405353139
 30
0.0
 40
14.8072469888752796
 50
129.8072862597317965
 51
139.0185976143376081
  0
ARC
  5
3D67F
  8
0
 10
7171.3103782390498964
 20
228.9698219200467122
 30
0.0
 40
2.1114754901981079
 50
129.4041060982187048
 51
155.3044188020830063
  0
ARC
  5
3D680
  8
0
 10
7186.6691820161850046
 20
213.3573438531952888
 30
0.0
 40
24.0045083785670599
 50
131.5384271853293114
 51
134.0803733860539921
  0
ARC
  5
3D681
  8
0
 10
7166.2071791745238443
 20
239.9393726757558056
 30
0.0
 40
10.5782079251478702
 50
287.5222061068055837
 51
296.1275961631336031
  0
ARC
  5
3D682
  8
0
 10
7231.5778402695723344
 20
106.6637676909329002
 30
0.0
 40
137.8660921206077887
 50
113.9365629611798028
 51
116.1275961631336031
  0
ARC
  5
3D683
  8
0
 10
7182.7846927595719535
 20
216.5823376517863039
 30
0.0
 40
17.6044470870736411
 50
107.4953957011157968
 51
113.9365629611798028
  0
ARC
  5
3D684
  8
0
 10
7238.2362734417529282
 20
93.1713833107258722
 30
0.0
 40
152.3126813814403988
 50
114.0622377783821975
 51
115.9086529948906019
  0
ARC
  5
3D685
  8
0
 10
7158.5442812420205883
 20
257.2275036129826731
 30
0.0
 40
30.0748846130395684
 50
292.7361683765536213
 51
295.9086529948907014
  0
ARC
  5
3D686
  8
0
 10
7168.6192929818025732
 20
233.1850544275955883
 30
0.0
 40
4.0067963749528444
 50
281.6666071931193187
 51
292.7361683765536213
  0
ARC
  5
3D687
  8
0
 10
7169.5070493426828762
 20
229.6028538342447121
 30
0.0
 40
0.5658160426739913
 50
142.3267789486498032
 51
178.0952631131214901
  0
ARC
  5
3D688
  8
0
 10
7169.3121054780376653
 20
229.6240788193557023
 30
0.0
 40
0.3705674407401988
 50
180.3739423585882093
 51
217.0879904034785
  0
ARC
  5
3D689
  8
0
 10
7169.3268273360872627
 20
229.6600461314812094
 30
0.0
 40
0.4044865483472854
 50
219.8957254753817097
 51
248.2236274165487941
  0
ARC
  5
3D68A
  8
0
 10
7169.3511882507236805
 20
229.7918637629510954
 30
0.0
 40
0.5365789960201254
 50
251.0309078415592126
 51
278.395705062535626
  0
LINE
  5
3D68B
  8
0
 10
7177.098581873106923
 20
234.136066773021895
 30
0.0
 11
7177.098581873106923
 21
233.8959541745219894
 31
0.0
  0
ARC
  5
3D68C
  8
0
 10
7177.137981873105673
 20
233.8959541745219894
 30
0.0
 40
0.0394
 50
180.0
 51
270.0
  0
LINE
  5
3D68D
  8
0
 10
7177.137981873105673
 20
233.8565541745219889
 30
0.0
 11
7178.8308653377071096
 21
233.8565541745219889
 31
0.0
  0
ARC
  5
3D68E
  8
0
 10
7177.1182818731058433
 20
234.136066773021895
 30
0.0
 40
0.0197
 50
90.0
 51
179.9999999999575948
  0
LINE
  5
3D68F
  8
0
 10
7177.4922826606070885
 20
233.0298124422220098
 30
0.0
 11
7177.4922826606070885
 21
233.8171541745219884
 31
0.0
  0
ARC
  5
3D690
  8
0
 10
7177.531682660606748
 20
233.0298124422220098
 30
0.0
 40
0.0394
 50
180.0
 51
270.0
  0
ARC
  5
3D691
  8
0
 10
7177.452882660607429
 20
233.8171541745219884
 30
0.0
 40
0.0394
 50
0.0
 51
90.0
  0
LINE
  5
3D692
  8
0
 10
7177.531682660606748
 20
232.9904124422220093
 30
0.0
 11
7178.437134628907188
 21
232.9904124422220093
 31
0.0
  0
LINE
  5
3D693
  8
0
 10
7178.8702354164079225
 20
234.136066773021895
 30
0.0
 11
7178.8702354164079225
 21
233.8959541745219894
 31
0.0
  0
ARC
  5
3D694
  8
0
 10
7178.8308354164073535
 20
233.8959541745219894
 30
0.0
 40
0.0394
 50
270.0
 51
0.0
  0
ARC
  5
3D695
  8
0
 10
7178.8505354164071832
 20
234.136066773021895
 30
0.0
 40
0.0197
 50
0.0000000000390827
 51
90.0
  0
LINE
  5
3D696
  8
0
 10
7178.476534628905938
 20
233.0298124422220098
 30
0.0
 11
7178.476534628905938
 21
233.8171541745219884
 31
0.0
  0
ARC
  5
3D697
  8
0
 10
7178.437134628907188
 20
233.0298124422220098
 30
0.0
 40
0.0394
 50
270.0
 51
0.0
  0
ARC
  5
3D698
  8
0
 10
7178.5159346289055975
 20
233.8171541745219884
 30
0.0
 40
0.0394
 50
90.0
 51
180.0
  0
ARC
  5
3D699
  8
0
 10
7183.4379060225301146
 20
234.136066773021895
 30
0.0
 40
0.0197
 50
359.9999999999772058
 51
90.0
  0
LINE
  5
3D69A
  8
0
 10
7181.9434464455671332
 20
227.3565561038913927
 30
0.0
 11
7183.0048552242560618
 21
227.3565538817628919
 31
0.0
  0
ARC
  5
3D69B
  8
0
 10
7183.0826044529403589
 20
231.0611176561550906
 30
0.0
 40
2.4190971157541061
 50
271.3165699630002905
 51
278.3649189194790097
  0
ARC
  5
3D69C
  8
0
 10
7182.4039184711073176
 20
246.7178714986405055
 30
0.0
 40
18.0901202519755095
 50
270.8833868171764721
 51
272.3262439703455016
  0
ARC
  5
3D69D
  8
0
 10
7181.7380534935364267
 20
289.9019321044921185
 30
0.0
 40
61.2793141154665832
 50
270.656332221747391
 51
270.8833868171764721
  0
ARC
  5
3D69E
  8
0
 10
7183.431384948718005
 20
228.693884830238801
 30
0.0
 40
0.0263173230877027
 50
276.8594640413302272
 51
355.0982861233740095
  0
ARC
  5
3D69F
  8
0
 10
7177.9844086448074449
 20
232.0061604737219056
 30
0.0
 40
0.6299212598000006
 50
304.2288663237072228
 51
235.7711336653148066
  0
ARC
  5
3D6A0
  8
0
 10
7177.4135574636056845
 20
231.7905244033752865
 30
0.0
 40
0.0197
 50
180.0
 51
200.6937976560627988
  0
ARC
  5
3D6A1
  8
0
 10
7177.4135574636056845
 20
232.22179654406861
 30
0.0
 40
0.0197
 50
159.3062023439335917
 51
180.0
  0
LINE
  5
3D6A2
  8
0
 10
7177.3938574636058547
 20
232.22179654406861
 30
0.0
 11
7177.3938574636058547
 21
231.7905244033752865
 31
0.0
  0
ARC
  5
3D6A3
  8
0
 10
7178.5552598260073864
 20
231.7905244033752865
 30
0.0
 40
0.0197
 50
339.3062023439371728
 51
0.0
  0
ARC
  5
3D6A4
  8
0
 10
7178.5552598260073864
 20
232.22179654406861
 30
0.0
 40
0.0197
 50
0.0
 51
20.6937976560664083
  0
LINE
  5
3D6A5
  8
0
 10
7178.5749598260072162
 20
232.22179654406861
 30
0.0
 11
7178.5749598260072162
 21
231.7905244033752865
 31
0.0
  0
LINE
  5
3D6A6
  8
0
 10
7177.7088180936070785
 20
232.572597267757601
 30
0.0
 11
7177.7088180936070785
 21
232.9904124422220093
 31
0.0
  0
LINE
  5
3D6A7
  8
0
 10
7178.2599991960069019
 20
232.9904124422220093
 30
0.0
 11
7178.2599991960069019
 21
232.572597267757601
 31
0.0
  0
LINE
  5
3D6A8
  8
0
 10
7178.8111802983066809
 20
232.6888877362220001
 30
0.0
 11
7178.8308653377071096
 21
232.6888877362220001
 31
0.0
  0
LINE
  5
3D6A9
  8
0
 10
7178.8111802983066809
 20
231.3234332112220102
 30
0.0
 11
7178.8308653377071096
 21
231.323776814922013
 31
0.0
  0
LINE
  5
3D6AA
  8
0
 10
7177.603890692825189
 20
232.7882942204606991
 30
0.0
 11
7177.7088180936070785
 21
232.8209984934503041
 31
0.0
  0
ARC
  5
3D6AB
  8
0
 10
7178.9007782291237163
 20
231.0822432178374868
 30
0.0
 40
2.5630065174659951
 50
86.3696027364118351
 51
99.5277782557660231
  0
ARC
  5
3D6AC
  8
0
 10
7178.9701125583596877
 20
232.1750290451836918
 30
0.0
 40
1.468023360673441
 50
57.4775721280050007
 51
86.3696027364118351
  0
ARC
  5
3D6AD
  8
0
 10
7179.3418260019461741
 20
232.7579985741261908
 30
0.0
 40
0.7766303061677302
 50
36.9044258433208014
 51
57.4775721280050007
  0
ARC
  5
3D6AE
  8
0
 10
7178.7611825097401379
 20
232.3219689676631106
 30
0.0
 40
1.5027629956633031
 50
17.8136808678143197
 51
36.9044258433208014
  0
ARC
  5
3D6AF
  8
0
 10
7178.9619840404802744
 20
230.3772854863231032
 30
0.0
 40
2.6790567996575181
 50
92.7509382196024177
 51
100.5423438797604945
  0
ARC
  5
3D6B0
  8
0
 10
7178.9059828530344021
 20
231.5427663138081869
 30
0.0
 40
1.512231323319825
 50
80.4691970736189859
 51
92.7509382196024177
  0
ARC
  5
3D6B1
  8
0
 10
7179.0491643590330568
 20
232.3955685273494112
 30
0.0
 40
0.6474928894099872
 50
48.9185722773159313
 51
80.4691970736189859
  0
ARC
  5
3D6B2
  8
0
 10
7179.2757342322965997
 20
232.6554604612529999
 30
0.0
 40
0.3027063978248907
 50
25.8312699852782295
 51
48.9185722773159313
  0
ARC
  5
3D6B3
  8
0
 10
7179.0430881015281557
 20
229.5361658593282925
 30
0.0
 40
3.5208190260312642
 50
101.159628128098106
 51
102.8510164538912051
  0
ARC
  5
3D6B4
  8
0
 10
7180.4112408581795535
 20
232.1546967697267121
 30
0.0
 40
0.0336134432833159
 50
60.3667743188970007
 51
94.8389095812274405
  0
ARC
  5
3D6B5
  8
0
 10
7178.3542242007160894
 20
228.6684725482913052
 30
0.0
 40
0.8555947037071679
 50
147.818587885159701
 51
212.181412114840299
  0
ARC
  5
3D6B6
  8
0
 10
7176.9607734735072881
 20
232.0094631656492083
 30
0.0
 40
0.3195315025438848
 50
60.4470786919124379
 51
102.7456599856146937
  0
ARC
  5
3D6B7
  8
0
 10
7176.9606830874172374
 20
232.0061094812205909
 30
0.0
 40
0.3227836697954279
 50
102.5986747504920942
 51
270.0183735795295092
  0
ARC
  5
3D6B8
  8
0
 10
7176.960682896860817
 20
232.0067037078011936
 30
0.0
 40
0.3233778964065635
 50
270.0183735795295092
 51
295.6836320461900982
  0
LINE
  5
3D6B9
  8
0
 10
7176.8898225359080243
 20
231.6911998438220053
 30
0.0
 11
7177.0316094482950575
 21
231.6911998438220053
 31
0.0
  0
LINE
  5
3D6BA
  8
0
 10
7176.8902772976080087
 20
232.321121103622005
 30
0.0
 11
7177.0312696494083866
 21
232.321121103622005
 31
0.0
  0
ARC
  5
3D6BB
  8
0
 10
7178.4124359387242293
 20
228.2419393329240904
 30
0.0
 40
0.9239488022096743
 50
179.4843254551634004
 51
212.1084707122267901
  0
ARC
  5
3D6BC
  8
0
 10
7195.0832181985506395
 20
228.0150004232608865
 30
0.0
 40
17.5962629158996116
 50
177.9067599914500875
 51
179.233957089174794
  0
ARC
  5
3D6BD
  8
0
 10
7131.0625300962256006
 20
226.2791249110244962
 30
0.0
 40
49.664169996284933
 50
6.5435651735629961
 51
6.769162860363255
  0
ARC
  5
3D6BE
  8
0
 10
7173.516711253534595
 20
231.3900187416217875
 30
0.0
 40
2.2933070866
 50
90.0
 51
198.5872422664820078
  0
ARC
  5
3D6BF
  8
0
 10
7173.516711253534595
 20
231.3900187416217875
 30
0.0
 40
2.2933070866
 50
213.5927828512415942
 51
270.0
  0
LINE
  5
3D6C0
  8
0
 10
7173.516711253534595
 20
233.6833258282219106
 30
0.0
 11
7177.4930742457354427
 21
233.6833258282219106
 31
0.0
  0
LINE
  5
3D6C1
  8
0
 10
7178.4773262140352017
 20
233.6833258282219106
 30
0.0
 11
7183.4576060225299443
 21
233.6833258282219106
 31
0.0
  0
LINE
  5
3D6C2
  8
0
 10
7173.516711253534595
 20
229.0967116550218918
 30
0.0
 11
7177.61351267489772
 21
229.0967116550218918
 31
0.0
  0
LINE
  5
3D6C3
  8
0
 10
7182.3147387077642634
 20
229.0967116550218918
 30
0.0
 11
7183.4576060225299443
 21
229.0967116550218918
 31
0.0
  0
LINE
  5
3D6C4
  8
0
 10
7178.4562582601711256
 20
217.0691525997220026
 30
0.0
 11
7178.5173499579341296
 21
217.0691525997220026
 31
0.0
  0
LINE
  5
3D6C5
  8
0
 10
7178.4562582601656686
 20
217.0219085052220009
 30
0.0
 11
7178.5173499579295822
 21
217.0219085052220009
 31
0.0
  0
ARC
  5
3D6C6
  8
0
 10
7177.9844236054077555
 20
217.0455305525219956
 30
0.0
 40
0.4960629920996608
 50
357.2705973566111197
 51
2.7294026318252431
  0
LINE
  5
3D6C7
  8
0
 10
7183.0631462880555773
 20
227.4156092926220936
 30
0.0
 11
7183.063163762856675
 21
227.4719756536318016
 31
0.0
  0
LINE
  5
3D6C8
  8
0
 10
7183.0639553479859387
 20
228.5266569603915912
 30
0.0
 11
7183.0639553479859387
 21
228.5455006312220121
 31
0.0
  0
ARC
  5
3D6C9
  8
0
 10
7183.0040994764340212
 20
227.4155958582585129
 30
0.0
 40
0.0590468131509147
 50
270.7333561379293769
 51
0.0130359675313189
  0
LINE
  5
3D6CA
  8
0
 10
7182.4404032764286967
 20
228.5849006312220126
 30
0.0
 11
7183.0245553479835507
 21
228.5849006312220126
 31
0.0
  0
ARC
  5
3D6CB
  8
0
 10
7183.0245553479835507
 20
228.5455006312220121
 30
0.0
 40
0.0394
 50
0.0000000000097707
 51
90.0
  0
LINE
  5
3D6CC
  8
0
 10
7182.8184040381365776
 20
228.6325002708869931
 30
0.0
 11
7182.8192348929351283
 21
228.5849006312220126
 31
0.0
  0
LINE
  5
3D6CD
  8
0
 10
7182.4694944181510436
 20
227.4352943320220106
 30
0.0
 11
7182.4694944181510436
 21
228.5258455131219932
 31
0.0
  0
LINE
  5
3D6CE
  8
0
 10
7182.4694944181510436
 20
228.5258455131219932
 30
0.0
 11
7182.5817473053339199
 21
228.5258455180216117
 31
0.0
  0
LINE
  5
3D6CF
  8
0
 10
7182.5817473053339199
 20
228.5258455180216117
 30
0.0
 11
7182.5817473053339199
 21
227.4352943320220106
 31
0.0
  0
LINE
  5
3D6D0
  8
0
 10
7182.6060769122350393
 20
227.4352943320220106
 30
0.0
 11
7182.6060769122350393
 21
228.5258455131219932
 31
0.0
  0
LINE
  5
3D6D1
  8
0
 10
7182.6060769122350393
 20
228.5258455131219932
 30
0.0
 11
7182.708000381934653
 21
228.5258455131219932
 31
0.0
  0
LINE
  5
3D6D2
  8
0
 10
7182.708000381934653
 20
228.5258455131219932
 30
0.0
 11
7182.708000381934653
 21
227.4352943320220106
 31
0.0
  0
LINE
  5
3D6D3
  8
0
 10
7182.7296981392346424
 20
227.4352943320220106
 30
0.0
 11
7182.7296981392346424
 21
228.5258455131219932
 31
0.0
  0
LINE
  5
3D6D4
  8
0
 10
7182.7296981392346424
 20
228.5258455131219932
 30
0.0
 11
7182.8187825169352436
 21
228.5258455160789879
 31
0.0
  0
LINE
  5
3D6D5
  8
0
 10
7182.8187825169352436
 20
228.5258455160789879
 30
0.0
 11
7182.8187825169352436
 21
227.4352943320220106
 31
0.0
  0
LINE
  5
3D6D6
  8
0
 10
7182.8373141538349955
 20
227.4352943320220106
 30
0.0
 11
7182.8373141538349955
 21
228.5258455131219932
 31
0.0
  0
LINE
  5
3D6D7
  8
0
 10
7182.8373141538349955
 20
228.5258455131219932
 30
0.0
 11
7182.9113658865362595
 21
228.5258455131219932
 31
0.0
  0
LINE
  5
3D6D8
  8
0
 10
7182.9113658865362595
 20
228.5258455131219932
 30
0.0
 11
7182.9113658865362595
 21
227.4352943320220106
 31
0.0
  0
LINE
  5
3D6D9
  8
0
 10
7182.9262751050246152
 20
227.4352943320220106
 30
0.0
 11
7182.9262750880361637
 21
228.5258455131219932
 31
0.0
  0
LINE
  5
3D6DA
  8
0
 10
7182.9262750880361637
 20
228.5258455131219932
 30
0.0
 11
7182.9834707809359315
 21
228.5258455131219932
 31
0.0
  0
LINE
  5
3D6DB
  8
0
 10
7182.9834707809359315
 20
228.5258455131219932
 30
0.0
 11
7182.9834707809359315
 21
227.4352943320220106
 31
0.0
  0
LINE
  5
3D6DC
  8
0
 10
7182.9943904146339264
 20
227.4352943320220106
 30
0.0
 11
7182.9943904365345588
 21
228.5258455131219932
 31
0.0
  0
LINE
  5
3D6DD
  8
0
 10
7182.9943904365345588
 20
228.5258455131219932
 30
0.0
 11
7183.0333217382349176
 21
228.5258455131219932
 31
0.0
  0
LINE
  5
3D6DE
  8
0
 10
7183.0333217382349176
 20
228.5258455131219932
 30
0.0
 11
7183.0333217382349176
 21
227.4352943320220106
 31
0.0
  0
LINE
  5
3D6DF
  8
0
 10
7183.0399829670841427
 20
227.4352943320220106
 30
0.0
 11
7183.0399829670841427
 21
228.5258455131219932
 31
0.0
  0
LINE
  5
3D6E0
  8
0
 10
7183.0399829670841427
 20
228.5258455131219932
 30
0.0
 11
7183.0596912625351251
 21
228.5258455131979076
 31
0.0
  0
LINE
  5
3D6E1
  8
0
 10
7183.0596912625351251
 20
228.5258455131979076
 30
0.0
 11
7183.0596912625351251
 21
227.4352943320220106
 31
0.0
  0
LINE
  5
3D6E2
  8
0
 10
7183.0639289879673015
 20
228.5258455521455971
 30
0.0
 11
7183.0619300485350323
 21
228.5258455521455971
 31
0.0
  0
LINE
  5
3D6E3
  8
0
 10
7183.0619300485350323
 20
228.5258455521455971
 30
0.0
 11
7183.0619300485350323
 21
227.4352943320220106
 31
0.0
  0
ARC
  5
3D6E4
  8
0
 10
7178.8179196626069825
 20
228.6641907328776995
 30
0.0
 40
4.2482625366225903
 50
357.436268667690797
 51
358.144775237562385
  0
ARC
  5
3D6E5
  8
0
 10
7179.1606713935452717
 20
227.3831546632829941
 30
0.0
 40
3.903503024318002
 50
1.3038307120630821
 51
2.2598840036824739
  0
LINE
  5
3D6E6
  8
0
 10
7182.0483177065134441
 20
227.4352943320220106
 30
0.0
 11
7183.0639553479859387
 21
227.4352943320220106
 31
0.0
  0
LINE
  5
3D6E7
  8
0
 10
7182.2955678464577431
 20
227.7295930835146009
 30
0.0
 11
7182.2955678464577431
 21
227.4352943320220106
 31
0.0
  0
LINE
  5
3D6E8
  8
0
 10
7182.323313810653417
 20
227.7800021719162089
 30
0.0
 11
7182.323313810653417
 21
227.4352943320220106
 31
0.0
  0
LINE
  5
3D6E9
  8
0
 10
7182.171134533435179
 20
227.5562815235718972
 30
0.0
 11
7182.171134533435179
 21
227.4352943320220106
 31
0.0
  0
LINE
  5
3D6EA
  8
0
 10
7182.138091265635012
 20
227.5199829238707991
 30
0.0
 11
7182.138091265635012
 21
227.4352943320220106
 31
0.0
  0
LINE
  5
3D6EB
  8
0
 10
7182.1072549543359855
 20
227.4887779067165923
 30
0.0
 11
7182.1072549543359855
 21
227.4352943320220106
 31
0.0
  0
ARC
  5
3D6ED
  8
0
 10
7177.984416125055759
 20
217.045530552422008
 30
0.0
 40
5.9976595451742041
 50
93.3869731188346179
 51
86.6131700501975672
  0
ARC
  5
3D6EE
  8
0
 10
7177.9844082360068569
 20
217.0455305525219956
 30
0.0
 40
5.9484478051514911
 50
93.4149506482621916
 51
86.5850414635136048
  0
ARC
  5
3D6EF
  8
0
 10
7177.9844086448074449
 20
217.0455305525219956
 30
0.0
 40
5.9399005940499663
 50
93.4198743763799655
 51
86.5801256246118385
  0
LINE
  5
3D6F0
  8
0
 10
7174.2835142935564363
 20
228.5266527544220025
 30
0.0
 11
7174.2869751749149145
 21
228.6247573170506939
 31
0.0
  0
LINE
  5
3D6F1
  8
0
 10
7175.3861053327573245
 20
228.526652644322013
 30
0.0
 11
7175.3826334477353157
 21
228.6247573170506939
 31
0.0
  0
ARC
  5
3D6F2
  8
0
 10
7174.8448485592916768
 20
239.0379588646331968
 30
0.0
 40
10.5424003718151003
 50
267.1528735530928884
 51
272.6095382203786812
  0
ARC
  5
3D6F3
  8
0
 10
7175.3095747067418415
 20
228.8413528178222975
 30
0.0
 40
0.3352095111529791
 50
272.6095382203786812
 51
279.9815493166132114
  0
ARC
  5
3D6F4
  8
0
 10
7175.3585585843247827
 20
228.563027364844487
 30
0.0
 40
0.0526064714695157
 50
279.9815493166132114
 51
290.6061357232513842
  0
ARC
  5
3D6F5
  8
0
 10
7175.3721831659258896
 20
228.526791535712789
 30
0.0
 40
0.0138938826037453
 50
290.6061357232532032
 51
359.4108637336591983
  0
ARC
  5
3D6F6
  8
0
 10
7174.3277527041082067
 20
228.6160203099514945
 30
0.0
 40
0.1076484752817568
 50
249.1981896026360062
 51
266.5069781654377721
  0
ARC
  5
3D6F7
  8
0
 10
7174.294243905204894
 20
228.5251120969300018
 30
0.0
 40
0.010808710841084
 50
171.8317995275509134
 51
244.1009449506069018
  0
ENDSEC
  0
EOF
