  0
SECTION
  2
HEADER
  9
$ACADVER
  1
AC1009
  9
$INSBASE
 10
4702.0431657121389435
 20
175.1438827996888108
 30
0.0
  9
$EXTMIN
 10
4697.8009863274228337
 20
171.9933441385597916
 30
0.0
  9
$EXTMAX
 10
4702.0547586747397872
 20
177.1123867367388129
 30
0.0
  9
$LIMMIN
 10
0.0
 20
0.0
  9
$LIMMAX
 10
11.6929133858000007
 20
8.2677165353999982
  9
$ORTHOMODE
 70
     0
  9
$REGENMODE
 70
     1
  9
$FILLMODE
 70
     1
  9
$QTEXTMODE
 70
     0
  9
$MIRRTEXT
 70
     0
  9
$DRAGMODE
 70
     2
  9
$LTSCALE
 40
0.6431102362
  9
$OSMODE
 70
  4095
  9
$ATTMODE
 70
     1
  9
$TEXTSIZE
 40
0.2
  9
$TRACEWID
 40
0.05
  9
$TEXTSTYLE
  7
STANDARD
  9
$CLAYER
  8
0
  9
$CELTYPE
  6
BYLAYER
  9
$CECOLOR
 62
   256
  9
$DIMSCALE
 40
1.0
  9
$DIMASZ
 40
0.1875
  9
$DIMEXO
 40
0.0625
  9
$DIMDLI
 40
0.4443307087
  9
$DIMRND
 40
0.0
  9
$DIMDLE
 40
0.0
  9
$DIMEXE
 40
0.125
  9
$DIMTP
 40
0.01
  9
$DIMTM
 40
0.01
  9
$DIMTXT
 40
2.0
  9
$DIMCEN
 40
0.1052362205
  9
$DIMTSZ
 40
0.0
  9
$DIMTOL
 70
     1
  9
$DIMLIM
 70
     0
  9
$DIMTIH
 70
     1
  9
$DIMTOH
 70
     1
  9
$DIMSE1
 70
     0
  9
$DIMSE2
 70
     0
  9
$DIMTAD
 70
     0
  9
$DIMZIN
 70
     0
  9
$DIMBLK
  1

  9
$DIMASO
 70
     1
  9
$DIMSHO
 70
     1
  9
$DIMPOST
  1
\X
  9
$DIMAPOST
  1

  9
$DIMALT
 70
     1
  9
$DIMALTD
 70
     2
  9
$DIMALTF
 40
25.3999999999999986
  9
$DIMLFAC
 40
1.0
  9
$DIMTOFL
 70
     0
  9
$DIMTVP
 40
0.0
  9
$DIMTIX
 70
     0
  9
$DIMSOXD
 70
     0
  9
$DIMSAH
 70
     0
  9
$DIMBLK1
  1

  9
$DIMBLK2
  1

  9
$DIMSTYLE
  2
STANDARD
  9
$DIMCLRD
 70
     0
  9
$DIMCLRE
 70
     0
  9
$DIMCLRT
 70
     0
  9
$DIMTFAC
 40
1.0
  9
$DIMGAP
 40
0.09
  9
$LUNITS
 70
     2
  9
$LUPREC
 70
     4
  9
$SKETCHINC
 40
0.1
  9
$FILLETRAD
 40
0.0
  9
$AUNITS
 70
     0
  9
$AUPREC
 70
     0
  9
$MENU
  1
.
  9
$ELEVATION
 40
0.0
  9
$PELEVATION
 40
0.0
  9
$THICKNESS
 40
0.0
  9
$LIMCHECK
 70
     0
  9
$BLIPMODE
 70
     0
  9
$CHAMFERA
 40
0.0
  9
$CHAMFERB
 40
0.0
  9
$SKPOLY
 70
     0
  9
$TDCREATE
 40
2458060.468368056230247
  9
$TDUPDATE
 40
2460731.4820370371453464
  9
$TDINDWG
 40
0.4600417824
  9
$TDUSRTIMER
 40
0.4600417824
  9
$USRTIMER
 70
     1
  9
$ANGBASE
 50
0.0
  9
$ANGDIR
 70
     0
  9
$PDMODE
 70
     0
  9
$PDSIZE
 40
0.3125
  9
$PLINEWID
 40
0.0
  9
$COORDS
 70
     1
  9
$SPLFRAME
 70
     0
  9
$SPLINETYPE
 70
     6
  9
$SPLINESEGS
 70
     8
  9
$ATTDIA
 70
     1
  9
$ATTREQ
 70
     1
  9
$HANDLING
 70
     1
  9
$HANDSEED
  5
D5B7
  9
$SURFTAB1
 70
     6
  9
$SURFTAB2
 70
     6
  9
$SURFTYPE
 70
     6
  9
$SURFU
 70
     6
  9
$SURFV
 70
     6
  9
$UCSNAME
  2

  9
$UCSORG
 10
0.0
 20
0.0
 30
0.0
  9
$UCSXDIR
 10
1.0
 20
0.0
 30
0.0
  9
$UCSYDIR
 10
0.0
 20
1.0
 30
0.0
  9
$PUCSNAME
  2

  9
$PUCSORG
 10
0.0
 20
0.0
 30
0.0
  9
$PUCSXDIR
 10
1.0
 20
0.0
 30
0.0
  9
$PUCSYDIR
 10
0.0
 20
1.0
 30
0.0
  9
$USERI1
 70
     0
  9
$USERI2
 70
     0
  9
$USERI3
 70
     0
  9
$USERI4
 70
     0
  9
$USERI5
 70
     0
  9
$USERR1
 40
0.0
  9
$USERR2
 40
0.0
  9
$USERR3
 40
0.0
  9
$USERR4
 40
0.0
  9
$USERR5
 40
0.0
  9
$WORLDVIEW
 70
     1
  9
$SHADEDGE
 70
     3
  9
$SHADEDIF
 70
    70
  9
$TILEMODE
 70
     1
  9
$MAXACTVP
 70
    64
  9
$PLIMCHECK
 70
     0
  9
$PEXTMIN
 10
1.0000000000000000E+20
 20
1.0000000000000000E+20
 30
1.0000000000000000E+20
  9
$PEXTMAX
 10
-1.0000000000000000E+20
 20
-1.0000000000000000E+20
 30
-1.0000000000000000E+20
  9
$PLIMMIN
 10
0.0
 20
0.0
  9
$PLIMMAX
 10
12.0
 20
9.0
  9
$UNITMODE
 70
     0
  9
$VISRETAIN
 70
     1
  9
$PLINEGEN
 70
     0
  9
$PSLTSCALE
 70
     1
  0
ENDSEC
  0
SECTION
  2
TABLES
  0
TABLE
  2
VPORT
 70
     1
  0
VPORT
  2
*ACTIVE
 70
     0
 10
0.0
 20
0.0
 11
1.0
 21
1.0
 12
896.3838051182691515
 22
48.557603240899418
 13
0.0
 23
0.0
 14
1.0
 24
1.0
 15
0.0
 25
0.0
 16
0.0
 26
0.0
 36
17.1152628219792007
 17
3803.5440673828129547
 27
125.9952621967499056
 37
0.0
 40
5.1557887211641127
 41
2.204387990762124
 42
50.0
 43
0.0
 44
0.0
 50
0.0
 51
0.0
 71
     0
 72
   100
 73
     1
 74
     1
 75
     0
 76
     0
 77
     0
 78
     0
  0
ENDTAB
  0
TABLE
  2
LTYPE
 70
     2
  0
LTYPE
  2
CONTINUOUS
 70
     0
  3
Solid line
 72
    65
 73
     0
 40
0.0
  0
LTYPE
  2
PHANTOM2
 70
     0
  3
___ _ _ ___ _ _ ___ _ _ ___ _ _
 72
    65
 73
     6
 40
1.25
 49
0.625
 49
-0.125
 49
0.125
 49
-0.125
 49
0.125
 49
-0.125
  0
ENDTAB
  0
TABLE
  2
LAYER
 70
     2
  0
LAYER
  2
0
 70
     0
 62
   255
  6
CONTINUOUS
  0
LAYER
  2
DEFPOINTS
 70
     0
 62
     7
  6
CONTINUOUS
  0
ENDTAB
  0
TABLE
  2
STYLE
 70
     1
  0
STYLE
  2
STANDARD
 70
     0
 40
0.0
 41
0.8
 50
0.0
 71
     0
 42
0.2
  3
txt
  4

  0
ENDTAB
  0
TABLE
  2
VIEW
 70
     0
  0
ENDTAB
  0
TABLE
  2
UCS
 70
     0
  0
ENDTAB
  0
TABLE
  2
APPID
 70
     9
  0
APPID
  2
ACAD
 70
     0
  0
APPID
  2
ACAD_MLEADERVER
 70
     0
  0
APPID
  2
ACAD_EXEMPT_FROM_CAD_STANDARDS
 70
     0
  0
APPID
  2
ACAD_NAV_VCDISPLAY
 70
     0
  0
APPID
  2
ACAECLAYERSTANDARD
 70
     0
  0
APPID
  2
ACCMTRANSPARENCY
 70
     0
  0
APPID
  2
ACAD_DSTYLE_DIMJAG
 70
     0
  0
APPID
  2
ACAD_DSTYLE_DIMTALN
 70
     0
  0
APPID
  2
ACDBATTR
 70
     0
  0
ENDTAB
  0
TABLE
  2
DIMSTYLE
 70
     1
  0
DIMSTYLE
  2
STANDARD
 70
     0
  3

  4

  5

  6

  7

 40
1.0
 41
0.1875
 42
0.0625
 43
0.38
 44
0.125
 45
0.0
 46
0.0
 47
0.01
 48
0.01
140
0.15625
141
0.09
142
0.0
143
25.3999999999999986
144
1.0
145
0.0
146
1.0
147
0.09
 71
     1
 72
     0
 73
     1
 74
     1
 75
     0
 76
     0
 77
     0
 78
     4
170
     0
171
     2
172
     0
173
     0
174
     0
175
     0
176
     0
177
     0
178
     0
  0
ENDTAB
  0
ENDSEC
  0
SECTION
  2
BLOCKS
  0
BLOCK
  8
0
  2
$MODEL_SPACE
 70
     0
 10
0.0
 20
0.0
 30
0.0
  3
$MODEL_SPACE
  1

  0
ENDBLK
  5
21
  8
0
  0
BLOCK
 67
     1
  8
0
  2
$PAPER_SPACE
 70
     0
 10
0.0
 20
0.0
 30
0.0
  3
$PAPER_SPACE
  1

  0
ENDBLK
  5
1D
 67
     1
  8
0
  0
BLOCK
  8
0
  2
_FILLED
 70
     0
 10
0.0
 20
0.0
 30
0.0
  3
_FILLED
  1

  0
SOLID
  5
CCCB
  8
0
  6
BYBLOCK
 62
     0
 10
0.0
 20
0.0
 30
0.0
 11
-1.0
 21
0.1666666667
 31
0.0
 12
-1.0
 22
-0.1666666667
 32
0.0
 13
-1.0
 23
-0.1666666667
 33
0.0
  0
ENDBLK
  5
CCCC
  8
0
  6
BYBLOCK
 62
     0
  0
ENDSEC
  0
SECTION
  2
ENTITIES
  0
ATTDEF
  5
3930
  8
DEFPOINTS
 10
4702.044092008071857
 20
175.1439101076967972
 30
0.0
 40
0.001
  1
K-38164T-4CD
  3

  2
MODELNUMBER
 70
     0
1001
ACDBATTR
1070
     0
1070
     1
  0
ATTDEF
  5
3931
  8
DEFPOINTS
 10
4702.044092008071857
 20
175.1422434410301037
 30
0.0
 40
0.001
  1
FORE ARC
  3

  2
TRADENAME
 70
     0
1001
ACDBATTR
1070
     0
1070
     1
  0
ATTDEF
  5
3932
  8
DEFPOINTS
 10
4702.044092008071857
 20
175.1405767743634101
 30
0.0
 40
0.001
  1
VALVE TRIM
  3

  2
PRODUCT
 70
     0
1001
ACDBATTR
1070
     0
1070
     1
  0
LINE
  5
D46F
  8
0
 10
4701.8462751609404222
 20
177.1123867367388129
 30
0.0
 11
4702.0431657121389435
 21
177.1123867367388129
 31
0.0
  0
LINE
  5
D470
  8
0
 10
4701.8462751609404222
 20
173.1753788626388086
 30
0.0
 11
4702.0431657121389435
 21
173.1753788626388086
 31
0.0
  0
LINE
  5
D471
  8
0
 10
4702.0431657121389435
 20
177.1123867367388129
 30
0.0
 11
4702.0431657121389435
 21
173.1753788626388086
 31
0.0
  0
LINE
  5
D472
  8
0
 10
4701.767575160938577
 20
177.0336867367387867
 30
0.0
 11
4701.767575160938577
 21
173.2540788626388064
 31
0.0
  0
ARC
  5
D473
  8
0
 10
4701.8462751609404222
 20
177.0336867367387867
 30
0.0
 40
0.0787
 50
90.0
 51
180.0
  0
ARC
  5
D474
  8
0
 10
4701.8462751609404222
 20
173.2540788626388064
 30
0.0
 40
0.0787
 50
180.0
 51
270.0
  0
LINE
  5
D475
  8
0
 10
4699.0911215102396454
 20
175.9509544532388077
 30
0.0
 11
4699.0911215102396454
 21
174.3368111461388139
 31
0.0
  0
LINE
  5
D476
  8
0
 10
4699.1108215102385657
 20
175.9706544532388079
 30
0.0
 11
4701.767575160938577
 21
175.9706544532388079
 31
0.0
  0
ARC
  5
D477
  8
0
 10
4699.1108215102385657
 20
175.9509544532388077
 30
0.0
 40
0.0197
 50
90.0
 51
180.0000000000048885
  0
LINE
  5
D478
  8
0
 10
4699.1108215102385657
 20
174.3171111461388136
 30
0.0
 11
4700.3577637118387429
 21
174.3171111461388136
 31
0.0
  0
LINE
  5
D479
  8
0
 10
4701.2869424520386019
 20
174.3171111461388136
 30
0.0
 11
4701.767575160938577
 21
174.3171111461388136
 31
0.0
  0
ARC
  5
D47A
  8
0
 10
4699.1108215102385657
 20
174.3368111461388139
 30
0.0
 40
0.0197
 50
179.9999999999984084
 51
270.0
  0
ARC
  5
D47B
  8
0
 10
4700.822375522888251
 20
173.4998916738078947
 30
0.0
 40
0.9400372852268638
 50
60.382953490668001
 51
119.617046509331999
  0
LINE
  5
D47C
  8
0
 10
4700.4168637118391416
 20
174.2580111461388128
 30
0.0
 11
4700.4168637118391416
 21
174.2309817366389098
 31
0.0
  0
ARC
  5
D47D
  8
0
 10
4700.3577637118387429
 20
174.2580111461388128
 30
0.0
 40
0.0591
 50
0.0
 51
90.0
  0
LINE
  5
D47E
  8
0
 10
4700.4168637118391416
 20
174.2309817366389098
 30
0.0
 11
4700.4580697265391791
 21
174.2073311394389066
 31
0.0
  0
LINE
  5
D47F
  8
0
 10
4700.4580697265391791
 20
174.2073311394389066
 30
0.0
 11
4700.4580697265391791
 21
174.1958312504389141
 31
0.0
  0
LINE
  5
D480
  8
0
 10
4700.4580697265391791
 20
174.1958312504389141
 30
0.0
 11
4700.4168637118391416
 21
174.1718328665388071
 31
0.0
  0
LINE
  5
D481
  8
0
 10
4700.4168637118391416
 20
174.1718328665388071
 30
0.0
 11
4700.4168637118391416
 21
174.1596754906389037
 31
0.0
  0
LINE
  5
D482
  8
0
 10
4700.4168637118391416
 20
174.1596754906389037
 30
0.0
 11
4700.4577791344381694
 21
174.1360483061388038
 31
0.0
  0
LINE
  5
D483
  8
0
 10
4700.4577791344381694
 20
174.1360483061388038
 30
0.0
 11
4700.4577791344381694
 21
174.1245318661758859
 31
0.0
  0
LINE
  5
D484
  8
0
 10
4700.4577791344381694
 20
174.1245318661758859
 30
0.0
 11
4700.4168637118391416
 21
174.1006200914387989
 31
0.0
  0
LINE
  5
D485
  8
0
 10
4700.4168637118391416
 20
174.1006200914387989
 30
0.0
 11
4700.4168637118391416
 21
174.0884641517388047
 31
0.0
  0
LINE
  5
D486
  8
0
 10
4700.4168637118391416
 20
174.0884641517388047
 30
0.0
 11
4700.4580802372393009
 21
174.0647806388388972
 31
0.0
  0
LINE
  5
D487
  8
0
 10
4700.4580802372393009
 20
174.0647806388388972
 30
0.0
 11
4700.4580802372393009
 21
174.0532817971389079
 31
0.0
  0
LINE
  5
D488
  8
0
 10
4700.4580802372393009
 20
174.0532817971389079
 30
0.0
 11
4700.4168637118391416
 21
174.0293119899388046
 31
0.0
  0
LINE
  5
D489
  8
0
 10
4700.4168637118391416
 20
174.0293119899388046
 30
0.0
 11
4700.4168637118391416
 21
174.0171704336389098
 31
0.0
  0
LINE
  5
D48A
  8
0
 10
4700.4168637118391416
 20
174.0171704336389098
 30
0.0
 11
4700.4578676087394342
 21
173.9935255029388088
 31
0.0
  0
LINE
  5
D48B
  8
0
 10
4700.4578676087394342
 20
173.9935255029388088
 30
0.0
 11
4700.4578676087394342
 21
173.9820372917388056
 31
0.0
  0
LINE
  5
D48C
  8
0
 10
4700.4578676087394342
 20
173.9820372917388056
 30
0.0
 11
4700.4168637118391416
 21
173.9580949661387876
 31
0.0
  0
LINE
  5
D48D
  8
0
 10
4700.4168637118391416
 20
173.9580949661387876
 30
0.0
 11
4700.4168637118391416
 21
173.9458975740388098
 31
0.0
  0
LINE
  5
D48E
  8
0
 10
4700.4168637118391416
 20
173.9458975740388098
 30
0.0
 11
4700.4577799954386137
 21
173.9222739315389106
 31
0.0
  0
LINE
  5
D48F
  8
0
 10
4700.4577799954386137
 20
173.9222739315389106
 30
0.0
 11
4700.4577799954386137
 21
173.9107354496019013
 31
0.0
  0
LINE
  5
D490
  8
0
 10
4700.4577799954386137
 20
173.9107354496019013
 30
0.0
 11
4700.4168637118391416
 21
173.886834787538902
 31
0.0
  0
LINE
  5
D491
  8
0
 10
4700.4168637118391416
 20
173.886834787538902
 30
0.0
 11
4700.4168637118391416
 21
173.8746425757389034
 31
0.0
  0
LINE
  5
D492
  8
0
 10
4700.4168637118391416
 20
173.8746425757389034
 30
0.0
 11
4700.4578498328392016
 21
173.851010112838793
 31
0.0
  0
LINE
  5
D493
  8
0
 10
4700.4578498328392016
 20
173.851010112838793
 30
0.0
 11
4700.4578498328392016
 21
173.8395268787157022
 31
0.0
  0
LINE
  5
D494
  8
0
 10
4700.4578498328392016
 20
173.8395268787157022
 30
0.0
 11
4700.4361657686386025
 21
173.8267148287388011
 31
0.0
  0
LINE
  5
D495
  8
0
 10
4700.4361657686386025
 20
173.8267148287388011
 30
0.0
 11
4700.4562337906390894
 21
173.8066468068388986
 31
0.0
  0
LINE
  5
D496
  8
0
 10
4700.4562337906390894
 20
173.8066468068388986
 30
0.0
 11
4701.186972721337952
 21
173.8066468068388986
 31
0.0
  0
LINE
  5
D497
  8
0
 10
4701.186972721337952
 20
173.8066468068388986
 30
0.0
 11
4701.186972721337952
 21
173.8150803843244034
 31
0.0
  0
LINE
  5
D498
  8
0
 10
4701.186972721337952
 20
173.8150803843244034
 30
0.0
 11
4701.2103573669892285
 21
173.8287416924887907
 31
0.0
  0
LINE
  5
D499
  8
0
 10
4701.2103573669892285
 20
173.8287416924887907
 30
0.0
 11
4701.2278873339391794
 21
173.8460168855388019
 31
0.0
  0
LINE
  5
D49A
  8
0
 10
4701.2278873339391794
 20
173.8460168855388019
 30
0.0
 11
4701.2278873339391794
 21
173.8511939049388104
 31
0.0
  0
LINE
  5
D49B
  8
0
 10
4701.2278873339391794
 20
173.8511939049388104
 30
0.0
 11
4701.1868916051380438
 21
173.8748532568388043
 31
0.0
  0
LINE
  5
D49C
  8
0
 10
4701.1868916051380438
 20
173.8748532568388043
 30
0.0
 11
4701.1868916051380438
 21
173.8863382441388978
 31
0.0
  0
LINE
  5
D49D
  8
0
 10
4701.1868916051380438
 20
173.8863382441388978
 30
0.0
 11
4701.2278873339391794
 21
173.9102812001389111
 31
0.0
  0
LINE
  5
D49E
  8
0
 10
4701.2278873339391794
 20
173.9102812001389111
 30
0.0
 11
4701.2278873339391794
 21
173.9224630833388971
 31
0.0
  0
LINE
  5
D49F
  8
0
 10
4701.2278873339391794
 20
173.9224630833388971
 30
0.0
 11
4701.1869084587397083
 21
173.9461175130388142
 31
0.0
  0
LINE
  5
D4A0
  8
0
 10
4701.1869084587397083
 20
173.9461175130388142
 30
0.0
 11
4701.1869084587397083
 21
173.9576081684423912
 31
0.0
  0
LINE
  5
D4A1
  8
0
 10
4701.1869084587397083
 20
173.9576081684423912
 30
0.0
 11
4701.2278873339391794
 21
173.9815347508389038
 31
0.0
  0
LINE
  5
D4A2
  8
0
 10
4701.2278873339391794
 20
173.9815347508389038
 30
0.0
 11
4701.2278873339391794
 21
173.9937180984285874
 31
0.0
  0
LINE
  5
D4A3
  8
0
 10
4701.2278873339391794
 20
173.9937180984285874
 30
0.0
 11
4701.1868952424392774
 21
174.0176201102389086
 31
0.0
  0
LINE
  5
D4A4
  8
0
 10
4701.1868952424392774
 20
174.0176201102389086
 30
0.0
 11
4701.1868952424392774
 21
174.0285291626389039
 31
0.0
  0
LINE
  5
D4A5
  8
0
 10
4701.1868952424392774
 20
174.0285291626389039
 30
0.0
 11
4701.2278873339391794
 21
174.0527987480388106
 31
0.0
  0
LINE
  5
D4A6
  8
0
 10
4701.2278873339391794
 20
174.0527987480388106
 30
0.0
 11
4701.2278873339391794
 21
174.0649582327388032
 31
0.0
  0
LINE
  5
D4A7
  8
0
 10
4701.2278873339391794
 20
174.0649582327388032
 30
0.0
 11
4701.186778557938851
 21
174.0889556900388015
 31
0.0
  0
LINE
  5
D4A8
  8
0
 10
4701.186778557938851
 20
174.0889556900388015
 30
0.0
 11
4701.186778557938851
 21
174.1001513876171032
 31
0.0
  0
LINE
  5
D4A9
  8
0
 10
4701.186778557938851
 20
174.1001513876171032
 30
0.0
 11
4701.2278873339391794
 21
174.1240763969387899
 31
0.0
  0
LINE
  5
D4AA
  8
0
 10
4701.2278873339391794
 20
174.1240763969387899
 30
0.0
 11
4701.2278873339391794
 21
174.136215219978908
 31
0.0
  0
LINE
  5
D4AB
  8
0
 10
4701.2278873339391794
 20
174.136215219978908
 30
0.0
 11
4701.1867543664393452
 21
174.1601473686388033
 31
0.0
  0
LINE
  5
D4AC
  8
0
 10
4701.1867543664393452
 20
174.1601473686388033
 30
0.0
 11
4701.1867543664393452
 21
174.1713410501388068
 31
0.0
  0
LINE
  5
D4AD
  8
0
 10
4701.1867543664393452
 20
174.1713410501388068
 30
0.0
 11
4701.2278873339391794
 21
174.1953410673388021
 31
0.0
  0
LINE
  5
D4AE
  8
0
 10
4701.2278873339391794
 20
174.1953410673388021
 30
0.0
 11
4701.2278873339391794
 21
174.2075008427887042
 31
0.0
  0
LINE
  5
D4AF
  8
0
 10
4701.2278873339391794
 20
174.2075008427887042
 30
0.0
 11
4701.1869210614404437
 21
174.2314613476389127
 31
0.0
  0
LINE
  5
D4B0
  8
0
 10
4701.1869210614404437
 20
174.2314613476389127
 30
0.0
 11
4701.1869210614404437
 21
174.2426726840371884
 31
0.0
  0
LINE
  5
D4B1
  8
0
 10
4701.1869210614404437
 20
174.2426726840371884
 30
0.0
 11
4701.228563496472816
 21
174.2669615050928087
 31
0.0
  0
ARC
  5
D4B2
  8
0
 10
4701.2869584427417067
 20
174.2580383804370001
 30
0.0
 40
0.0590727678661378
 50
90.0155096820021612
 51
171.3120398888345051
  0
LINE
  5
D4B3
  8
0
 10
4700.4168637118391416
 20
174.2309817366389098
 30
0.0
 11
4701.228563496472816
 21
174.2669615050928087
 31
0.0
  0
LINE
  5
D4B4
  8
0
 10
4700.4168637118391416
 20
174.1718328665388071
 30
0.0
 11
4701.2278873339391794
 21
174.2075008427887042
 31
0.0
  0
LINE
  5
D4B5
  8
0
 10
4700.4168637118391416
 20
174.1596754906389037
 30
0.0
 11
4701.2278873339391794
 21
174.1953410673388021
 31
0.0
  0
LINE
  5
D4B6
  8
0
 10
4700.4580697265391791
 20
174.2015811949389104
 30
0.0
 11
4701.1869210614404437
 21
174.2370670158379937
 31
0.0
  0
LINE
  5
D4B7
  8
0
 10
4700.4577791344381694
 20
174.130290086157288
 30
0.0
 11
4701.1867543664393452
 21
174.1657442093888051
 31
0.0
  0
LINE
  5
D4B8
  8
0
 10
4700.4168637118391416
 20
174.1006200914387989
 30
0.0
 11
4701.2278873339391794
 21
174.136215219978908
 31
0.0
  0
LINE
  5
D4B9
  8
0
 10
4700.4168637118391416
 20
174.0884641517388047
 30
0.0
 11
4701.2278873339391794
 21
174.1240763969387899
 31
0.0
  0
LINE
  5
D4BA
  8
0
 10
4700.4580802372393009
 20
174.0590312179888031
 30
0.0
 11
4701.186778557938851
 21
174.094553538827995
 31
0.0
  0
LINE
  5
D4BB
  8
0
 10
4700.4168637118391416
 20
174.0293119899388046
 30
0.0
 11
4701.2278873339391794
 21
174.0649582327388032
 31
0.0
  0
LINE
  5
D4BC
  8
0
 10
4700.4168637118391416
 20
174.0171704336389098
 30
0.0
 11
4701.2278873339391794
 21
174.0527987480388106
 31
0.0
  0
LINE
  5
D4BD
  8
0
 10
4700.4578676087394342
 20
173.9877813973388072
 30
0.0
 11
4701.1868952424392774
 21
174.0230746364389063
 31
0.0
  0
LINE
  5
D4BE
  8
0
 10
4700.4168637118391416
 20
173.9580949661387876
 30
0.0
 11
4701.2278873339391794
 21
173.9937180984285874
 31
0.0
  0
LINE
  5
D4BF
  8
0
 10
4700.4168637118391416
 20
173.9458975740388098
 30
0.0
 11
4701.2278873339391794
 21
173.9815347508389038
 31
0.0
  0
LINE
  5
D4C0
  8
0
 10
4700.4577799954386137
 20
173.916504690570406
 30
0.0
 11
4701.1869084587397083
 21
173.9518628407406027
 31
0.0
  0
LINE
  5
D4C1
  8
0
 10
4700.4168637118391416
 20
173.886834787538902
 30
0.0
 11
4701.2278873339391794
 21
173.9224630833388971
 31
0.0
  0
LINE
  5
D4C2
  8
0
 10
4700.4168637118391416
 20
173.8746425757389034
 30
0.0
 11
4701.2278873339391794
 21
173.9102812001389111
 31
0.0
  0
LINE
  5
D4C3
  8
0
 10
4700.4578498328392016
 20
173.8452684957773045
 30
0.0
 11
4701.1868916051380438
 21
173.8805957504889079
 31
0.0
  0
LINE
  5
D4C4
  8
0
 10
4700.4361657686386025
 20
173.8267148287388011
 30
0.0
 11
4701.2278873339391794
 21
173.8511939049388104
 31
0.0
  0
LINE
  5
D4C5
  8
0
 10
4700.4562337906390894
 20
173.8066468068388986
 30
0.0
 11
4701.2278873339391794
 21
173.8460168855388019
 31
0.0
  0
LINE
  5
D4C6
  8
0
 10
4701.0216746024552776
 20
173.8066468068388986
 30
0.0
 11
4701.186972721337952
 21
173.8150803843244034
 31
0.0
  0
ARC
  5
D4C7
  8
0
 10
4699.2107228085542374
 20
175.038006894270012
 30
0.0
 40
0.8661417327801911
 50
97.937056392819045
 51
126.8375452834207948
  0
ARC
  5
D4C8
  8
0
 10
4699.2107228084396411
 20
175.2497587046387935
 30
0.0
 40
0.8661417322999259
 50
252.2324918547114123
 51
262.0629436070228166
  0
ARC
  5
D4CA
  8
0
 10
4694.1842742730277678
 20
174.4371485858669928
 30
0.0
 40
4.7621564599121582
 50
359.0643395629867882
 51
359.8529883963577163
  0
ARC
  5
D4CB
  8
0
 10
4698.9339973332880618
 20
174.3595770249552004
 30
0.0
 40
0.0118
 50
269.2414964366865888
 51
359.0643395629900283
  0
ARC
  5
D4CC
  8
0
 10
4698.5060934354150959
 20
174.426059480082813
 30
0.0
 40
0.4403230710996608
 50
359.8529883963577163
 51
2.6076478624538351
  0
ARC
  5
D4CD
  8
0
 10
4788.367424764516727
 20
174.8714196484035881
 30
0.0
 40
89.4224757238642809
 50
179.8756050106466091
 51
180.2725214050514921
  0
ARC
  5
D4CE
  8
0
 10
4698.4535343696243217
 20
175.0690060639794865
 30
0.0
 40
0.4916374693241301
 50
359.5989521807587153
 51
23.7862334044543111
  0
ARC
  5
D4CF
  8
0
 10
5206.2181664827603527
 20
407.3588252641250733
 30
0.0
 40
557.8841632710289105
 50
204.5075931327695002
 51
204.5836303896203958
  0
ARC
  5
D4D0
  8
0
 10
4698.9762647974966967
 20
184.8685310456916966
 30
0.0
 40
8.9294280565612514
 50
265.1751798849410875
 51
267.4926732859967728
  0
ARC
  5
D4D1
  8
0
 10
4698.5851116367339273
 20
175.9358630028131927
 30
0.0
 40
0.0118
 50
24.5075931330068606
 51
87.4926732860489693
  0
ARC
  5
D4D2
  8
0
 10
4698.2191784764154363
 20
175.807570843363095
 30
0.0
 40
0.1632850417983069
 50
87.8813398785523532
 51
93.7364211407119257
  0
ARC
  5
D4D3
  8
0
 10
15603.4978235712405876
 20
-346839.1512846266850829
 30
0.0
 40
347186.4341930979862809
 50
91.7999834635937901
 51
91.8000487634865578
  0
ARC
  5
D4D4
  8
0
 10
4697.812791731096695
 20
175.9288933813836877
 30
0.0
 40
0.0291875592138029
 50
89.5024611885278745
 51
104.4011165171893936
  0
ARC
  5
D4D5
  8
0
 10
4697.8073726223192352
 20
175.9510483607940046
 30
0.0
 40
0.0063862948961049
 50
106.7461266129406994
 51
189.3090872947728087
  0
ARC
  5
D4D6
  8
0
 10
4697.8387814800707929
 20
175.9527836473351101
 30
0.0
 40
0.0378125196715349
 50
184.1985034359805979
 51
192.318180606823887
  0
ARC
  5
D4D7
  8
0
 10
4690.2435392691832021
 20
173.5974425555345988
 30
0.0
 40
7.9143918321904261
 50
13.2332244966215207
 51
17.2524858960131589
  0
ARC
  5
D4D8
  8
0
 10
4687.6645441092196052
 20
173.101483792097298
 30
0.0
 40
10.5389868997761305
 50
9.3061863580146529
 51
12.6483365025365497
  0
ARC
  5
D4D9
  8
0
 10
4681.5091141184566368
 20
171.9513252566540018
 30
0.0
 40
16.7999735108339898
 50
6.9435940019588074
 51
9.7823736149112257
  0
ARC
  5
D4DA
  8
0
 10
4672.7032116296122695
 20
171.0412363894268992
 30
0.0
 40
25.6518192049070102
 50
2.584108332152935
 51
6.5836465450735311
  0
ARC
  5
D4DB
  8
0
 10
4720.4249452249277965
 20
172.4159394852119078
 30
0.0
 40
22.0970764084734483
 50
180.565698327204899
 51
181.0687064419726937
  0
ARC
  5
D4DC
  8
0
 10
4698.3528716579212414
 20
172.0050174895401938
 30
0.0
 40
0.021194078517609
 50
183.2962533734798001
 51
196.6402410997779953
  0
ARC
  5
D4DD
  8
0
 10
4698.3394486700872221
 20
172.000373681094203
 30
0.0
 40
0.0070295425343877
 50
191.6987921338177898
 51
287.2891782946384751
  0
ARC
  5
D4DE
  8
0
 10
4697.0861364354777834
 20
174.618923139424993
 30
0.0
 40
2.9099879644841979
 50
295.5571513099246204
 51
297.5143396097253117
  0
ARC
  5
D4DF
  8
0
 10
4698.4133727265088964
 20
172.0702025022453938
 30
0.0
 40
0.0363969786755424
 50
298.0093266012660251
 51
318.3033609218985021
  0
ARC
  5
D4E0
  8
0
 10
4698.431204979913673
 20
172.0560797704879974
 30
0.0
 40
0.0137509701061116
 50
312.8088808515493042
 51
3.0364847442362959
  0
ARC
  5
D4E1
  8
0
 10
4664.6283185747379321
 20
172.04894848632091
 30
0.0
 40
33.8166189823808168
 50
0.0133167528547296
 51
0.7462144439792019
  0
ARC
  5
D4E2
  8
0
 10
4663.0006736850136804
 20
171.9994822258481975
 30
0.0
 40
35.4447813265718494
 50
0.7919032564245274
 51
3.385884586523709
  0
ARC
  5
D4E3
  8
0
 10
4680.8013259639583339
 20
173.4066682175391918
 30
0.0
 40
17.5956422835555095
 50
2.2349996474610139
 51
6.3912658108507721
  0
ARC
  5
D4E4
  8
0
 10
4653.8423479836801562
 20
171.0903975032958044
 30
0.0
 40
44.6503826197680382
 50
5.4940996888311506
 51
6.275042601109603
  0
ARC
  5
D4E5
  8
0
 10
4698.6316283621272305
 20
174.0470694426300042
 30
0.0
 40
0.2518038760774132
 50
155.3019340458712918
 51
169.94566613520891
  0
ARC
  5
D4E6
  8
0
 10
4698.8243259575901902
 20
173.9584463319075098
 30
0.0
 40
0.4639038974153045
 50
142.2709655482138089
 51
155.3019340458712918
  0
ARC
  5
D4E7
  8
0
 10
4698.7470130099482049
 20
174.018263174177406
 30
0.0
 40
0.3661524447797797
 50
112.1571071253253962
 51
142.2709655482138089
  0
ARC
  5
D4E8
  8
0
 10
4698.8525740769064214
 20
173.7590391188790875
 30
0.0
 40
0.6460457274835285
 50
98.4674532634990243
 51
112.1571071253253962
  0
ARC
  5
D4E9
  8
0
 10
4699.0736653687026774
 20
172.2739123390848874
 30
0.0
 40
2.147539287699594
 50
94.5979705174012935
 51
98.4674532634990243
  0
ARC
  5
D4EA
  8
0
 10
4698.8128031426667803
 20
175.5175621017999958
 30
0.0
 40
1.106583156852049
 50
274.5979705174012224
 51
276.3813088811559737
  0
ARC
  5
D4EB
  8
0
 10
4698.934401202484878
 20
174.4302891581534141
 30
0.0
 40
0.012531721983524
 50
276.3813088811559737
 51
343.4860913944573895
  0
ARC
  5
D4EC
  8
0
 10
4698.7687472389652612
 20
173.9408786717212934
 30
0.0
 40
0.4191028044362366
 50
123.4034513158748041
 51
154.0020792395305023
  0
ARC
  5
D4ED
  8
0
 10
4698.6626019173827444
 20
174.101835403693002
 30
0.0
 40
0.2262974651403171
 50
106.2167140802773986
 51
123.4034513158748041
  0
ARC
  5
D4EE
  8
0
 10
4698.7043337638606317
 20
173.9977188676510877
 30
0.0
 40
0.3381047561486576
 50
91.0341406431567748
 51
108.080218513304402
  0
ARC
  5
D4EF
  8
0
 10
4698.9094888719982919
 20
172.5083670525175137
 30
0.0
 40
1.8395722010248601
 50
89.2414964366866315
 51
96.5944220358041861
  0
ARC
  5
D4F0
  8
0
 10
4695.9337058422197515
 20
172.0330988608291136
 30
0.0
 40
2.4008939799520181
 50
359.305028102340998
 51
3.9329054755154398
  0
ARC
  5
D4F1
  8
0
 10
4698.343607199060898
 20
172.0038664134416138
 30
0.0
 40
0.0091846672476461
 50
179.3050281023425896
 51
270.3855393507562894
  0
ENDSEC
  0
EOF
