  0
SECTION
  2
HEADER
  9
$ACADVER
  1
AC1009
  9
$INSBASE
 10
4305.9338571809093992
 20
196.9198348128697944
 30
0.0
  9
$EXTMIN
 10
4297.2389520195356454
 20
187.8902314643592035
 30
-0.0000000000000058
  9
$EXTMAX
 10
4314.6000727455702872
 20
197.0727912360272001
 30
0.0000000000000104
  9
$LIMMIN
 10
0.0
 20
0.0
  9
$LIMMAX
 10
11.6929133858000007
 20
8.2677165353999982
  9
$ORTHOMODE
 70
     0
  9
$REGENMODE
 70
     1
  9
$FILLMODE
 70
     1
  9
$QTEXTMODE
 70
     0
  9
$MIRRTEXT
 70
     0
  9
$DRAGMODE
 70
     2
  9
$LTSCALE
 40
0.6431102362
  9
$OSMODE
 70
  4095
  9
$ATTMODE
 70
     1
  9
$TEXTSIZE
 40
0.2
  9
$TRACEWID
 40
0.05
  9
$TEXTSTYLE
  7
STANDARD
  9
$CLAYER
  8
0
  9
$CELTYPE
  6
BYLAYER
  9
$CECOLOR
 62
   256
  9
$DIMSCALE
 40
1.0
  9
$DIMASZ
 40
0.1875
  9
$DIMEXO
 40
0.0625
  9
$DIMDLI
 40
0.4443307087
  9
$DIMRND
 40
0.0
  9
$DIMDLE
 40
0.0
  9
$DIMEXE
 40
0.125
  9
$DIMTP
 40
0.01
  9
$DIMTM
 40
0.01
  9
$DIMTXT
 40
2.0
  9
$DIMCEN
 40
0.1052362205
  9
$DIMTSZ
 40
0.0
  9
$DIMTOL
 70
     1
  9
$DIMLIM
 70
     0
  9
$DIMTIH
 70
     1
  9
$DIMTOH
 70
     1
  9
$DIMSE1
 70
     0
  9
$DIMSE2
 70
     0
  9
$DIMTAD
 70
     0
  9
$DIMZIN
 70
     0
  9
$DIMBLK
  1

  9
$DIMASO
 70
     1
  9
$DIMSHO
 70
     1
  9
$DIMPOST
  1
\X
  9
$DIMAPOST
  1

  9
$DIMALT
 70
     1
  9
$DIMALTD
 70
     2
  9
$DIMALTF
 40
25.3999999999999986
  9
$DIMLFAC
 40
1.0
  9
$DIMTOFL
 70
     0
  9
$DIMTVP
 40
0.0
  9
$DIMTIX
 70
     0
  9
$DIMSOXD
 70
     0
  9
$DIMSAH
 70
     0
  9
$DIMBLK1
  1

  9
$DIMBLK2
  1

  9
$DIMSTYLE
  2
STANDARD
  9
$DIMCLRD
 70
     0
  9
$DIMCLRE
 70
     0
  9
$DIMCLRT
 70
     0
  9
$DIMTFAC
 40
1.0
  9
$DIMGAP
 40
0.09
  9
$LUNITS
 70
     2
  9
$LUPREC
 70
     4
  9
$SKETCHINC
 40
0.1
  9
$FILLETRAD
 40
0.0
  9
$AUNITS
 70
     0
  9
$AUPREC
 70
     0
  9
$MENU
  1
.
  9
$ELEVATION
 40
0.0
  9
$PELEVATION
 40
0.0
  9
$THICKNESS
 40
0.0
  9
$LIMCHECK
 70
     0
  9
$BLIPMODE
 70
     0
  9
$CHAMFERA
 40
0.0
  9
$CHAMFERB
 40
0.0
  9
$SKPOLY
 70
     0
  9
$TDCREATE
 40
2458060.468368056230247
  9
$TDUPDATE
 40
2459157.7661921298131347
  9
$TDINDWG
 40
0.4368704861
  9
$TDUSRTIMER
 40
0.4368704861
  9
$USRTIMER
 70
     1
  9
$ANGBASE
 50
0.0
  9
$ANGDIR
 70
     0
  9
$PDMODE
 70
     0
  9
$PDSIZE
 40
0.3125
  9
$PLINEWID
 40
0.0
  9
$COORDS
 70
     1
  9
$SPLFRAME
 70
     0
  9
$SPLINETYPE
 70
     6
  9
$SPLINESEGS
 70
     8
  9
$ATTDIA
 70
     1
  9
$ATTREQ
 70
     1
  9
$HANDLING
 70
     1
  9
$HANDSEED
  5
17E81
  9
$SURFTAB1
 70
     6
  9
$SURFTAB2
 70
     6
  9
$SURFTYPE
 70
     6
  9
$SURFU
 70
     6
  9
$SURFV
 70
     6
  9
$UCSNAME
  2

  9
$UCSORG
 10
0.0
 20
0.0
 30
0.0
  9
$UCSXDIR
 10
1.0
 20
0.0
 30
0.0
  9
$UCSYDIR
 10
0.0
 20
1.0
 30
0.0
  9
$PUCSNAME
  2

  9
$PUCSORG
 10
0.0
 20
0.0
 30
0.0
  9
$PUCSXDIR
 10
1.0
 20
0.0
 30
0.0
  9
$PUCSYDIR
 10
0.0
 20
1.0
 30
0.0
  9
$USERI1
 70
     0
  9
$USERI2
 70
     0
  9
$USERI3
 70
     0
  9
$USERI4
 70
     0
  9
$USERI5
 70
     0
  9
$USERR1
 40
0.0
  9
$USERR2
 40
0.0
  9
$USERR3
 40
0.0
  9
$USERR4
 40
0.0
  9
$USERR5
 40
0.0
  9
$WORLDVIEW
 70
     1
  9
$SHADEDGE
 70
     3
  9
$SHADEDIF
 70
    70
  9
$TILEMODE
 70
     1
  9
$MAXACTVP
 70
    64
  9
$PLIMCHECK
 70
     0
  9
$PEXTMIN
 10
1.0000000000000000E+20
 20
1.0000000000000000E+20
 30
1.0000000000000000E+20
  9
$PEXTMAX
 10
-1.0000000000000000E+20
 20
-1.0000000000000000E+20
 30
-1.0000000000000000E+20
  9
$PLIMMIN
 10
0.0
 20
0.0
  9
$PLIMMAX
 10
12.0
 20
9.0
  9
$UNITMODE
 70
     0
  9
$VISRETAIN
 70
     1
  9
$PLINEGEN
 70
     0
  9
$PSLTSCALE
 70
     1
  0
ENDSEC
  0
SECTION
  2
TABLES
  0
TABLE
  2
VPORT
 70
     1
  0
VPORT
  2
*ACTIVE
 70
     0
 10
0.0
 20
0.0
 11
1.0
 21
1.0
 12
394.554155719648179
 22
59.9019061272351223
 13
0.0
 23
0.0
 14
1.0
 24
1.0
 15
0.0
 25
0.0
 16
0.0
 26
0.0
 36
60.4960186965801583
 17
3911.3653564453120453
 27
132.5796051025390057
 37
0.0
 40
13.1977593173011591
 41
1.8614190687361409
 42
50.0
 43
0.0
 44
0.0
 50
0.0
 51
0.0
 71
     0
 72
   100
 73
     1
 74
     1
 75
     0
 76
     0
 77
     0
 78
     0
  0
ENDTAB
  0
TABLE
  2
LTYPE
 70
     2
  0
LTYPE
  2
CONTINUOUS
 70
     0
  3
Solid line
 72
    65
 73
     0
 40
0.0
  0
LTYPE
  2
PHANTOM2
 70
     0
  3
___ _ _ ___ _ _ ___ _ _ ___ _ _
 72
    65
 73
     6
 40
1.25
 49
0.625
 49
-0.125
 49
0.125
 49
-0.125
 49
0.125
 49
-0.125
  0
ENDTAB
  0
TABLE
  2
LAYER
 70
     2
  0
LAYER
  2
0
 70
     0
 62
   255
  6
CONTINUOUS
  0
LAYER
  2
DEFPOINTS
 70
     0
 62
     7
  6
CONTINUOUS
  0
ENDTAB
  0
TABLE
  2
STYLE
 70
     1
  0
STYLE
  2
STANDARD
 70
     0
 40
0.0
 41
0.8
 50
0.0
 71
     0
 42
0.2
  3
txt
  4

  0
ENDTAB
  0
TABLE
  2
VIEW
 70
     0
  0
ENDTAB
  0
TABLE
  2
UCS
 70
     0
  0
ENDTAB
  0
TABLE
  2
APPID
 70
    11
  0
APPID
  2
ACAD
 70
     0
  0
APPID
  2
ACAD_MLEADERVER
 70
     0
  0
APPID
  2
ACAD_EXEMPT_FROM_CAD_STANDARDS
 70
     0
  0
APPID
  2
ACAD_NAV_VCDISPLAY
 70
     0
  0
APPID
  2
ACAECLAYERSTANDARD
 70
     0
  0
APPID
  2
ACCMTRANSPARENCY
 70
     0
  0
APPID
  2
ACAD_DSTYLE_DIMJAG
 70
     0
  0
APPID
  2
ACAD_DSTYLE_DIMTALN
 70
     0
  0
APPID
  2
ACDBATTR
 70
     0
  0
APPID
  2
ACADANNOTATIVE
 70
     0
  0
APPID
  2
DCO15
 70
     0
  0
ENDTAB
  0
TABLE
  2
DIMSTYLE
 70
     1
  0
DIMSTYLE
  2
STANDARD
 70
     0
  3

  4

  5

  6

  7

 40
1.0
 41
0.1875
 42
0.0625
 43
0.38
 44
0.125
 45
0.0
 46
0.0
 47
0.01
 48
0.01
140
0.15625
141
0.09
142
0.0
143
25.3999999999999986
144
1.0
145
0.0
146
1.0
147
0.09
 71
     1
 72
     0
 73
     1
 74
     1
 75
     0
 76
     0
 77
     0
 78
     4
170
     0
171
     2
172
     0
173
     0
174
     0
175
     0
176
     0
177
     0
178
     0
  0
ENDTAB
  0
ENDSEC
  0
SECTION
  2
BLOCKS
  0
BLOCK
  8
0
  2
$MODEL_SPACE
 70
     0
 10
0.0
 20
0.0
 30
0.0
  3
$MODEL_SPACE
  1

  0
ENDBLK
  5
21
  8
0
  0
BLOCK
 67
     1
  8
0
  2
$PAPER_SPACE
 70
     0
 10
0.0
 20
0.0
 30
0.0
  3
$PAPER_SPACE
  1

  0
ENDBLK
  5
1D
 67
     1
  8
0
  0
ENDSEC
  0
SECTION
  2
ENTITIES
  0
LINE
  5
17BDC
  8
0
 10
4298.7380162631097846
 20
197.070867910769806
 30
0.0
 11
4298.6809831652099092
 21
197.0138348128697885
 31
0.0
  0
LINE
  5
17BDD
  8
0
 10
4297.46929025180998
 20
196.9668348128697914
 30
0.0
 11
4297.46929025180998
 21
197.0138348128697885
 31
0.0
  0
LINE
  5
17BDE
  8
0
 10
4297.5480304092097867
 20
196.9198348128697944
 30
0.0
 11
4297.5480304092097867
 21
196.9668348128697914
 31
0.0
  0
LINE
  5
17BDF
  8
0
 10
4299.1228335589094058
 20
196.9198348128697944
 30
0.0
 11
4299.1228335589094058
 21
196.9668348128697914
 31
0.0
  0
LINE
  5
17BE0
  8
0
 10
4299.3222902518100454
 20
195.785962663169812
 30
0.0
 11
4299.3222902518100454
 21
188.5822377974697872
 31
0.0
  0
LINE
  5
17BE1
  8
0
 10
4308.3112071435098187
 20
188.086834812869796
 30
0.0
 11
4312.476109206109868
 21
188.5043621840698052
 31
0.0
  0
LINE
  5
17BE2
  8
0
 10
4307.8826760785086663
 20
187.8962351351698032
 30
0.0
 11
4303.9850382833101321
 21
187.8962351351698032
 31
0.0
  0
LINE
  5
17BE3
  8
0
 10
4303.5565072183089796
 20
188.086834812869796
 30
0.0
 11
4308.3112071435098187
 21
188.086834812869796
 31
0.0
  0
LINE
  5
17BE4
  8
0
 10
4299.3915833915098119
 20
188.5043643658698045
 30
0.0
 11
4303.5565072183089796
 21
188.086834812869796
 31
0.0
  0
LINE
  5
17BE5
  8
0
 10
4299.3857686913088401
 20
188.5058546725697965
 30
0.0
 11
4312.4824576135506504
 21
188.5057340357942053
 31
0.0
  0
LINE
  5
17BE6
  8
0
 10
4298.2468222143088497
 20
196.9198348128697944
 30
0.0
 11
4299.2809923079094006
 21
195.8856647192698119
 31
0.0
  0
LINE
  5
17BE7
  8
0
 10
4298.7950493610096601
 20
197.0138348128697885
 30
0.0
 11
4298.7380162631097846
 21
197.070867910769806
 31
0.0
  0
LINE
  5
17BE8
  8
0
 10
4313.0726650008091383
 20
197.0138348128697885
 30
0.0
 11
4313.1296980987099232
 21
197.070867910769806
 31
0.0
  0
LINE
  5
17BE9
  8
0
 10
4313.6208921475099487
 20
196.9198348128697944
 30
0.0
 11
4312.5867220539093978
 21
195.8856647192698119
 31
0.0
  0
LINE
  5
17BEA
  8
0
 10
4312.5454241100087529
 20
195.785962663169812
 30
0.0
 11
4299.3222902518100454
 21
195.785962663169812
 31
0.0
  0
LINE
  5
17BEB
  8
0
 10
4314.3196839526099211
 20
196.9198348128697944
 30
0.0
 11
4312.7448808029093925
 21
196.9198348128697944
 31
0.0
  0
LINE
  5
17BEC
  8
0
 10
4297.5480304092097867
 20
196.9198348128697944
 30
0.0
 11
4299.1228335589094058
 21
196.9198348128697944
 31
0.0
  0
LINE
  5
17BED
  8
0
 10
4312.7448808029093925
 20
196.9255368690697878
 30
0.0
 11
4299.1228335589094058
 21
196.9255368690697878
 31
0.0
  0
LINE
  5
17BEE
  8
0
 10
4314.3984241100088184
 20
196.9668348128697914
 30
0.0
 11
4297.46929025180998
 21
196.9668348128697914
 31
0.0
  0
LINE
  5
17BEF
  8
0
 10
4314.3984241100088184
 20
197.0138348128697885
 30
0.0
 11
4297.46929025180998
 21
197.0138348128697885
 31
0.0
  0
LINE
  5
17BF0
  8
0
 10
4312.5454241100087529
 20
195.785962663169812
 30
0.0
 11
4312.5454554303087207
 21
188.5822377904698044
 31
0.0
  0
LINE
  5
17BF1
  8
0
 10
4312.7448808029093925
 20
196.9198348128697944
 30
0.0
 11
4312.7448808029093925
 21
196.9668348128697914
 31
0.0
  0
LINE
  5
17BF2
  8
0
 10
4314.3196839526099211
 20
196.9198348128697944
 30
0.0
 11
4314.3196839526099211
 21
196.9668348128697914
 31
0.0
  0
LINE
  5
17BF3
  8
0
 10
4314.3984241100088184
 20
196.9668348128697914
 30
0.0
 11
4314.3984241100088184
 21
197.0138348128697885
 31
0.0
  0
LINE
  5
17BF4
  8
0
 10
4313.1867311966088891
 20
197.0138348128697885
 30
0.0
 11
4313.1296980987099232
 21
197.070867910769806
 31
0.0
  0
ARC
  5
17BF5
  8
0
 10
4306.8790732931092862
 20
190.2371730773697891
 30
0.0
 40
2.5469999999999988
 50
293.2056963625008734
 51
302.4069248628081255
  0
ARC
  5
17BF6
  8
0
 10
4304.9886410687086027
 20
190.2371730773697891
 30
0.0
 40
2.5469999999999988
 50
237.593075137191903
 51
246.7943036374990982
  0
ARC
  5
17BF7
  8
0
 10
4299.1812902518104238
 20
195.785962663169812
 30
0.0
 40
0.141
 50
0.0
 51
44.9999999999953886
  0
ARC
  5
17BF8
  8
0
 10
4312.686424110009284
 20
195.785962663169812
 30
0.0
 40
0.141
 50
135.0000000000046043
 51
180.0
  0
ARC
  5
17BF9
  8
0
 10
4299.415214811039732
 20
188.6086553122297005
 30
0.0
 40
0.106934772088792
 50
254.0162184352593897
 51
257.2328655035353222
  0
ARC
  5
17BFA
  8
0
 10
4312.4612942855219444
 20
188.5882949277929868
 30
0.0
 40
0.0852302020466944
 50
280.0101379347757984
 51
284.3774018982015832
  0
ARC
  5
17BFB
  8
0
 10
4299.3993030020646984
 20
188.5816709469038983
 30
0.0
 40
0.07701483637292
 50
179.5782833565787087
 51
259.8784846215415882
  0
ARC
  5
17BFC
  8
0
 10
4312.4679190675760765
 20
188.5818959363163003
 30
0.0
 40
0.0775371163394285
 50
280.807176142091123
 51
0.2526127431714922
  0
ARC
  5
17BFD
  8
0
 10
4300.4826004912920325
 20
197.0151907488697987
 30
0.0
 40
0.039478461
 50
180.0007798803991932
 51
181.9688224607999985
  0
ARC
  5
17BFE
  8
0
 10
4300.5611250109932371
 20
197.0151899056698142
 30
0.0
 40
0.0394752696
 50
358.0323974735009074
 51
0.0004438069994935
  0
ARC
  5
17BFF
  8
0
 10
4300.4830157157439317
 20
197.0151677296539106
 30
0.0
 40
0.0398936917855973
 50
164.7513404755688953
 51
179.9677113554857044
  0
ARC
  5
17C00
  8
0
 10
4300.4891173038449779
 20
197.0132291872847077
 30
0.0
 40
0.0462910791005935
 50
141.7077259478679991
 51
164.422693795185296
  0
ARC
  5
17C01
  8
0
 10
4300.5025135863497781
 20
197.0027180162659874
 30
0.0
 40
0.0633187965227329
 50
123.0477609473743001
 51
141.7543455242337131
  0
ARC
  5
17C02
  8
0
 10
4300.5150621263755966
 20
196.9838639593828873
 30
0.0
 40
0.0859660943826522
 50
108.0027100605257004
 51
123.205425163585204
  0
ARC
  5
17C03
  8
0
 10
4300.5210550997262544
 20
196.96628371621361
 30
0.0
 40
0.104538181320505
 50
94.8490627392206136
 51
108.1486016101115979
  0
ARC
  5
17C04
  8
0
 10
4300.521860732692403
 20
196.9600113256846896
 30
0.0
 40
0.1108565580266359
 50
83.2111333131489346
 51
94.9899227255290839
  0
ARC
  5
17C05
  8
0
 10
4300.5228864182399775
 20
196.9671681903697902
 30
0.0
 40
0.1036287699140471
 50
71.6331440343663246
 51
83.3064931083298745
  0
ARC
  5
17C06
  8
0
 10
4300.5278094804771172
 20
196.9817814297126972
 30
0.0
 40
0.0882087202780773
 50
60.2755738038091167
 51
71.6770799947279897
  0
ARC
  5
17C07
  8
0
 10
4300.536254424830986
 20
196.996453737969091
 30
0.0
 40
0.0712797677014074
 50
47.1227064263848519
 51
60.3228424809205777
  0
ARC
  5
17C08
  8
0
 10
4300.5477523275403655
 20
197.0087280747065108
 30
0.0
 40
0.0544615053995606
 50
29.9383233919594289
 51
47.2005311842825606
  0
ARC
  5
17C09
  8
0
 10
4300.555576573054168
 20
197.0135141429628902
 30
0.0
 40
0.0452933814634007
 50
20.4783224892428315
 51
29.6314298640862894
  0
ARC
  5
17C0A
  8
0
 10
4300.5590075390318816
 20
197.0147957950935051
 30
0.0
 40
0.041630846875769
 50
10.7099404641023899
 51
20.4778765812691717
  0
ARC
  5
17C0B
  8
0
 10
4300.5609340643259202
 20
197.015181449192113
 30
0.0
 40
0.0396662172335585
 50
0.012656611056003
 51
10.6797278587563298
  0
ARC
  5
17C0C
  8
0
 10
4301.4666004689452166
 20
197.0151907488697987
 30
0.0
 40
0.039478461
 50
180.0007798803991932
 51
181.9688224607999985
  0
ARC
  5
17C0D
  8
0
 10
4301.5451249886446021
 20
197.0151899056698142
 30
0.0
 40
0.0394752696
 50
358.0323974735009074
 51
0.0004438069994935
  0
ARC
  5
17C0E
  8
0
 10
4301.4670156933962062
 20
197.0151677296539106
 30
0.0
 40
0.0398936917855973
 50
164.7513404755688953
 51
179.9677113554857044
  0
ARC
  5
17C0F
  8
0
 10
4301.4731172814972524
 20
197.0132291872847077
 30
0.0
 40
0.0462910791005935
 50
141.7077259478679991
 51
164.422693795185296
  0
ARC
  5
17C10
  8
0
 10
4301.4865135640020526
 20
197.0027180162659874
 30
0.0
 40
0.0633187965227329
 50
123.0477609473743001
 51
141.7543455242337131
  0
ARC
  5
17C11
  8
0
 10
4301.4990621040287806
 20
196.9838639593828873
 30
0.0
 40
0.0859660943826522
 50
108.0027100605257004
 51
123.205425163585204
  0
ARC
  5
17C12
  8
0
 10
4301.5050550773776195
 20
196.96628371621361
 30
0.0
 40
0.104538181320505
 50
94.8490627392206136
 51
108.1486016101115979
  0
ARC
  5
17C13
  8
0
 10
4301.5058607103446775
 20
196.9600113256846896
 30
0.0
 40
0.1108565580266359
 50
83.2111333131489346
 51
94.9899227255290839
  0
ARC
  5
17C14
  8
0
 10
4301.5068863958931615
 20
196.9671681903697902
 30
0.0
 40
0.1036287699140471
 50
71.6331440343663246
 51
83.3064931083298745
  0
ARC
  5
17C15
  8
0
 10
4301.5118094581293917
 20
196.9817814297126972
 30
0.0
 40
0.0882087202780773
 50
60.2755738038091167
 51
71.6770799947279897
  0
ARC
  5
17C16
  8
0
 10
4301.5202544024832605
 20
196.996453737969091
 30
0.0
 40
0.0712797677014074
 50
47.1227064263848519
 51
60.3228424809205777
  0
ARC
  5
17C17
  8
0
 10
4301.5317523051926401
 20
197.0087280747065108
 30
0.0
 40
0.0544615053995606
 50
29.9383233919594289
 51
47.2005311842825606
  0
ARC
  5
17C18
  8
0
 10
4301.5395765507064425
 20
197.0135141429628902
 30
0.0
 40
0.0452933814634007
 50
20.4783224892428315
 51
29.6314298640862894
  0
ARC
  5
17C19
  8
0
 10
4301.5430075166832466
 20
197.0147957950935051
 30
0.0
 40
0.041630846875769
 50
10.7099404641023899
 51
20.4778765812691717
  0
ARC
  5
17C1A
  8
0
 10
4301.5449340419781947
 20
197.015181449192113
 30
0.0
 40
0.0396662172335585
 50
0.012656611056003
 51
10.6797278587563298
  0
ARC
  5
17C1B
  8
0
 10
4302.4506004655504512
 20
197.0151914950104128
 30
0.0
 40
0.039478461
 50
180.0007798803991932
 51
181.9688224607999985
  0
ARC
  5
17C1C
  8
0
 10
4302.5291249852507462
 20
197.0151906518103999
 30
0.0
 40
0.0394752696
 50
358.0323974735009074
 51
0.0004438069994935
  0
ARC
  5
17C1D
  8
0
 10
4302.4510156900014408
 20
197.01516847579461
 30
0.0
 40
0.0398936917855973
 50
164.7513404755688953
 51
179.9677113554857044
  0
ARC
  5
17C1E
  8
0
 10
4302.4571172781015775
 20
197.0132299334254071
 30
0.0
 40
0.0462910791005935
 50
141.7077259478679991
 51
164.422693795185296
  0
ARC
  5
17C1F
  8
0
 10
4302.4705135606081967
 20
197.0027187624066016
 30
0.0
 40
0.0633187965227329
 50
123.0477609473743001
 51
141.7543455242337131
  0
ARC
  5
17C20
  8
0
 10
4302.4830621006349247
 20
196.9838647055235015
 30
0.0
 40
0.0859660943826522
 50
108.0027100605257004
 51
123.205425163585204
  0
ARC
  5
17C21
  8
0
 10
4302.4890550739837636
 20
196.9662844623543094
 30
0.0
 40
0.104538181320505
 50
94.8490627392206136
 51
108.1486016101115979
  0
ARC
  5
17C22
  8
0
 10
4302.4898607069508216
 20
196.9600120718253038
 30
0.0
 40
0.1108565580266359
 50
83.2111333131489346
 51
94.9899227255290839
  0
ARC
  5
17C23
  8
0
 10
4302.4908863924993057
 20
196.9671689365104896
 30
0.0
 40
0.1036287699140471
 50
71.6331440343663246
 51
83.3064931083298745
  0
ARC
  5
17C24
  8
0
 10
4302.4958094547346263
 20
196.9817821758533967
 30
0.0
 40
0.0882087202780773
 50
60.2755738038091167
 51
71.6770799947279897
  0
ARC
  5
17C25
  8
0
 10
4302.5042543990894046
 20
196.9964544841097052
 30
0.0
 40
0.0712797677014074
 50
47.1227064263848519
 51
60.3228424809205777
  0
ARC
  5
17C26
  8
0
 10
4302.5157523017987842
 20
197.0087288208472103
 30
0.0
 40
0.0544615053995606
 50
29.9383233919594289
 51
47.2005311842825606
  0
ARC
  5
17C27
  8
0
 10
4302.5235765473116771
 20
197.0135148891035044
 30
0.0
 40
0.0452933814634007
 50
20.4783224892428315
 51
29.6314298640862894
  0
ARC
  5
17C28
  8
0
 10
4302.5270075132893908
 20
197.0147965412340909
 30
0.0
 40
0.041630846875769
 50
10.7099404641023899
 51
20.4778765812691717
  0
ARC
  5
17C29
  8
0
 10
4302.5289340385843389
 20
197.0151821953328124
 30
0.0
 40
0.0396662172335585
 50
0.012656611056003
 51
10.6797278587563298
  0
ARC
  5
17C2A
  8
0
 10
4303.4346004655471916
 20
197.0151907488697987
 30
0.0
 40
0.039478461
 50
180.0007798803991932
 51
181.9688224607999985
  0
ARC
  5
17C2B
  8
0
 10
4303.5131249852465771
 20
197.0151899056698142
 30
0.0
 40
0.0394752696
 50
358.0323974735009074
 51
0.0004438069994935
  0
ARC
  5
17C2C
  8
0
 10
4303.4350156899981812
 20
197.0151677296539106
 30
0.0
 40
0.0398936917855973
 50
164.7513404755688953
 51
179.9677113554857044
  0
ARC
  5
17C2D
  8
0
 10
4303.4411172780992274
 20
197.0132291872847077
 30
0.0
 40
0.0462910791005935
 50
141.7077259478679991
 51
164.422693795185296
  0
ARC
  5
17C2E
  8
0
 10
4303.4545135606040276
 20
197.0027180162659874
 30
0.0
 40
0.0633187965227329
 50
123.0477609473743001
 51
141.7543455242337131
  0
ARC
  5
17C2F
  8
0
 10
4303.4670621006298461
 20
196.9838639593828873
 30
0.0
 40
0.0859660943826522
 50
108.0027100605257004
 51
123.205425163585204
  0
ARC
  5
17C30
  8
0
 10
4303.4730550739814134
 20
196.96628371621361
 30
0.0
 40
0.104538181320505
 50
94.8490627392206136
 51
108.1486016101115979
  0
ARC
  5
17C31
  8
0
 10
4303.4738607069466525
 20
196.9600113256846896
 30
0.0
 40
0.1108565580266359
 50
83.2111333131489346
 51
94.9899227255290839
  0
ARC
  5
17C32
  8
0
 10
4303.4748863924951365
 20
196.9671681903697902
 30
0.0
 40
0.1036287699140471
 50
71.6331440343663246
 51
83.3064931083298745
  0
ARC
  5
17C33
  8
0
 10
4303.4798094547322762
 20
196.9817814297126972
 30
0.0
 40
0.0882087202780773
 50
60.2755738038091167
 51
71.6770799947279897
  0
ARC
  5
17C34
  8
0
 10
4303.4882543990852355
 20
196.996453737969091
 30
0.0
 40
0.0712797677014074
 50
47.1227064263848519
 51
60.3228424809205777
  0
ARC
  5
17C35
  8
0
 10
4303.4997523017946151
 20
197.0087280747065108
 30
0.0
 40
0.0544615053995606
 50
29.9383233919594289
 51
47.2005311842825606
  0
ARC
  5
17C36
  8
0
 10
4303.507576547309327
 20
197.0135141429628902
 30
0.0
 40
0.0452933814634007
 50
20.4783224892428315
 51
29.6314298640862894
  0
ARC
  5
17C37
  8
0
 10
4303.5110075132852216
 20
197.0147957950935051
 30
0.0
 40
0.041630846875769
 50
10.7099404641023899
 51
20.4778765812691717
  0
ARC
  5
17C38
  8
0
 10
4303.5129340385801697
 20
197.015181449192113
 30
0.0
 40
0.0396662172335585
 50
0.012656611056003
 51
10.6797278587563298
  0
ARC
  5
17C39
  8
0
 10
4304.4186004689454421
 20
197.0151907488697987
 30
0.0
 40
0.039478461
 50
180.0007798803991932
 51
181.9688224607999985
  0
ARC
  5
17C3A
  8
0
 10
4304.4971249886448277
 20
197.0151899056698142
 30
0.0
 40
0.0394752696
 50
358.0323974735009074
 51
0.0004438069994935
  0
ARC
  5
17C3B
  8
0
 10
4304.4190156933964317
 20
197.0151677296539106
 30
0.0
 40
0.0398936917855973
 50
164.7513404755688953
 51
179.9677113554857044
  0
ARC
  5
17C3C
  8
0
 10
4304.425117281495659
 20
197.0132291872847077
 30
0.0
 40
0.0462910791005935
 50
141.7077259478679991
 51
164.422693795185296
  0
ARC
  5
17C3D
  8
0
 10
4304.4385135640022781
 20
197.0027180162659874
 30
0.0
 40
0.0633187965227329
 50
123.0477609473743001
 51
141.7543455242337131
  0
ARC
  5
17C3E
  8
0
 10
4304.4510621040280967
 20
196.9838639593828873
 30
0.0
 40
0.0859660943826522
 50
108.0027100605257004
 51
123.205425163585204
  0
ARC
  5
17C3F
  8
0
 10
4304.4570550773769355
 20
196.96628371621361
 30
0.0
 40
0.104538181320505
 50
94.8490627392206136
 51
108.1486016101115979
  0
ARC
  5
17C40
  8
0
 10
4304.4578607103449031
 20
196.9600113256846896
 30
0.0
 40
0.1108565580266359
 50
83.2111333131489346
 51
94.9899227255290839
  0
ARC
  5
17C41
  8
0
 10
4304.4588863958933871
 20
196.9671681903697902
 30
0.0
 40
0.1036287699140471
 50
71.6331440343663246
 51
83.3064931083298745
  0
ARC
  5
17C42
  8
0
 10
4304.4638094581296173
 20
196.9817814297126972
 30
0.0
 40
0.0882087202780773
 50
60.2755738038091167
 51
71.6770799947279897
  0
ARC
  5
17C43
  8
0
 10
4304.4722544024825766
 20
196.996453737969091
 30
0.0
 40
0.0712797677014074
 50
47.1227064263848519
 51
60.3228424809205777
  0
ARC
  5
17C44
  8
0
 10
4304.4837523051928656
 20
197.0087280747065108
 30
0.0
 40
0.0544615053995606
 50
29.9383233919594289
 51
47.2005311842825606
  0
ARC
  5
17C45
  8
0
 10
4304.4915765507066681
 20
197.0135141429628902
 30
0.0
 40
0.0452933814634007
 50
20.4783224892428315
 51
29.6314298640862894
  0
ARC
  5
17C46
  8
0
 10
4304.4950075166843817
 20
197.0147957950935051
 30
0.0
 40
0.041630846875769
 50
10.7099404641023899
 51
20.4778765812691717
  0
ARC
  5
17C47
  8
0
 10
4304.4969340419784203
 20
197.015181449192113
 30
0.0
 40
0.0396662172335585
 50
0.012656611056003
 51
10.6797278587563298
  0
ARC
  5
17C48
  8
0
 10
4305.4026004689440015
 20
197.0151907488697987
 30
0.0
 40
0.039478461
 50
180.0007798803991932
 51
181.9688224607999985
  0
ARC
  5
17C49
  8
0
 10
4305.481124988645206
 20
197.0151899056698142
 30
0.0
 40
0.0394752696
 50
358.0323974735009074
 51
0.0004438069994935
  0
ARC
  5
17C4A
  8
0
 10
4305.4030156933959006
 20
197.0151677296539106
 30
0.0
 40
0.0398936917855973
 50
164.7513404755688953
 51
179.9677113554857044
  0
ARC
  5
17C4B
  8
0
 10
4305.4091172814969468
 20
197.0132291872847077
 30
0.0
 40
0.0462910791005935
 50
141.7077259478679991
 51
164.422693795185296
  0
ARC
  5
17C4C
  8
0
 10
4305.422513564001747
 20
197.0027180162659874
 30
0.0
 40
0.0633187965227329
 50
123.0477609473743001
 51
141.7543455242337131
  0
ARC
  5
17C4D
  8
0
 10
4305.4350621040275655
 20
196.9838639593828873
 30
0.0
 40
0.0859660943826522
 50
108.0027100605257004
 51
123.205425163585204
  0
ARC
  5
17C4E
  8
0
 10
4305.4410550773782234
 20
196.96628371621361
 30
0.0
 40
0.104538181320505
 50
94.8490627392206136
 51
108.1486016101115979
  0
ARC
  5
17C4F
  8
0
 10
4305.4418607103443719
 20
196.9600113256846896
 30
0.0
 40
0.1108565580266359
 50
83.2111333131489346
 51
94.9899227255290839
  0
ARC
  5
17C50
  8
0
 10
4305.4428863958928559
 20
196.9671681903697902
 30
0.0
 40
0.1036287699140471
 50
71.6331440343663246
 51
83.3064931083298745
  0
ARC
  5
17C51
  8
0
 10
4305.4478094581290861
 20
196.9817814297126972
 30
0.0
 40
0.0882087202780773
 50
60.2755738038091167
 51
71.6770799947279897
  0
ARC
  5
17C52
  8
0
 10
4305.4562544024838644
 20
196.996453737969091
 30
0.0
 40
0.0712797677014074
 50
47.1227064263848519
 51
60.3228424809205777
  0
ARC
  5
17C53
  8
0
 10
4305.4677523051923345
 20
197.0087280747065108
 30
0.0
 40
0.0544615053995606
 50
29.9383233919594289
 51
47.2005311842825606
  0
ARC
  5
17C54
  8
0
 10
4305.4755765507061369
 20
197.0135141429628902
 30
0.0
 40
0.0452933814634007
 50
20.4783224892428315
 51
29.6314298640862894
  0
ARC
  5
17C55
  8
0
 10
4305.4790075166838506
 20
197.0147957950935051
 30
0.0
 40
0.041630846875769
 50
10.7099404641023899
 51
20.4778765812691717
  0
ARC
  5
17C56
  8
0
 10
4305.4809340419778891
 20
197.015181449192113
 30
0.0
 40
0.0396662172335585
 50
0.012656611056003
 51
10.6797278587563298
  0
ARC
  5
17C57
  8
0
 10
4306.3866004655501456
 20
197.0151914950104128
 30
0.0
 40
0.039478461
 50
180.0007798803991932
 51
181.9688224607999985
  0
ARC
  5
17C58
  8
0
 10
4306.4651249852504407
 20
197.0151906518103999
 30
0.0
 40
0.0394752696
 50
358.0323974735009074
 51
0.0004438069994935
  0
ARC
  5
17C59
  8
0
 10
4306.3870156900020447
 20
197.01516847579461
 30
0.0
 40
0.0398936917855973
 50
164.7513404755688953
 51
179.9677113554857044
  0
ARC
  5
17C5A
  8
0
 10
4306.3931172781030909
 20
197.0132299334254071
 30
0.0
 40
0.0462910791005935
 50
141.7077259478679991
 51
164.422693795185296
  0
ARC
  5
17C5B
  8
0
 10
4306.4065135606078911
 20
197.0027187624066016
 30
0.0
 40
0.0633187965227329
 50
123.0477609473743001
 51
141.7543455242337131
  0
ARC
  5
17C5C
  8
0
 10
4306.4190621006337096
 20
196.9838647055235015
 30
0.0
 40
0.0859660943826522
 50
108.0027100605257004
 51
123.205425163585204
  0
ARC
  5
17C5D
  8
0
 10
4306.4250550739843675
 20
196.9662844623543094
 30
0.0
 40
0.104538181320505
 50
94.8490627392206136
 51
108.1486016101115979
  0
ARC
  5
17C5E
  8
0
 10
4306.4258607069496065
 20
196.9600120718253038
 30
0.0
 40
0.1108565580266359
 50
83.2111333131489346
 51
94.9899227255290839
  0
ARC
  5
17C5F
  8
0
 10
4306.4268863924990001
 20
196.9671689365104896
 30
0.0
 40
0.1036287699140471
 50
71.6331440343663246
 51
83.3064931083298745
  0
ARC
  5
17C60
  8
0
 10
4306.4318094547352302
 20
196.9817821758533967
 30
0.0
 40
0.0882087202780773
 50
60.2755738038091167
 51
71.6770799947279897
  0
ARC
  5
17C61
  8
0
 10
4306.440254399089099
 20
196.9964544841097052
 30
0.0
 40
0.0712797677014074
 50
47.1227064263848519
 51
60.3228424809205777
  0
ARC
  5
17C62
  8
0
 10
4306.4517523017975691
 20
197.0087288208472103
 30
0.0
 40
0.0544615053995606
 50
29.9383233919594289
 51
47.2005311842825606
  0
ARC
  5
17C63
  8
0
 10
4306.459576547312281
 20
197.0135148891035044
 30
0.0
 40
0.0452933814634007
 50
20.4783224892428315
 51
29.6314298640862894
  0
ARC
  5
17C64
  8
0
 10
4306.4630075132890852
 20
197.0147965412340909
 30
0.0
 40
0.041630846875769
 50
10.7099404641023899
 51
20.4778765812691717
  0
ARC
  5
17C65
  8
0
 10
4306.4649340385840333
 20
197.0151821953328124
 30
0.0
 40
0.0396662172335585
 50
0.012656611056003
 51
10.6797278587563298
  0
ARC
  5
17C66
  8
0
 10
4307.3706004689447582
 20
197.0151907488697987
 30
0.0
 40
0.039478461
 50
180.0007798803991932
 51
181.9688224607999985
  0
ARC
  5
17C67
  8
0
 10
4307.4491249886450532
 20
197.0151899056698142
 30
0.0
 40
0.0394752696
 50
358.0323974735009074
 51
0.0004438069994935
  0
ARC
  5
17C68
  8
0
 10
4307.3710156933948383
 20
197.0151677296539106
 30
0.0
 40
0.0398936917855973
 50
164.7513404755688953
 51
179.9677113554857044
  0
ARC
  5
17C69
  8
0
 10
4307.377117281496794
 20
197.0132291872847077
 30
0.0
 40
0.0462910791005935
 50
141.7077259478679991
 51
164.422693795185296
  0
ARC
  5
17C6A
  8
0
 10
4307.3905135640015942
 20
197.0027180162659874
 30
0.0
 40
0.0633187965227329
 50
123.0477609473743001
 51
141.7543455242337131
  0
ARC
  5
17C6B
  8
0
 10
4307.4030621040292317
 20
196.9838639593828873
 30
0.0
 40
0.0859660943826522
 50
108.0027100605257004
 51
123.205425163585204
  0
ARC
  5
17C6C
  8
0
 10
4307.4090550773780706
 20
196.96628371621361
 30
0.0
 40
0.104538181320505
 50
94.8490627392206136
 51
108.1486016101115979
  0
ARC
  5
17C6D
  8
0
 10
4307.4098607103451286
 20
196.9600113256846896
 30
0.0
 40
0.1108565580266359
 50
83.2111333131489346
 51
94.9899227255290839
  0
ARC
  5
17C6E
  8
0
 10
4307.4108863958917937
 20
196.9671681903697902
 30
0.0
 40
0.1036287699140471
 50
71.6331440343663246
 51
83.3064931083298745
  0
ARC
  5
17C6F
  8
0
 10
4307.4158094581298428
 20
196.9817814297126972
 30
0.0
 40
0.0882087202780773
 50
60.2755738038091167
 51
71.6770799947279897
  0
ARC
  5
17C70
  8
0
 10
4307.4242544024837116
 20
196.996453737969091
 30
0.0
 40
0.0712797677014074
 50
47.1227064263848519
 51
60.3228424809205777
  0
ARC
  5
17C71
  8
0
 10
4307.4357523051921817
 20
197.0087280747065108
 30
0.0
 40
0.0544615053995606
 50
29.9383233919594289
 51
47.2005311842825606
  0
ARC
  5
17C72
  8
0
 10
4307.4435765507059841
 20
197.0135141429628902
 30
0.0
 40
0.0452933814634007
 50
20.4783224892428315
 51
29.6314298640862894
  0
ARC
  5
17C73
  8
0
 10
4307.4470075166827883
 20
197.0147957950935051
 30
0.0
 40
0.041630846875769
 50
10.7099404641023899
 51
20.4778765812691717
  0
ARC
  5
17C74
  8
0
 10
4307.4489340419768268
 20
197.015181449192113
 30
0.0
 40
0.0396662172335585
 50
0.012656611056003
 51
10.6797278587563298
  0
ARC
  5
17C75
  8
0
 10
4308.3546004689451365
 20
197.0151914047829109
 30
0.0
 40
0.039478461
 50
180.0007798803991932
 51
181.9688224607999985
  0
ARC
  5
17C76
  8
0
 10
4308.4331249886454316
 20
197.0151905615828127
 30
0.0
 40
0.0394752696
 50
358.0323974735009074
 51
0.0004438069994935
  0
ARC
  5
17C77
  8
0
 10
4308.3550156933961262
 20
197.0151683855669944
 30
0.0
 40
0.0398936917855973
 50
164.7513404755688953
 51
179.9677113554857044
  0
ARC
  5
17C78
  8
0
 10
4308.3611172814971724
 20
197.0132298431977915
 30
0.0
 40
0.0462910791005935
 50
141.7077259478679991
 51
164.422693795185296
  0
ARC
  5
17C79
  8
0
 10
4308.3745135640019726
 20
197.0027186721790997
 30
0.0
 40
0.0633187965227329
 50
123.0477609473743001
 51
141.7543455242337131
  0
ARC
  5
17C7A
  8
0
 10
4308.3870621040287006
 20
196.9838646152958859
 30
0.0
 40
0.0859660943826522
 50
108.0027100605257004
 51
123.205425163585204
  0
ARC
  5
17C7B
  8
0
 10
4308.3930550773784489
 20
196.9662843721266938
 30
0.0
 40
0.104538181320505
 50
94.8490627392206136
 51
108.1486016101115979
  0
ARC
  5
17C7C
  8
0
 10
4308.3938607103445975
 20
196.9600119815978019
 30
0.0
 40
0.1108565580266359
 50
83.2111333131489346
 51
94.9899227255290839
  0
ARC
  5
17C7D
  8
0
 10
4308.3948863958930815
 20
196.9671688462829025
 30
0.0
 40
0.1036287699140471
 50
71.6331440343663246
 51
83.3064931083298745
  0
ARC
  5
17C7E
  8
0
 10
4308.3998094581302212
 20
196.9817820856258095
 30
0.0
 40
0.0882087202780773
 50
60.2755738038091167
 51
71.6770799947279897
  0
ARC
  5
17C7F
  8
0
 10
4308.4082544024831805
 20
196.9964543938822032
 30
0.0
 40
0.0712797677014074
 50
47.1227064263848519
 51
60.3228424809205777
  0
ARC
  5
17C80
  8
0
 10
4308.41975230519256
 20
197.0087287306195947
 30
0.0
 40
0.0544615053995606
 50
29.9383233919594289
 51
47.2005311842825606
  0
ARC
  5
17C81
  8
0
 10
4308.4275765507063625
 20
197.0135147988760025
 30
0.0
 40
0.0452933814634007
 50
20.4783224892428315
 51
29.6314298640862894
  0
ARC
  5
17C82
  8
0
 10
4308.4310075166831666
 20
197.0147964510065037
 30
0.0
 40
0.041630846875769
 50
10.7099404641023899
 51
20.4778765812691717
  0
ARC
  5
17C83
  8
0
 10
4308.4329340419781147
 20
197.0151821051051968
 30
0.0
 40
0.0396662172335585
 50
0.012656611056003
 51
10.6797278587563298
  0
ARC
  5
17C84
  8
0
 10
4309.3386004689446054
 20
197.0151914047837067
 30
0.0
 40
0.039478461
 50
180.0007798803991932
 51
181.9688224607999985
  0
ARC
  5
17C85
  8
0
 10
4309.4171249886449004
 20
197.0151905615836938
 30
0.0
 40
0.0394752696
 50
358.0323974735009074
 51
0.0004438069994935
  0
ARC
  5
17C86
  8
0
 10
4309.3390156933946855
 20
197.0151683855677902
 30
0.0
 40
0.0398936917855973
 50
164.7513404755688953
 51
179.9677113554857044
  0
ARC
  5
17C87
  8
0
 10
4309.3451172814957317
 20
197.0132298431985873
 30
0.0
 40
0.0462910791005935
 50
141.7077259478679991
 51
164.422693795185296
  0
ARC
  5
17C88
  8
0
 10
4309.3585135640023509
 20
197.0027186721798955
 30
0.0
 40
0.0633187965227329
 50
123.0477609473743001
 51
141.7543455242337131
  0
ARC
  5
17C89
  8
0
 10
4309.3710621040290789
 20
196.9838646152967954
 30
0.0
 40
0.0859660943826522
 50
108.0027100605257004
 51
123.205425163585204
  0
ARC
  5
17C8A
  8
0
 10
4309.3770550773779178
 20
196.9662843721274896
 30
0.0
 40
0.104538181320505
 50
94.8490627392206136
 51
108.1486016101115979
  0
ARC
  5
17C8B
  8
0
 10
4309.3778607103449758
 20
196.9600119815985977
 30
0.0
 40
0.1108565580266359
 50
83.2111333131489346
 51
94.9899227255290839
  0
ARC
  5
17C8C
  8
0
 10
4309.3788863958925504
 20
196.9671688462836983
 30
0.0
 40
0.1036287699140471
 50
71.6331440343663246
 51
83.3064931083298745
  0
ARC
  5
17C8D
  8
0
 10
4309.38380945812969
 20
196.9817820856266053
 30
0.0
 40
0.0882087202780773
 50
60.2755738038091167
 51
71.6770799947279897
  0
ARC
  5
17C8E
  8
0
 10
4309.3922544024826493
 20
196.9964543938831127
 30
0.0
 40
0.0712797677014074
 50
47.1227064263848519
 51
60.3228424809205777
  0
ARC
  5
17C8F
  8
0
 10
4309.4037523051920289
 20
197.0087287306203905
 30
0.0
 40
0.0544615053995606
 50
29.9383233919594289
 51
47.2005311842825606
  0
ARC
  5
17C90
  8
0
 10
4309.4115765507067408
 20
197.0135147988767983
 30
0.0
 40
0.0452933814634007
 50
20.4783224892428315
 51
29.6314298640862894
  0
ARC
  5
17C91
  8
0
 10
4309.4150075166826355
 20
197.0147964510074132
 30
0.0
 40
0.041630846875769
 50
10.7099404641023899
 51
20.4778765812691717
  0
ARC
  5
17C92
  8
0
 10
4309.4169340419794025
 20
197.0151821051061063
 30
0.0
 40
0.0396662172335585
 50
0.012656611056003
 51
10.6797278587563298
  0
ARC
  5
17C93
  8
0
 10
4310.3226004655507495
 20
197.0151914950104128
 30
0.0
 40
0.039478461
 50
180.0007798803991932
 51
181.9688224607999985
  0
ARC
  5
17C94
  8
0
 10
4310.4011249852510446
 20
197.0151906518103999
 30
0.0
 40
0.0394752696
 50
358.0323974735009074
 51
0.0004438069994935
  0
ARC
  5
17C95
  8
0
 10
4310.3230156900008296
 20
197.01516847579461
 30
0.0
 40
0.0398936917855973
 50
164.7513404755688953
 51
179.9677113554857044
  0
ARC
  5
17C96
  8
0
 10
4310.3291172781027853
 20
197.0132299334254071
 30
0.0
 40
0.0462910791005935
 50
141.7077259478679991
 51
164.422693795185296
  0
ARC
  5
17C97
  8
0
 10
4310.342513560606676
 20
197.0027187624066016
 30
0.0
 40
0.0633187965227329
 50
123.0477609473743001
 51
141.7543455242337131
  0
ARC
  5
17C98
  8
0
 10
4310.3550621006343135
 20
196.9838647055235015
 30
0.0
 40
0.0859660943826522
 50
108.0027100605257004
 51
123.205425163585204
  0
ARC
  5
17C99
  8
0
 10
4310.3610550739840619
 20
196.9662844623543094
 30
0.0
 40
0.104538181320505
 50
94.8490627392206136
 51
108.1486016101115979
  0
ARC
  5
17C9A
  8
0
 10
4310.3618607069511199
 20
196.9600120718253038
 30
0.0
 40
0.1108565580266359
 50
83.2111333131489346
 51
94.9899227255290839
  0
ARC
  5
17C9B
  8
0
 10
4310.3628863924986945
 20
196.9671689365104896
 30
0.0
 40
0.1036287699140471
 50
71.6331440343663246
 51
83.3064931083298745
  0
ARC
  5
17C9C
  8
0
 10
4310.3678094547358342
 20
196.9817821758533967
 30
0.0
 40
0.0882087202780773
 50
60.2755738038091167
 51
71.6770799947279897
  0
ARC
  5
17C9D
  8
0
 10
4310.3762543990897029
 20
196.9964544841097052
 30
0.0
 40
0.0712797677014074
 50
47.1227064263848519
 51
60.3228424809205777
  0
ARC
  5
17C9E
  8
0
 10
4310.3877523017990825
 20
197.0087288208472103
 30
0.0
 40
0.0544615053995606
 50
29.9383233919594289
 51
47.2005311842825606
  0
ARC
  5
17C9F
  8
0
 10
4310.3955765473119754
 20
197.0135148891035044
 30
0.0
 40
0.0452933814634007
 50
20.4783224892428315
 51
29.6314298640862894
  0
ARC
  5
17CA0
  8
0
 10
4310.3990075132887796
 20
197.0147965412340909
 30
0.0
 40
0.041630846875769
 50
10.7099404641023899
 51
20.4778765812691717
  0
ARC
  5
17CA1
  8
0
 10
4310.4009340385828182
 20
197.0151821953328124
 30
0.0
 40
0.0396662172335585
 50
0.012656611056003
 51
10.6797278587563298
  0
ARC
  5
17CA2
  8
0
 10
4311.3066004689453621
 20
197.0151914047837067
 30
0.0
 40
0.039478461
 50
180.0007798803991932
 51
181.9688224607999985
  0
ARC
  5
17CA3
  8
0
 10
4311.3851249886447476
 20
197.0151905615836938
 30
0.0
 40
0.0394752696
 50
358.0323974735009074
 51
0.0004438069994935
  0
ARC
  5
17CA4
  8
0
 10
4311.3070156933972612
 20
197.0151683855677902
 30
0.0
 40
0.0398936917855973
 50
164.7513404755688953
 51
179.9677113554857044
  0
ARC
  5
17CA5
  8
0
 10
4311.3131172814973979
 20
197.0132298431985873
 30
0.0
 40
0.0462910791005935
 50
141.7077259478679991
 51
164.422693795185296
  0
ARC
  5
17CA6
  8
0
 10
4311.3265135640021981
 20
197.0027186721798955
 30
0.0
 40
0.0633187965227329
 50
123.0477609473743001
 51
141.7543455242337131
  0
ARC
  5
17CA7
  8
0
 10
4311.3390621040280166
 20
196.9838646152967954
 30
0.0
 40
0.0859660943826522
 50
108.0027100605257004
 51
123.205425163585204
  0
ARC
  5
17CA8
  8
0
 10
4311.3450550773768555
 20
196.9662843721274896
 30
0.0
 40
0.104538181320505
 50
94.8490627392206136
 51
108.1486016101115979
  0
ARC
  5
17CA9
  8
0
 10
4311.3458607103439135
 20
196.9600119815985977
 30
0.0
 40
0.1108565580266359
 50
83.2111333131489346
 51
94.9899227255290839
  0
ARC
  5
17CAA
  8
0
 10
4311.3468863958933071
 20
196.9671688462836983
 30
0.0
 40
0.1036287699140471
 50
71.6331440343663246
 51
83.3064931083298745
  0
ARC
  5
17CAB
  8
0
 10
4311.3518094581304467
 20
196.9817820856266053
 30
0.0
 40
0.0882087202780773
 50
60.2755738038091167
 51
71.6770799947279897
  0
ARC
  5
17CAC
  8
0
 10
4311.360254402483406
 20
196.9964543938831127
 30
0.0
 40
0.0712797677014074
 50
47.1227064263848519
 51
60.3228424809205777
  0
ARC
  5
17CAD
  8
0
 10
4311.3717523051927856
 20
197.0087287306203905
 30
0.0
 40
0.0544615053995606
 50
29.9383233919594289
 51
47.2005311842825606
  0
ARC
  5
17CAE
  8
0
 10
4311.3795765507056785
 20
197.0135147988767983
 30
0.0
 40
0.0452933814634007
 50
20.4783224892428315
 51
29.6314298640862894
  0
ARC
  5
17CAF
  8
0
 10
4311.3830075166843017
 20
197.0147964510074132
 30
0.0
 40
0.041630846875769
 50
10.7099404641023899
 51
20.4778765812691717
  0
ARC
  5
17CB0
  8
0
 10
4311.3849340419783402
 20
197.0151821051061063
 30
0.0
 40
0.0396662172335585
 50
0.012656611056003
 51
10.6797278587563298
  0
ATTDEF
  5
17CB2
  8
DEFPOINTS
 10
4305.93364551859122
 20
196.9186295320754141
 30
0.0
 40
0.001
  1
3880T-F
  3

  2
MODELNUMBER
 70
     0
1001
ACDBATTR
1070
     0
1070
     1
  0
ATTDEF
  5
17CB3
  8
DEFPOINTS
 10
4305.9335197089339999
 20
196.9169626916961988
 30
0.0
 40
0.001
  1
POISE
  3

  2
TRADENAME
 70
     0
1001
ACDBATTR
1070
     0
1070
     1
  0
ATTDEF
  5
17CB4
  8
DEFPOINTS
 10
4305.93364551859122
 20
196.9152961987421122
 30
0.0
 40
0.001
  1
KITCHEN SINK
  3

  2
PRODUCT
 70
     0
1001
ACDBATTR
1070
     0
1070
     1
  0
ENDSEC
  0
EOF
