  0
SECTION
  2
HEADER
  9
$ACADVER
  1
AC1009
  9
$INSBASE
 10
4273.8310890315005963
 20
198.0037940553299052
 30
0.0
  9
$EXTMIN
 10
4257.6586290301811459
 20
189.2002340910541136
 30
-0.0000000000000058
  9
$EXTMAX
 10
4290.0633876573192538
 20
198.2129372110593124
 30
0.0000000000000104
  9
$LIMMIN
 10
0.0
 20
0.0
  9
$LIMMAX
 10
11.6929133858000007
 20
8.2677165353999982
  9
$ORTHOMODE
 70
     0
  9
$REGENMODE
 70
     1
  9
$FILLMODE
 70
     1
  9
$QTEXTMODE
 70
     0
  9
$MIRRTEXT
 70
     0
  9
$DRAGMODE
 70
     2
  9
$LTSCALE
 40
0.6431102362
  9
$OSMODE
 70
  4095
  9
$ATTMODE
 70
     1
  9
$TEXTSIZE
 40
0.2
  9
$TRACEWID
 40
0.05
  9
$TEXTSTYLE
  7
STANDARD
  9
$CLAYER
  8
0
  9
$CELTYPE
  6
BYLAYER
  9
$CECOLOR
 62
   256
  9
$DIMSCALE
 40
1.0
  9
$DIMASZ
 40
0.1875
  9
$DIMEXO
 40
0.0625
  9
$DIMDLI
 40
0.4443307087
  9
$DIMRND
 40
0.0
  9
$DIMDLE
 40
0.0
  9
$DIMEXE
 40
0.125
  9
$DIMTP
 40
0.01
  9
$DIMTM
 40
0.01
  9
$DIMTXT
 40
2.0
  9
$DIMCEN
 40
0.1052362205
  9
$DIMTSZ
 40
0.0
  9
$DIMTOL
 70
     1
  9
$DIMLIM
 70
     0
  9
$DIMTIH
 70
     1
  9
$DIMTOH
 70
     1
  9
$DIMSE1
 70
     0
  9
$DIMSE2
 70
     0
  9
$DIMTAD
 70
     0
  9
$DIMZIN
 70
     0
  9
$DIMBLK
  1

  9
$DIMASO
 70
     1
  9
$DIMSHO
 70
     1
  9
$DIMPOST
  1
\X
  9
$DIMAPOST
  1

  9
$DIMALT
 70
     1
  9
$DIMALTD
 70
     2
  9
$DIMALTF
 40
25.3999999999999986
  9
$DIMLFAC
 40
1.0
  9
$DIMTOFL
 70
     0
  9
$DIMTVP
 40
0.0
  9
$DIMTIX
 70
     0
  9
$DIMSOXD
 70
     0
  9
$DIMSAH
 70
     0
  9
$DIMBLK1
  1

  9
$DIMBLK2
  1

  9
$DIMSTYLE
  2
STANDARD
  9
$DIMCLRD
 70
     0
  9
$DIMCLRE
 70
     0
  9
$DIMCLRT
 70
     0
  9
$DIMTFAC
 40
1.0
  9
$DIMGAP
 40
0.09
  9
$LUNITS
 70
     2
  9
$LUPREC
 70
     4
  9
$SKETCHINC
 40
0.1
  9
$FILLETRAD
 40
0.0
  9
$AUNITS
 70
     0
  9
$AUPREC
 70
     0
  9
$MENU
  1
.
  9
$ELEVATION
 40
0.0
  9
$PELEVATION
 40
0.0
  9
$THICKNESS
 40
0.0
  9
$LIMCHECK
 70
     0
  9
$BLIPMODE
 70
     0
  9
$CHAMFERA
 40
0.0
  9
$CHAMFERB
 40
0.0
  9
$SKPOLY
 70
     0
  9
$TDCREATE
 40
2458060.468368056230247
  9
$TDUPDATE
 40
2459142.6881018518470228
  9
$TDINDWG
 40
0.4353311343
  9
$TDUSRTIMER
 40
0.4353311343
  9
$USRTIMER
 70
     1
  9
$ANGBASE
 50
0.0
  9
$ANGDIR
 70
     0
  9
$PDMODE
 70
     0
  9
$PDSIZE
 40
0.3125
  9
$PLINEWID
 40
0.0
  9
$COORDS
 70
     1
  9
$SPLFRAME
 70
     0
  9
$SPLINETYPE
 70
     6
  9
$SPLINESEGS
 70
     8
  9
$ATTDIA
 70
     1
  9
$ATTREQ
 70
     1
  9
$HANDLING
 70
     1
  9
$HANDSEED
  5
17AB7
  9
$SURFTAB1
 70
     6
  9
$SURFTAB2
 70
     6
  9
$SURFTYPE
 70
     6
  9
$SURFU
 70
     6
  9
$SURFV
 70
     6
  9
$UCSNAME
  2

  9
$UCSORG
 10
0.0
 20
0.0
 30
0.0
  9
$UCSXDIR
 10
1.0
 20
0.0
 30
0.0
  9
$UCSYDIR
 10
0.0
 20
1.0
 30
0.0
  9
$PUCSNAME
  2

  9
$PUCSORG
 10
0.0
 20
0.0
 30
0.0
  9
$PUCSXDIR
 10
1.0
 20
0.0
 30
0.0
  9
$PUCSYDIR
 10
0.0
 20
1.0
 30
0.0
  9
$USERI1
 70
     0
  9
$USERI2
 70
     0
  9
$USERI3
 70
     0
  9
$USERI4
 70
     0
  9
$USERI5
 70
     0
  9
$USERR1
 40
0.0
  9
$USERR2
 40
0.0
  9
$USERR3
 40
0.0
  9
$USERR4
 40
0.0
  9
$USERR5
 40
0.0
  9
$WORLDVIEW
 70
     1
  9
$SHADEDGE
 70
     3
  9
$SHADEDIF
 70
    70
  9
$TILEMODE
 70
     1
  9
$MAXACTVP
 70
    64
  9
$PLIMCHECK
 70
     0
  9
$PEXTMIN
 10
1.0000000000000000E+20
 20
1.0000000000000000E+20
 30
1.0000000000000000E+20
  9
$PEXTMAX
 10
-1.0000000000000000E+20
 20
-1.0000000000000000E+20
 30
-1.0000000000000000E+20
  9
$PLIMMIN
 10
0.0
 20
0.0
  9
$PLIMMAX
 10
12.0
 20
9.0
  9
$UNITMODE
 70
     0
  9
$VISRETAIN
 70
     1
  9
$PLINEGEN
 70
     0
  9
$PSLTSCALE
 70
     1
  0
ENDSEC
  0
SECTION
  2
TABLES
  0
TABLE
  2
VPORT
 70
     1
  0
VPORT
  2
*ACTIVE
 70
     0
 10
0.0
 20
0.0
 11
1.0
 21
1.0
 12
362.4956518984382114
 22
61.1269805485176292
 13
0.0
 23
0.0
 14
1.0
 24
1.0
 15
0.0
 25
0.0
 16
0.0
 26
0.0
 36
60.4960186965801583
 17
3911.3653564453120453
 27
132.5796051025390057
 37
0.0
 40
18.1431223980845289
 41
1.7926829268292681
 42
50.0
 43
0.0
 44
0.0
 50
0.0
 51
0.0
 71
     0
 72
   100
 73
     1
 74
     1
 75
     0
 76
     0
 77
     0
 78
     0
  0
ENDTAB
  0
TABLE
  2
LTYPE
 70
     2
  0
LTYPE
  2
CONTINUOUS
 70
     0
  3
Solid line
 72
    65
 73
     0
 40
0.0
  0
LTYPE
  2
PHANTOM2
 70
     0
  3
___ _ _ ___ _ _ ___ _ _ ___ _ _
 72
    65
 73
     6
 40
1.25
 49
0.625
 49
-0.125
 49
0.125
 49
-0.125
 49
0.125
 49
-0.125
  0
ENDTAB
  0
TABLE
  2
LAYER
 70
     2
  0
LAYER
  2
0
 70
     0
 62
   255
  6
CONTINUOUS
  0
LAYER
  2
DEFPOINTS
 70
     0
 62
     7
  6
CONTINUOUS
  0
ENDTAB
  0
TABLE
  2
STYLE
 70
     1
  0
STYLE
  2
STANDARD
 70
     0
 40
0.0
 41
0.8
 50
0.0
 71
     0
 42
0.2
  3
txt
  4

  0
ENDTAB
  0
TABLE
  2
VIEW
 70
     2
  0
ENDTAB
  0
TABLE
  2
UCS
 70
     0
  0
ENDTAB
  0
TABLE
  2
APPID
 70
    11
  0
APPID
  2
ACAD
 70
     0
  0
APPID
  2
ACAD_MLEADERVER
 70
     0
  0
APPID
  2
ACAD_EXEMPT_FROM_CAD_STANDARDS
 70
     0
  0
APPID
  2
ACAD_NAV_VCDISPLAY
 70
     0
  0
APPID
  2
ACAECLAYERSTANDARD
 70
     0
  0
APPID
  2
ACCMTRANSPARENCY
 70
     0
  0
APPID
  2
ACAD_DSTYLE_DIMJAG
 70
     0
  0
APPID
  2
ACAD_DSTYLE_DIMTALN
 70
     0
  0
APPID
  2
ACDBATTR
 70
     0
  0
APPID
  2
ACADANNOTATIVE
 70
     0
  0
APPID
  2
DCO15
 70
     0
  0
ENDTAB
  0
TABLE
  2
DIMSTYLE
 70
     1
  0
DIMSTYLE
  2
STANDARD
 70
     0
  3

  4

  5

  6

  7

 40
1.0
 41
0.1875
 42
0.0625
 43
0.38
 44
0.125
 45
0.0
 46
0.0
 47
0.01
 48
0.01
140
0.15625
141
0.09
142
0.0
143
25.3999999999999986
144
1.0
145
0.0
146
1.0
147
0.09
 71
     1
 72
     0
 73
     1
 74
     1
 75
     0
 76
     0
 77
     0
 78
     4
170
     0
171
     2
172
     0
173
     0
174
     0
175
     0
176
     0
177
     0
178
     0
  0
ENDTAB
  0
ENDSEC
  0
SECTION
  2
BLOCKS
  0
BLOCK
  8
0
  2
$MODEL_SPACE
 70
     0
 10
0.0
 20
0.0
 30
0.0
  3
$MODEL_SPACE
  1

  0
ENDBLK
  5
21
  8
0
  0
BLOCK
 67
     1
  8
0
  2
$PAPER_SPACE
 70
     0
 10
0.0
 20
0.0
 30
0.0
  3
$PAPER_SPACE
  1

  0
ENDBLK
  5
1D
 67
     1
  8
0
  0
ENDSEC
  0
SECTION
  2
ENTITIES
  0
LINE
  5
1795F
  8
0
 10
4257.6893551464308985
 20
198.0503554302686098
 30
0.0
 11
4257.6893551464308985
 21
198.098649718968602
 31
0.0
  0
LINE
  5
17960
  8
0
 10
4257.768092212607371
 20
198.0033554406736016
 30
0.0
 11
4257.7680953038307052
 21
198.0503554302939904
 31
0.0
  0
LINE
  5
17961
  8
0
 10
4260.8064324027818657
 20
198.2058785862188017
 30
0.0
 11
4260.7181509963538701
 21
198.117389876468593
 31
0.0
  0
LINE
  5
17962
  8
0
 10
4259.3428984525316991
 20
198.0033019500685896
 30
0.0
 11
4259.3428966235296684
 21
198.0503554308012895
 31
0.0
  0
LINE
  5
17963
  8
0
 10
4259.5225286294307807
 20
196.8976902437686078
 30
0.0
 11
4259.5225286317872815
 21
189.5707489240685959
 31
0.0
  0
LINE
  5
17964
  8
0
 10
4258.4142658267619481
 20
198.003333492438486
 30
0.0
 11
4259.5225286294307807
 21
196.8976902437686078
 31
0.0
  0
LINE
  5
17965
  8
0
 10
4260.8064324027818657
 20
198.2058785862188017
 30
0.0
 11
4260.8951289024516882
 21
198.117389876468593
 31
0.0
  0
LINE
  5
17966
  8
0
 10
4283.6792817028617719
 20
189.4058232132207138
 30
0.0
 11
4288.1396462321308718
 21
189.5707489332687032
 31
0.0
  0
LINE
  5
17967
  8
0
 10
4273.8910916155482482
 20
189.5707489286878911
 30
0.0
 11
4278.7591023119312013
 21
189.4003549460686031
 31
0.0
  0
LINE
  5
17968
  8
0
 10
4288.1396462321308718
 20
189.5707489332687032
 30
0.0
 11
4259.5225286317872815
 21
189.5707489240685959
 31
0.0
  0
LINE
  5
17969
  8
0
 10
4288.1396462344309839
 20
196.8976902529686015
 30
0.0
 11
4259.5225286294307807
 21
196.8976902437686078
 31
0.0
  0
LINE
  5
1796A
  8
0
 10
4289.2479310278249613
 20
198.0033554403634923
 30
0.0
 11
4288.1396462344309839
 21
196.8976902529686015
 31
0.0
  0
LINE
  5
1796B
  8
0
 10
4259.3428984525316991
 20
198.0033019500685896
 30
0.0
 11
4257.768092212607371
 21
198.0033554406736016
 31
0.0
  0
LINE
  5
1796C
  8
0
 10
4288.3192764063323921
 20
198.0033554400687024
 30
0.0
 11
4289.894079555031567
 21
198.0033554405686118
 31
0.0
  0
LINE
  5
1796D
  8
0
 10
4289.9728197133317735
 20
198.0503554406685964
 30
0.0
 11
4257.6893551464308985
 21
198.0503554302686098
 31
0.0
  0
LINE
  5
1796E
  8
0
 10
4257.6893551464308985
 20
198.098649718968602
 30
0.0
 11
4289.9728197133317735
 21
198.098649718968602
 31
0.0
  0
LINE
  5
1796F
  8
0
 10
4288.1396462344309839
 20
196.8976902529686015
 30
0.0
 11
4288.1396462321308718
 21
189.5707489332687032
 31
0.0
  0
LINE
  5
17970
  8
0
 10
4288.3192796420853483
 20
198.0033554400687024
 30
0.0
 11
4288.3192782028309011
 21
198.0457288522686099
 31
0.0
  0
LINE
  5
17971
  8
0
 10
4289.8940829479297463
 20
198.0033554405686118
 30
0.0
 11
4289.8940829479151944
 21
198.0503554406433011
 31
0.0
  0
LINE
  5
17972
  8
0
 10
4289.9728197133317735
 20
198.0503554406685964
 30
0.0
 11
4289.9728197133317735
 21
198.098649718968602
 31
0.0
  0
ARC
  5
17973
  8
0
 10
4282.090073285087783
 20
191.7212190354130996
 30
0.0
 40
2.6937694280100839
 50
291.1019298087779816
 51
300.5069644511958131
  0
ARC
  5
17974
  8
0
 10
4284.2351649955026005
 20
639.1235219513123411
 30
0.0
 40
449.9169669507650724
 50
269.3539658704655722
 51
269.8503336325846931
  0
ARC
  5
17975
  8
0
 10
4262.6630635526871629
 20
198.1499099513374915
 30
0.0
 40
0.0405318629669056
 50
0.1345269623760112
 51
20.8131628647437985
  0
ARC
  5
17976
  8
0
 10
4262.6564536606920228
 20
198.1473425760385112
 30
0.0
 40
0.0476226920380521
 50
20.8747633982298417
 51
37.64054736186106
  0
ARC
  5
17977
  8
0
 10
4262.6416615808184361
 20
198.1349669075881934
 30
0.0
 40
0.0668981924257948
 50
38.2967490825501926
 51
62.5858307127830784
  0
ARC
  5
17978
  8
0
 10
4262.627613769646814
 20
198.1090342171222005
 30
0.0
 40
0.0963880248131756
 50
62.2705729284222187
 51
81.0429046914441358
  0
ARC
  5
17979
  8
0
 10
4262.6248555941838276
 20
198.0950434574270105
 30
0.0
 40
0.1106389521860432
 50
80.7600203646799883
 51
99.3093164787581202
  0
ARC
  5
1797A
  8
0
 10
4262.6214043030158791
 20
198.1114670526731913
 30
0.0
 40
0.0938763581678822
 50
98.8521210881123551
 51
121.1105650745145965
  0
ARC
  5
1797B
  8
0
 10
4262.6038397153915867
 20
198.1397034807401951
 30
0.0
 40
0.0606273170906774
 50
120.6864319610470062
 51
148.3441219559184958
  0
ARC
  5
1797C
  8
0
 10
4262.5880030736116169
 20
198.1497250963701049
 30
0.0
 40
0.0418879883614454
 50
148.643988973606497
 51
179.6169748660605023
  0
LINE
  5
1797D
  8
0
 10
4262.5461149889306398
 20
198.117389876468593
 30
0.0
 11
4262.5461160212316827
 21
198.1500051175684121
 31
0.0
  0
LINE
  5
1797E
  8
0
 10
4262.7035953039312517
 20
198.117389876468593
 30
0.0
 11
4262.7035953039312517
 21
198.150005117568611
 31
0.0
  0
ARC
  5
1797F
  8
0
 10
4262.5920274824256921
 20
198.1512850472190053
 30
0.0
 40
0.0459292988077223
 50
181.596890527513807
 51
227.5601189058380953
  0
ARC
  5
17980
  8
0
 10
4262.6576680987736836
 20
198.1512917442043999
 30
0.0
 40
0.0459452237089838
 50
312.4492224649081891
 51
358.3953084040069257
  0
ARC
  5
17981
  8
0
 10
4260.6395953039309461
 20
198.0386497189685997
 30
0.0
 40
0.0787401575000059
 50
90.0
 51
130.3591678932494062
  0
LINE
  5
17982
  8
0
 10
4260.6395953039309461
 20
198.117389876468593
 30
0.0
 11
4272.4821149889312437
 21
198.117389876468593
 31
0.0
  0
ARC
  5
17983
  8
0
 10
4272.4821149889312437
 20
198.0386497189687134
 30
0.0
 40
0.0787401574999827
 50
49.6408321066992215
 51
90.0
  0
LINE
  5
17984
  8
0
 10
4272.3152778900312114
 20
198.205878586168609
 30
0.0
 11
4272.403559296630192
 21
198.117389876468593
 31
0.0
  0
LINE
  5
17985
  8
0
 10
4272.3152778900312114
 20
198.205878586168609
 30
0.0
 11
4272.2265813903313756
 21
198.117389876468593
 31
0.0
  0
ARC
  5
17986
  8
0
 10
4263.6470635526866317
 20
198.1499099513376052
 30
0.0
 40
0.0405318629668221
 50
0.1345269623483277
 51
20.8131628647559808
  0
ARC
  5
17987
  8
0
 10
4263.6404536606933107
 20
198.1473425760385112
 30
0.0
 40
0.0476226920380521
 50
20.8747633982298417
 51
37.64054736186106
  0
ARC
  5
17988
  8
0
 10
4263.6256615808179049
 20
198.1349669075881934
 30
0.0
 40
0.0668981924257948
 50
38.2967490825501926
 51
62.5858307127830784
  0
ARC
  5
17989
  8
0
 10
4263.6116137696471924
 20
198.1090342171222005
 30
0.0
 40
0.0963880248131756
 50
62.2705729284222187
 51
81.0429046914441358
  0
ARC
  5
1798A
  8
0
 10
4263.608855594184206
 20
198.0950434574270105
 30
0.0
 40
0.1106389521860432
 50
80.7600203646799883
 51
99.3093164787581202
  0
ARC
  5
1798B
  8
0
 10
4263.6054043030162575
 20
198.1114670526731913
 30
0.0
 40
0.0938763581678822
 50
98.8521210881123551
 51
121.1105650745145965
  0
ARC
  5
1798C
  8
0
 10
4263.5878397153928745
 20
198.1397034807401951
 30
0.0
 40
0.0606273170906774
 50
120.6864319610470062
 51
148.3441219559184958
  0
ARC
  5
1798D
  8
0
 10
4263.5720030736119952
 20
198.1497250963701049
 30
0.0
 40
0.0418879883614454
 50
148.643988973606497
 51
179.6169748660605023
  0
LINE
  5
1798E
  8
0
 10
4263.5301149889301087
 20
198.117389876468593
 30
0.0
 11
4263.5301160212311515
 21
198.1500051175684121
 31
0.0
  0
LINE
  5
1798F
  8
0
 10
4263.6875953039307205
 20
198.117389876468593
 30
0.0
 11
4263.6875953039307205
 21
198.150005117568611
 31
0.0
  0
ARC
  5
17990
  8
0
 10
4263.5760274824260705
 20
198.1512850472190053
 30
0.0
 40
0.0459292988077268
 50
181.5968905275153986
 51
227.5601189058380953
  0
ARC
  5
17991
  8
0
 10
4263.6416680987740619
 20
198.1512917442043999
 30
0.0
 40
0.0459452237089838
 50
312.4492224649081891
 51
358.3953084040069257
  0
ARC
  5
17992
  8
0
 10
4264.6310635526870101
 20
198.1499099513374915
 30
0.0
 40
0.040531862966898
 50
0.1345269623743827
 51
20.8131628647453191
  0
ARC
  5
17993
  8
0
 10
4264.6244536606927795
 20
198.1473425760385112
 30
0.0
 40
0.0476226920380521
 50
20.8747633982298417
 51
37.64054736186106
  0
ARC
  5
17994
  8
0
 10
4264.6096615808191927
 20
198.1349669075881934
 30
0.0
 40
0.0668981924257948
 50
38.2967490825501926
 51
62.5858307127830784
  0
ARC
  5
17995
  8
0
 10
4264.5956137696457517
 20
198.1090342171222005
 30
0.0
 40
0.0963880248131756
 50
62.2705729284222187
 51
81.0429046914441358
  0
ARC
  5
17996
  8
0
 10
4264.5928555941827653
 20
198.0950434574270105
 30
0.0
 40
0.1106389521860432
 50
80.7600203646799883
 51
99.3093164787581202
  0
ARC
  5
17997
  8
0
 10
4264.5894043030148168
 20
198.1114670526731913
 30
0.0
 40
0.0938763581678822
 50
98.8521210881123551
 51
121.1105650745145965
  0
ARC
  5
17998
  8
0
 10
4264.5718397153923434
 20
198.1397034807401951
 30
0.0
 40
0.0606273170906774
 50
120.6864319610470062
 51
148.3441219559184958
  0
ARC
  5
17999
  8
0
 10
4264.5560030736105546
 20
198.1497250963701049
 30
0.0
 40
0.0418879883614454
 50
148.643988973606497
 51
179.6169748660605023
  0
LINE
  5
1799A
  8
0
 10
4264.5141149889313965
 20
198.117389876468593
 30
0.0
 11
4264.5141160212306204
 21
198.1500051175684121
 31
0.0
  0
LINE
  5
1799B
  8
0
 10
4264.6715953039310989
 20
198.117389876468593
 30
0.0
 11
4264.6715953039310989
 21
198.150005117568611
 31
0.0
  0
ARC
  5
1799C
  8
0
 10
4264.5600274824273583
 20
198.1512850472188916
 30
0.0
 40
0.0459292988076776
 50
181.5968905272029019
 51
227.5601189058864975
  0
ARC
  5
1799D
  8
0
 10
4264.6256680987753498
 20
198.1512917442043999
 30
0.0
 40
0.0459452237089838
 50
312.4492224649069954
 51
358.3953084040069257
  0
ARC
  5
1799E
  8
0
 10
4265.6150635526855694
 20
198.1499099513374915
 30
0.0
 40
0.0405318629668918
 50
0.1345269623711259
 51
20.8131628647453191
  0
ARC
  5
1799F
  8
0
 10
4265.6084536606931579
 20
198.1473425760385112
 30
0.0
 40
0.0476226920380521
 50
20.8747633982298417
 51
37.64054736186106
  0
ARC
  5
179A0
  8
0
 10
4265.5936615808177521
 20
198.1349669075881934
 30
0.0
 40
0.0668981924257948
 50
38.2967490825501926
 51
62.5858307127830784
  0
ARC
  5
179A1
  8
0
 10
4265.5796137696470396
 20
198.1090342171222005
 30
0.0
 40
0.0963880248131756
 50
62.2705729284222187
 51
81.0429046914441358
  0
ARC
  5
179A2
  8
0
 10
4265.5768555941840532
 20
198.0950434574270105
 30
0.0
 40
0.1106389521860432
 50
80.7600203646799883
 51
99.3093164787581202
  0
ARC
  5
179A3
  8
0
 10
4265.5734043030161047
 20
198.1114670526731913
 30
0.0
 40
0.0938763581678822
 50
98.8521210881123551
 51
121.1105650745145965
  0
ARC
  5
179A4
  8
0
 10
4265.5558397153918122
 20
198.1397034807401951
 30
0.0
 40
0.0606273170906774
 50
120.6864319610470062
 51
148.3441219559184958
  0
ARC
  5
179A5
  8
0
 10
4265.5400030736118424
 20
198.1497250963701049
 30
0.0
 40
0.0418879883614454
 50
148.643988973606497
 51
179.6169748660605023
  0
LINE
  5
179A6
  8
0
 10
4265.4981149889317749
 20
198.117389876468593
 30
0.0
 11
4265.4981160212300892
 21
198.1500051175684121
 31
0.0
  0
LINE
  5
179A7
  8
0
 10
4265.6555953039323867
 20
198.117389876468593
 30
0.0
 11
4265.6555953039323867
 21
198.150005117568611
 31
0.0
  0
ARC
  5
179A8
  8
0
 10
4265.5440274824268272
 20
198.1512850472190053
 30
0.0
 40
0.045929298807725
 50
181.5968905275153986
 51
227.5601189058392038
  0
ARC
  5
179A9
  8
0
 10
4265.6096680987739092
 20
198.1512917442043999
 30
0.0
 40
0.0459452237089838
 50
312.4492224649069954
 51
358.3953084040069257
  0
ARC
  5
179AA
  8
0
 10
4266.5990635526859478
 20
198.1499099513374915
 30
0.0
 40
0.0405318629669123
 50
0.1345269623760112
 51
20.8131628647407609
  0
ARC
  5
179AB
  8
0
 10
4266.5924536606944457
 20
198.1473425760385112
 30
0.0
 40
0.0476226920380521
 50
20.8747633982298417
 51
37.64054736186106
  0
ARC
  5
179AC
  8
0
 10
4266.57766158081904
 20
198.1349669075881934
 30
0.0
 40
0.0668981924257948
 50
38.2967490825501926
 51
62.5858307127830784
  0
ARC
  5
179AD
  8
0
 10
4266.5636137696474179
 20
198.1090342171222005
 30
0.0
 40
0.0963880248131756
 50
62.2705729284222187
 51
81.0429046914441358
  0
ARC
  5
179AE
  8
0
 10
4266.5608555941844315
 20
198.0950434574270105
 30
0.0
 40
0.1106389521860432
 50
80.7600203646799883
 51
99.3093164787581202
  0
ARC
  5
179AF
  8
0
 10
4266.557404303014664
 20
198.1114670526731913
 30
0.0
 40
0.0938763581678822
 50
98.8521210881123551
 51
121.1105650745145965
  0
ARC
  5
179B0
  8
0
 10
4266.5398397153921906
 20
198.1397034807401951
 30
0.0
 40
0.0606273170906774
 50
120.6864319610470062
 51
148.3441219559184958
  0
ARC
  5
179B1
  8
0
 10
4266.5240030736122208
 20
198.1497250963701049
 30
0.0
 40
0.0418879883614454
 50
148.643988973606497
 51
179.6169748660605023
  0
LINE
  5
179B2
  8
0
 10
4266.4821149889312437
 20
198.117389876468593
 30
0.0
 11
4266.4821160212313771
 21
198.1500051175684121
 31
0.0
  0
LINE
  5
179B3
  8
0
 10
4266.6395953039309461
 20
198.117389876468593
 30
0.0
 11
4266.6395953039309461
 21
198.150005117568611
 31
0.0
  0
ARC
  5
179B4
  8
0
 10
4266.528027482426296
 20
198.1512850472190053
 30
0.0
 40
0.0459292988077228
 50
181.5968905275171039
 51
227.5601189058403975
  0
ARC
  5
179B5
  8
0
 10
4266.593668098773378
 20
198.1512917442043999
 30
0.0
 40
0.0459452237089838
 50
312.4492224649081891
 51
358.3953084040069257
  0
ARC
  5
179B6
  8
0
 10
4267.5830635526872356
 20
198.1499099513374915
 30
0.0
 40
0.0405318629669063
 50
0.1345269623792681
 51
20.8131628647453191
  0
ARC
  5
179B7
  8
0
 10
4267.5764536606930051
 20
198.1473425760385112
 30
0.0
 40
0.0476226920380521
 50
20.8747633982298417
 51
37.64054736186106
  0
ARC
  5
179B8
  8
0
 10
4267.5616615808194183
 20
198.1349669075881934
 30
0.0
 40
0.0668981924257948
 50
38.2967490825501926
 51
62.5858307127830784
  0
ARC
  5
179B9
  8
0
 10
4267.5476137696468868
 20
198.1090342171222005
 30
0.0
 40
0.0963880248131756
 50
62.2705729284222187
 51
81.0429046914441358
  0
ARC
  5
179BA
  8
0
 10
4267.5448555941829909
 20
198.0950434574270105
 30
0.0
 40
0.1106389521860432
 50
80.7600203646799883
 51
99.3093164787581202
  0
ARC
  5
179BB
  8
0
 10
4267.5414043030159519
 20
198.1114670526731913
 30
0.0
 40
0.0938763581678822
 50
98.8521210881123551
 51
121.1105650745145965
  0
ARC
  5
179BC
  8
0
 10
4267.5238397153916594
 20
198.1397034807401951
 30
0.0
 40
0.0606273170906774
 50
120.6864319610470062
 51
148.3441219559184958
  0
ARC
  5
179BD
  8
0
 10
4267.5080030736107801
 20
198.1497250963701049
 30
0.0
 40
0.0418879883614454
 50
148.643988973606497
 51
179.6169748660605023
  0
LINE
  5
179BE
  8
0
 10
4267.4661149889307126
 20
198.117389876468593
 30
0.0
 11
4267.4661160212308459
 21
198.1500051175684121
 31
0.0
  0
LINE
  5
179BF
  8
0
 10
4267.6235953039313245
 20
198.117389876468593
 30
0.0
 11
4267.6235953039313245
 21
198.150005117568611
 31
0.0
  0
ARC
  5
179C0
  8
0
 10
4267.5120274824257649
 20
198.1512850472190053
 30
0.0
 40
0.0459292988077303
 50
181.596890527513807
 51
227.5601189058380953
  0
ARC
  5
179C1
  8
0
 10
4267.5776680987728469
 20
198.1512917442043999
 30
0.0
 40
0.0459452237089838
 50
312.4492224649092122
 51
358.3953084040069257
  0
ARC
  5
179C2
  8
0
 10
4268.567063552685795
 20
198.1499099513374915
 30
0.0
 40
0.0405318629669021
 50
0.1345269623760112
 51
20.8131628647453191
  0
ARC
  5
179C3
  8
0
 10
4268.5604536606933834
 20
198.1473425760385112
 30
0.0
 40
0.0476226920380521
 50
20.8747633982298417
 51
37.64054736186106
  0
ARC
  5
179C4
  8
0
 10
4268.5456615808188872
 20
198.1349669075881934
 30
0.0
 40
0.0668981924257948
 50
38.2967490825501926
 51
62.5858307127830784
  0
ARC
  5
179C5
  8
0
 10
4268.5316137696472651
 20
198.1090342171222005
 30
0.0
 40
0.0963880248131756
 50
62.2705729284222187
 51
81.0429046914441358
  0
ARC
  5
179C6
  8
0
 10
4268.5288555941842787
 20
198.0950434574270105
 30
0.0
 40
0.1106389521860432
 50
80.7600203646799883
 51
99.3093164787581202
  0
ARC
  5
179C7
  8
0
 10
4268.5254043030163302
 20
198.1114670526731913
 30
0.0
 40
0.0938763581678822
 50
98.8521210881123551
 51
121.1105650745145965
  0
ARC
  5
179C8
  8
0
 10
4268.5078397153920378
 20
198.1397034807401951
 30
0.0
 40
0.0606273170906774
 50
120.6864319610470062
 51
148.3441219559184958
  0
ARC
  5
179C9
  8
0
 10
4268.4920030736111585
 20
198.1497250963701049
 30
0.0
 40
0.0418879883614454
 50
148.643988973606497
 51
179.6169748660605023
  0
LINE
  5
179CA
  8
0
 10
4268.4501149889310909
 20
198.117389876468593
 30
0.0
 11
4268.4501160212312243
 21
198.1500051175684121
 31
0.0
  0
LINE
  5
179CB
  8
0
 10
4268.6075953039317028
 20
198.117389876468593
 30
0.0
 11
4268.6075953039317028
 21
198.150005117568611
 31
0.0
  0
ARC
  5
179CC
  8
0
 10
4268.4960274824261433
 20
198.1512850472190053
 30
0.0
 40
0.0459292988077323
 50
181.5968905275252041
 51
227.5601189058380953
  0
ARC
  5
179CD
  8
0
 10
4268.5616680987741347
 20
198.1512917442043999
 30
0.0
 40
0.0459452237089838
 50
312.4492224649092122
 51
358.3953084040069257
  0
ARC
  5
179CE
  8
0
 10
4269.5510635526870828
 20
198.1499099513374915
 30
0.0
 40
0.0405318629669092
 50
0.1345269623808965
 51
20.8131628647453191
  0
ARC
  5
179CF
  8
0
 10
4269.5444536606919428
 20
198.1473425760385112
 30
0.0
 40
0.0476226920380521
 50
20.8747633982298417
 51
37.64054736186106
  0
ARC
  5
179D0
  8
0
 10
4269.5296615808192655
 20
198.1349669075881934
 30
0.0
 40
0.0668981924257948
 50
38.2967490825501926
 51
62.5858307127830784
  0
ARC
  5
179D1
  8
0
 10
4269.5156137696458245
 20
198.1090342171222005
 30
0.0
 40
0.0963880248131756
 50
62.2705729284222187
 51
81.0429046914441358
  0
ARC
  5
179D2
  8
0
 10
4269.5128555941828381
 20
198.0950434574270105
 30
0.0
 40
0.1106389521860432
 50
80.7600203646799883
 51
99.3093164787581202
  0
ARC
  5
179D3
  8
0
 10
4269.5094043030157991
 20
198.1114670526731913
 30
0.0
 40
0.0938763581678822
 50
98.8521210881123551
 51
121.1105650745145965
  0
ARC
  5
179D4
  8
0
 10
4269.4918397153924161
 20
198.1397034807401951
 30
0.0
 40
0.0606273170906774
 50
120.6864319610470062
 51
148.3441219559184958
  0
ARC
  5
179D5
  8
0
 10
4269.4760030736106273
 20
198.1497250963701049
 30
0.0
 40
0.0418879883614454
 50
148.643988973606497
 51
179.6169748660605023
  0
LINE
  5
179D6
  8
0
 10
4269.4341149889305598
 20
198.117389876468593
 30
0.0
 11
4269.4341160212316026
 21
198.1500051175684121
 31
0.0
  0
LINE
  5
179D7
  8
0
 10
4269.5915953039311717
 20
198.117389876468593
 30
0.0
 11
4269.5915953039311717
 21
198.150005117568611
 31
0.0
  0
ARC
  5
179D8
  8
0
 10
4269.4800274824256121
 20
198.1512850472190053
 30
0.0
 40
0.0459292988077367
 50
181.5968905275219072
 51
227.56011890583369
  0
ARC
  5
179D9
  8
0
 10
4269.5456680987736036
 20
198.1512917442043999
 30
0.0
 40
0.0459452237089838
 50
312.4492224649092122
 51
358.3953084040069257
  0
ARC
  5
179DA
  8
0
 10
4283.4944858270991972
 20
192.4008420163389985
 30
0.0
 40
3.000714439384855
 50
269.2946653285342791
 51
273.5307351222999728
  0
LINE
  5
179DB
  8
0
 10
4283.4575467279482837
 20
189.4003549475453951
 30
0.0
 11
4278.7591023119312013
 21
189.4003549460686031
 31
0.0
  0
ARC
  5
179DC
  8
0
 10
4280.1226855092363621
 20
191.5605557284193878
 30
0.0
 40
2.5159272865140858
 50
239.1608903932003045
 51
247.5588189236491985
  0
LINE
  5
179DD
  8
0
 10
4263.9828931610009022
 20
189.4058232132207138
 30
0.0
 11
4259.5225286317872815
 21
189.5707489240685959
 31
0.0
  0
ARC
  5
179DE
  8
0
 10
4265.5721015787748911
 20
191.7212190354130996
 30
0.0
 40
2.6937694280100839
 50
239.4930355488041869
 51
248.8980701912219899
  0
ARC
  5
179DF
  8
0
 10
4263.4270098683600736
 20
639.1235219513123411
 30
0.0
 40
449.9169669507650724
 50
270.1496663674153069
 51
270.6460341295344278
  0
ARC
  5
179E0
  8
0
 10
4264.1676890367625674
 20
192.4008420163389985
 30
0.0
 40
3.000714439384855
 50
266.4692648777000272
 51
270.7053346714657209
  0
LINE
  5
179E1
  8
0
 10
4264.2046281358288979
 20
189.4003549475960995
 30
0.0
 11
4268.9030725519305633
 21
189.4003549460686031
 31
0.0
  0
ARC
  5
179E2
  8
0
 10
4267.539489354626312
 20
191.5605557284193878
 30
0.0
 40
2.5159272865140858
 50
292.4411810763506878
 51
300.8391100492955275
  0
LINE
  5
179E3
  8
0
 10
4273.7710823302768404
 20
189.5707489286492944
 30
0.0
 11
4268.9030725519305633
 21
189.4003549460686031
 31
0.0
  0
ARC
  5
179E4
  8
0
 10
4270.5350635526865517
 20
198.1499099513374915
 30
0.0
 40
0.0405318629669092
 50
0.1345269623808965
 51
20.8131628647453191
  0
ARC
  5
179E5
  8
0
 10
4270.5284536606932306
 20
198.1473425760385112
 30
0.0
 40
0.0476226920380521
 50
20.8747633982298417
 51
37.64054736186106
  0
ARC
  5
179E6
  8
0
 10
4270.5136615808178249
 20
198.1349669075881934
 30
0.0
 40
0.0668981924257948
 50
38.2967490825501926
 51
62.5858307127830784
  0
ARC
  5
179E7
  8
0
 10
4270.4996137696462029
 20
198.1090342171222005
 30
0.0
 40
0.0963880248131756
 50
62.2705729284222187
 51
81.0429046914441358
  0
ARC
  5
179E8
  8
0
 10
4270.4968555941841259
 20
198.0950434574270105
 30
0.0
 40
0.1106389521860432
 50
80.7600203646799883
 51
99.3093164787581202
  0
ARC
  5
179E9
  8
0
 10
4270.4934043030161774
 20
198.1114670526731913
 30
0.0
 40
0.0938763581678822
 50
98.8521210881123551
 51
121.1105650745145965
  0
ARC
  5
179EA
  8
0
 10
4270.4758397153927945
 20
198.1397034807401951
 30
0.0
 40
0.0606273170906774
 50
120.6864319610470062
 51
148.3441219559184958
  0
ARC
  5
179EB
  8
0
 10
4270.4600030736110057
 20
198.1497250963701049
 30
0.0
 40
0.0418879883614454
 50
148.643988973606497
 51
179.6169748660605023
  0
LINE
  5
179EC
  8
0
 10
4270.4181149889318476
 20
198.117389876468593
 30
0.0
 11
4270.418116021231981
 21
198.1500051175684121
 31
0.0
  0
LINE
  5
179ED
  8
0
 10
4270.5755953039306405
 20
198.117389876468593
 30
0.0
 11
4270.5755953039306405
 21
198.150005117568611
 31
0.0
  0
ARC
  5
179EE
  8
0
 10
4270.4640274824259905
 20
198.1512850472190053
 30
0.0
 40
0.0459292988077367
 50
181.5968905275219072
 51
227.56011890583369
  0
ARC
  5
179EF
  8
0
 10
4270.5296680987739819
 20
198.1512917442043999
 30
0.0
 40
0.0459452237089838
 50
312.4492224649092122
 51
358.3953084040069257
  0
ATTDEF
  5
179F1
  8
DEFPOINTS
 10
4273.8314236869346132
 20
198.002759827829891
 30
0.0
 40
0.001
  1
3881T-F
  3

  2
MODELNUMBER
 70
     0
1001
ACDBATTR
1070
     0
1070
     1
  0
ATTDEF
  5
179F2
  8
DEFPOINTS
 10
4273.8312978772783026
 20
198.0010929874507042
 30
0.0
 40
0.001
  1
POISE
  3

  2
TRADENAME
 70
     0
1001
ACDBATTR
1070
     0
1070
     1
  0
ATTDEF
  5
179F3
  8
DEFPOINTS
 10
4273.8314236869346132
 20
197.9994264944965039
 30
0.0
 40
0.001
  1
KITCHEN SINK
  3

  2
PRODUCT
 70
     0
1001
ACDBATTR
1070
     0
1070
     1
  0
ENDSEC
  0
EOF
